  0
SECTION
  2
HEADER
  9
$ACADVER
  1
AC1009
  9
$INSBASE
 10
0.0
 20
0.0
 30
0.0
  9
$EXTMIN
 10
-64.144372
 20
-13.391329
 30
0.0
  9
$EXTMAX
 10
83.217818
 20
64.80265
 30
0.0
  9
$LIMMIN
 10
0.0
 20
0.0
  9
$LIMMAX
 10
12.0
 20
9.0
  9
$ORTHOMODE
 70
     1
  9
$REGENMODE
 70
     1
  9
$FILLMODE
 70
     1
  9
$QTEXTMODE
 70
     0
  9
$MIRRTEXT
 70
     1
  9
$DRAGMODE
 70
     2
  9
$LTSCALE
 40
5.0
  9
$OSMODE
 70
     0
  9
$ATTMODE
 70
     1
  9
$TEXTSIZE
 40
0.2
  9
$TRACEWID
 40
0.05
  9
$TEXTSTYLE
  7
STANDARD
  9
$CLAYER
  8
0
  9
$CELTYPE
  6
BYLAYER
  9
$CECOLOR
 62
   256
  9
$DIMSCALE
 40
1.0
  9
$DIMASZ
 40
2.5
  9
$DIMEXO
 40
0.0
  9
$DIMDLI
 40
5.0
  9
$DIMRND
 40
0.0
  9
$DIMDLE
 40
0.0
  9
$DIMEXE
 40
1.0
  9
$DIMTP
 40
0.0
  9
$DIMTM
 40
0.0
  9
$DIMTXT
 40
2.5
  9
$DIMCEN
 40
0.09
  9
$DIMTSZ
 40
0.0
  9
$DIMTOL
 70
     0
  9
$DIMLIM
 70
     0
  9
$DIMTIH
 70
     0
  9
$DIMTOH
 70
     0
  9
$DIMSE1
 70
     0
  9
$DIMSE2
 70
     0
  9
$DIMTAD
 70
     1
  9
$DIMZIN
 70
     0
  9
$DIMBLK
  1

  9
$DIMASO
 70
     0
  9
$DIMSHO
 70
     0
  9
$DIMPOST
  1

  9
$DIMAPOST
  1

  9
$DIMALT
 70
     0
  9
$DIMALTD
 70
     2
  9
$DIMALTF
 40
25.4
  9
$DIMLFAC
 40
1.0
  9
$DIMTOFL
 70
     1
  9
$DIMTVP
 40
0.0
  9
$DIMTIX
 70
     0
  9
$DIMSOXD
 70
     0
  9
$DIMSAH
 70
     0
  9
$DIMBLK1
  1

  9
$DIMBLK2
  1

  9
$DIMSTYLE
  2
*UNNAMED
  9
$DIMCLRD
 70
     0
  9
$DIMCLRE
 70
     0
  9
$DIMCLRT
 70
     0
  9
$DIMTFAC
 40
1.0
  9
$DIMGAP
 40
0.09
  9
$LUNITS
 70
     2
  9
$LUPREC
 70
     4
  9
$SKETCHINC
 40
0.1
  9
$FILLETRAD
 40
1.0
  9
$AUNITS
 70
     0
  9
$AUPREC
 70
     0
  9
$MENU
  1
wiberger
  9
$ELEVATION
 40
0.0
  9
$PELEVATION
 40
0.0
  9
$THICKNESS
 40
0.0
  9
$LIMCHECK
 70
     0
  9
$BLIPMODE
 70
     1
  9
$CHAMFERA
 40
1.0
  9
$CHAMFERB
 40
1.0
  9
$SKPOLY
 70
     0
  9
$TDCREATE
 40
2450189.580631713
  9
$TDUPDATE
 40
2450218.449500926
  9
$TDINDWG
 40
0.0163371528
  9
$TDUSRTIMER
 40
0.0163371528
  9
$USRTIMER
 70
     1
  9
$ANGBASE
 50
0.0
  9
$ANGDIR
 70
     0
  9
$PDMODE
 70
     0
  9
$PDSIZE
 40
0.0
  9
$PLINEWID
 40
0.0
  9
$COORDS
 70
     0
  9
$SPLFRAME
 70
     0
  9
$SPLINETYPE
 70
     6
  9
$SPLINESEGS
 70
     8
  9
$ATTDIA
 70
     0
  9
$ATTREQ
 70
     1
  9
$HANDLING
 70
     0
  9
$HANDSEED
  5
0
  9
$SURFTAB1
 70
     6
  9
$SURFTAB2
 70
     6
  9
$SURFTYPE
 70
     6
  9
$SURFU
 70
     6
  9
$SURFV
 70
     6
  9
$UCSNAME
  2

  9
$UCSORG
 10
0.0
 20
0.0
 30
0.0
  9
$UCSXDIR
 10
1.0
 20
0.0
 30
0.0
  9
$UCSYDIR
 10
0.0
 20
1.0
 30
0.0
  9
$PUCSNAME
  2

  9
$PUCSORG
 10
0.0
 20
0.0
 30
0.0
  9
$PUCSXDIR
 10
1.0
 20
0.0
 30
0.0
  9
$PUCSYDIR
 10
0.0
 20
1.0
 30
0.0
  9
$USERI1
 70
     0
  9
$USERI2
 70
     0
  9
$USERI3
 70
     0
  9
$USERI4
 70
     0
  9
$USERI5
 70
     0
  9
$USERR1
 40
0.0
  9
$USERR2
 40
0.0
  9
$USERR3
 40
0.0
  9
$USERR4
 40
0.0
  9
$USERR5
 40
0.0
  9
$WORLDVIEW
 70
     1
  9
$SHADEDGE
 70
     3
  9
$SHADEDIF
 70
    70
  9
$TILEMODE
 70
     1
  9
$MAXACTVP
 70
    16
  9
$PINSBASE
 10
0.0
 20
0.0
 30
0.0
  9
$PLIMCHECK
 70
     0
  9
$PEXTMIN
 10
1.000000E+20
 20
1.000000E+20
 30
1.000000E+20
  9
$PEXTMAX
 10
-1.000000E+20
 20
-1.000000E+20
 30
-1.000000E+20
  9
$PLIMMIN
 10
0.0
 20
0.0
  9
$PLIMMAX
 10
12.0
 20
9.0
  9
$UNITMODE
 70
     0
  9
$VISRETAIN
 70
     0
  9
$PLINEGEN
 70
     0
  9
$PSLTSCALE
 70
     0
  9
$TREEDEPTH
 70
  3020
  9
$DWGCODEPAGE
  3
undefined
  0
ENDSEC
  0
SECTION
  2
TABLES
  0
TABLE
  2
VPORT
 70
     2
  0
VPORT
  2
*ACTIVE
 70
     0
 10
0.0
 20
0.0
 11
1.0
 21
1.0
 12
31.946003
 22
24.107305
 13
0.0
 23
0.0
 14
1.0
 24
1.0
 15
0.0
 25
0.0
 16
0.0
 26
0.0
 36
1.0
 17
0.0
 27
0.0
 37
0.0
 40
117.583339
 41
1.767507
 42
50.0
 43
0.0
 44
0.0
 50
0.0
 51
0.0
 71
     0
 72
   100
 73
     1
 74
     0
 75
     0
 76
     0
 77
     0
 78
     0
  0
ENDTAB
  0
TABLE
  2
LTYPE
 70
     2
  0
LTYPE
  2
CONTINUOUS
 70
    64
  3
Solid line
 72
    65
 73
     0
 40
0.0
  0
LTYPE
  2
CENTER
 70
    64
  3
____ _ ____ _ ____ _ ____ _ ____ _ ____ _ ____
 72
    65
 73
     4
 40
2.0
 49
1.25
 49
-0.25
 49
0.25
 49
-0.25
  0
ENDTAB
  0
TABLE
  2
LAYER
 70
     1
  0
LAYER
  2
0
 70
    64
 62
     7
  6
CONTINUOUS
  0
ENDTAB
  0
TABLE
  2
STYLE
 70
     1
  0
STYLE
  2
STANDARD
 70
     0
 40
0.0
 41
1.0
 50
0.0
 71
     0
 42
0.2
  3
txt
  4

  0
ENDTAB
  0
TABLE
  2
VIEW
 70
     0
  0
ENDTAB
  0
TABLE
  2
UCS
 70
     0
  0
ENDTAB
  0
TABLE
  2
APPID
 70
     1
  0
APPID
  2
ACAD
 70
    64
  0
ENDTAB
  0
TABLE
  2
DIMSTYLE
 70
     0
  0
ENDTAB
  0
ENDSEC
  0
SECTION
  2
BLOCKS
  0
BLOCK
  8
0
  2
*X0
 70
    65
 10
0.0
 20
0.0
 30
0.0
  3
*X
  0
LINE
  8
0
 62
     0
 10
-16.264402
 20
45.253888
 30
0.0
 11
-9.314402
 21
52.203888
 31
0.0
  0
LINE
  8
0
 62
     0
 10
-16.264402
 20
47.375209
 30
0.0
 11
-9.314402
 21
54.325209
 31
0.0
  0
LINE
  8
0
 62
     0
 10
-16.264402
 20
49.496529
 30
0.0
 11
-9.314402
 21
56.446529
 31
0.0
  0
LINE
  8
0
 62
     0
 10
-16.264402
 20
51.617849
 30
0.0
 11
-11.274069
 21
56.608182
 31
0.0
  0
LINE
  8
0
 62
     0
 10
-16.264402
 20
53.73917
 30
0.0
 11
-14.89539
 21
55.108182
 31
0.0
  0
LINE
  8
0
 62
     0
 10
-14.688788
 20
44.708182
 30
0.0
 11
-9.314402
 21
50.082568
 31
0.0
  0
LINE
  8
0
 62
     0
 10
-11.067468
 20
46.208182
 30
0.0
 11
-9.314402
 21
47.961248
 31
0.0
  0
LINE
  8
0
 62
     0
 10
-10.145736
 20
46.208182
 30
0.0
 11
-16.264402
 21
52.326847
 31
0.0
  0
LINE
  8
0
 62
     0
 10
-12.267056
 20
46.208182
 30
0.0
 11
-16.264402
 21
50.205527
 31
0.0
  0
LINE
  8
0
 62
     0
 10
-13.319501
 20
45.139307
 30
0.0
 11
-16.264402
 21
48.084207
 31
0.0
  0
LINE
  8
0
 62
     0
 10
-15.009697
 20
44.708182
 30
0.0
 11
-16.264402
 21
45.962886
 31
0.0
  0
LINE
  8
0
 62
     0
 10
-9.314402
 20
47.498168
 30
0.0
 11
-16.264402
 21
54.448168
 31
0.0
  0
LINE
  8
0
 62
     0
 10
-9.314402
 20
49.619488
 30
0.0
 11
-14.803095
 21
55.108182
 31
0.0
  0
LINE
  8
0
 62
     0
 10
-9.314402
 20
51.740808
 30
0.0
 11
-13.315325
 21
55.741732
 31
0.0
  0
LINE
  8
0
 62
     0
 10
-9.314402
 20
53.862129
 30
0.0
 11
-12.060454
 21
56.608182
 31
0.0
  0
LINE
  8
0
 62
     0
 10
-9.314402
 20
55.983449
 30
0.0
 11
-9.939134
 21
56.608182
 31
0.0
  0
ENDBLK
  8
0
  0
BLOCK
  8
0
  2
*X1
 70
    65
 10
0.0
 20
0.0
 30
0.0
  3
*X
  0
LINE
  8
0
 62
     0
 10
78.023714
 20
46.203909
 30
0.0
 11
88.523714
 21
56.703909
 31
0.0
  0
LINE
  8
0
 62
     0
 10
78.023714
 20
48.325229
 30
0.0
 11
87.412605
 21
57.71412
 31
0.0
  0
LINE
  8
0
 62
     0
 10
78.023714
 20
50.446549
 30
0.0
 11
83.591284
 21
56.01412
 31
0.0
  0
LINE
  8
0
 62
     0
 10
78.023714
 20
52.56787
 30
0.0
 11
81.469964
 21
56.01412
 31
0.0
  0
LINE
  8
0
 62
     0
 10
78.023714
 20
54.68919
 30
0.0
 11
79.348644
 21
56.01412
 31
0.0
  0
LINE
  8
0
 62
     0
 10
78.023714
 20
44.082588
 30
0.0
 11
80.723714
 21
46.782588
 31
0.0
  0
LINE
  8
0
 62
     0
 10
81.255245
 20
47.31412
 30
0.0
 11
88.523714
 21
54.582588
 31
0.0
  0
LINE
  8
0
 62
     0
 10
80.100105
 20
44.037659
 30
0.0
 11
80.650175
 21
44.587729
 31
0.0
  0
LINE
  8
0
 62
     0
 10
83.376566
 20
47.31412
 30
0.0
 11
88.523714
 21
52.461268
 31
0.0
  0
LINE
  8
0
 62
     0
 10
85.497886
 20
47.31412
 30
0.0
 11
88.523714
 21
50.339948
 31
0.0
  0
LINE
  8
0
 62
     0
 10
87.619206
 20
47.31412
 30
0.0
 11
88.523714
 21
48.218627
 31
0.0
  0
LINE
  8
0
 62
     0
 10
86.329062
 20
47.31412
 30
0.0
 11
78.023714
 21
55.619468
 31
0.0
  0
LINE
  8
0
 62
     0
 10
84.207741
 20
47.31412
 30
0.0
 11
78.023714
 21
53.498147
 31
0.0
  0
LINE
  8
0
 62
     0
 10
82.086421
 20
47.31412
 30
0.0
 11
78.023714
 21
51.376827
 31
0.0
  0
LINE
  8
0
 62
     0
 10
80.723714
 20
46.555507
 30
0.0
 11
78.023714
 21
49.255507
 31
0.0
  0
LINE
  8
0
 62
     0
 10
80.62565
 20
44.53225
 30
0.0
 11
78.023714
 21
47.134186
 31
0.0
  0
LINE
  8
0
 62
     0
 10
79.07246
 20
43.96412
 30
0.0
 11
78.023714
 21
45.012866
 31
0.0
  0
LINE
  8
0
 62
     0
 10
88.450382
 20
47.31412
 30
0.0
 11
79.750382
 21
56.01412
 31
0.0
  0
LINE
  8
0
 62
     0
 10
88.523714
 20
49.362108
 30
0.0
 11
81.871703
 21
56.01412
 31
0.0
  0
LINE
  8
0
 62
     0
 10
88.523714
 20
51.483429
 30
0.0
 11
83.928634
 21
56.078509
 31
0.0
  0
LINE
  8
0
 62
     0
 10
88.523714
 20
53.604749
 30
0.0
 11
84.905115
 21
57.223348
 31
0.0
  0
LINE
  8
0
 62
     0
 10
88.523714
 20
55.72607
 30
0.0
 11
86.535664
 21
57.71412
 31
0.0
  0
ENDBLK
  8
0
  0
BLOCK
  8
0
  2
*X2
 70
    65
 10
0.0
 20
0.0
 30
0.0
  3
*X
  0
LINE
  8
0
 62
     0
 10
-40.623864
 20
45.996716
 30
0.0
 11
-36.173864
 21
50.446716
 31
0.0
  0
LINE
  8
0
 62
     0
 10
-40.623864
 20
47.764483
 30
0.0
 11
-36.173864
 21
52.214483
 31
0.0
  0
LINE
  8
0
 62
     0
 10
-40.623864
 20
49.53225
 30
0.0
 11
-36.173864
 21
53.98225
 31
0.0
  0
LINE
  8
0
 62
     0
 10
-40.623864
 20
51.300017
 30
0.0
 11
-37.451388
 21
54.472493
 31
0.0
  0
LINE
  8
0
 62
     0
 10
-40.623864
 20
53.067784
 30
0.0
 11
-39.219155
 21
54.472493
 31
0.0
  0
LINE
  8
0
 62
     0
 10
-40.327092
 20
44.525721
 30
0.0
 11
-36.173864
 21
48.67895
 31
0.0
  0
LINE
  8
0
 62
     0
 10
-39.012554
 20
44.072493
 30
0.0
 11
-36.173864
 21
46.911183
 31
0.0
  0
LINE
  8
0
 62
     0
 10
-37.244787
 20
44.072493
 30
0.0
 11
-36.173864
 21
45.143416
 31
0.0
  0
ENDBLK
  8
0
  0
BLOCK
  8
0
  2
*X3
 70
    65
 10
0.0
 20
0.0
 30
0.0
  3
*X
  0
LINE
  8
0
 62
     0
 10
40.673714
 20
51.280316
 30
0.0
 11
46.423714
 21
57.030316
 31
0.0
  0
LINE
  8
0
 62
     0
 10
40.673714
 20
53.048083
 30
0.0
 11
46.423714
 21
58.798083
 31
0.0
  0
LINE
  8
0
 62
     0
 10
40.673714
 20
54.815849
 30
0.0
 11
46.423714
 21
60.565849
 31
0.0
  0
LINE
  8
0
 62
     0
 10
40.673714
 20
56.583616
 30
0.0
 11
45.316778
 21
61.22668
 31
0.0
  0
LINE
  8
0
 62
     0
 10
40.673714
 20
58.351383
 30
0.0
 11
43.549011
 21
61.22668
 31
0.0
  0
LINE
  8
0
 62
     0
 10
40.673714
 20
60.11915
 30
0.0
 11
41.781244
 21
61.22668
 31
0.0
  0
LINE
  8
0
 62
     0
 10
40.88078
 20
49.719615
 30
0.0
 11
46.423714
 21
55.262549
 31
0.0
  0
LINE
  8
0
 62
     0
 10
42.105613
 20
49.17668
 30
0.0
 11
46.423714
 21
53.494782
 31
0.0
  0
LINE
  8
0
 62
     0
 10
43.87338
 20
49.17668
 30
0.0
 11
46.423714
 21
51.727015
 31
0.0
  0
LINE
  8
0
 62
     0
 10
45.641147
 20
49.17668
 30
0.0
 11
46.423714
 21
49.959248
 31
0.0
  0
ENDBLK
  8
0
  0
ENDSEC
  0
SECTION
  2
ENTITIES
  0
ARC
  8
0
 10
-44.873864
 20
11.815778
 30
0.0
 40
20.0
 50
78.755276
 51
101.244724
  0
ARC
  8
0
 10
-33.082729
 20
32.238622
 30
0.0
 40
7.93227
 50
185.837566
 51
294.162434
  0
ARC
  8
0
 10
-44.873864
 20
11.815778
 30
0.0
 40
20.0
 50
138.755276
 51
161.244724
  0
ARC
  8
0
 10
-56.664999
 20
32.238622
 30
0.0
 40
7.93227
 50
245.837566
 51
354.162434
  0
ARC
  8
0
 10
-44.873864
 20
11.815778
 30
0.0
 40
20.0
 50
198.755276
 51
221.244724
  0
ARC
  8
0
 10
-68.456134
 20
11.815778
 30
0.0
 40
7.93227
 50
305.837566
 51
54.162434
  0
ARC
  8
0
 10
-44.873864
 20
11.815778
 30
0.0
 40
20.0
 50
258.755276
 51
281.244724
  0
ARC
  8
0
 10
-56.664999
 20
-8.607067
 30
0.0
 40
7.93227
 50
5.837566
 51
114.162434
  0
ARC
  8
0
 10
-44.873864
 20
11.815778
 30
0.0
 40
20.0
 50
318.755276
 51
341.244724
  0
ARC
  8
0
 10
-33.082729
 20
-8.607067
 30
0.0
 40
7.93227
 50
65.837566
 51
174.162434
  0
ARC
  8
0
 10
-44.873864
 20
11.815778
 30
0.0
 40
20.0
 50
18.755276
 51
41.244724
  0
ARC
  8
0
 10
-21.291594
 20
11.815778
 30
0.0
 40
7.93227
 50
125.837566
 51
234.162434
  0
CIRCLE
  8
0
 10
-44.873864
 20
11.815778
 30
0.0
 40
12.4
  0
CIRCLE
  8
0
 10
-44.873864
 20
11.815778
 30
0.0
 40
11.1
  0
CIRCLE
  8
0
 10
-44.873864
 20
11.815778
 30
0.0
 40
8.7
  0
CIRCLE
  8
0
 10
-44.873864
 20
11.815778
 30
0.0
 40
5.0
  0
CIRCLE
  8
0
 10
-44.873864
 20
11.815778
 30
0.0
 40
4.25
  0
LINE
  8
0
 10
-63.811875
 20
46.572493
 30
0.0
 11
-63.811875
 21
54.972493
 31
0.0
  0
LINE
  8
0
 10
-25.935854
 20
46.572493
 30
0.0
 11
-25.935854
 21
54.972493
 31
0.0
  0
LINE
  8
0
 10
-62.811875
 20
55.972493
 30
0.0
 11
-26.935854
 21
55.972493
 31
0.0
  0
LINE
  8
0
 10
-62.811875
 20
45.572493
 30
0.0
 11
-44.873864
 21
45.572493
 31
0.0
  0
LINE
  8
0
 10
-56.173864
 20
44.072493
 30
0.0
 11
-33.573864
 21
44.072493
 31
0.0
  0
LINE
  8
0
  6
CENTER
 10
-44.873864
 20
58.559796
 30
0.0
 11
-44.873864
 21
41.850903
 31
0.0
  0
LINE
  8
0
 10
-56.173864
 20
44.072493
 30
0.0
 11
-57.373864
 21
45.572493
 31
0.0
  0
LINE
  8
0
 10
-33.573864
 20
44.072493
 30
0.0
 11
-32.373864
 21
45.572493
 31
0.0
  0
LINE
  8
0
 10
-59.911875
 20
46.572493
 30
0.0
 11
-59.911875
 21
54.972493
 31
0.0
  0
LINE
  8
0
 10
-48.773864
 20
46.572493
 30
0.0
 11
-48.773864
 21
54.972493
 31
0.0
  0
LINE
  8
0
 10
-29.223864
 20
45.572493
 30
0.0
 11
-29.223864
 21
55.972493
 31
0.0
  0
LINE
  8
0
 10
-36.173864
 20
44.072493
 30
0.0
 11
-36.173864
 21
54.472493
 31
0.0
  0
LINE
  8
0
 10
-44.873864
 20
54.472493
 30
0.0
 11
-33.773864
 21
54.472493
 31
0.0
  0
LINE
  8
0
 10
-32.473864
 20
55.972493
 30
0.0
 11
-33.773864
 21
54.472493
 31
0.0
  0
LINE
  8
0
 10
-32.373864
 20
45.572493
 30
0.0
 11
-26.935854
 21
45.572493
 31
0.0
  0
LINE
  8
0
 10
-39.873864
 20
44.072493
 30
0.0
 11
-39.873864
 21
54.472493
 31
0.0
  0
LINE
  8
0
 10
-40.623864
 20
44.822493
 30
0.0
 11
-40.623864
 21
53.722493
 31
0.0
  0
LINE
  8
0
 10
-19.195724
 20
0.515778
 30
0.0
 11
-17.695724
 21
-0.684222
 31
0.0
  0
LINE
  8
0
 10
-19.195724
 20
23.115778
 30
0.0
 11
-17.695724
 21
24.315778
 31
0.0
  0
LINE
  8
0
 10
-19.195724
 20
23.115778
 30
0.0
 11
-19.195724
 21
0.515778
 31
0.0
  0
LINE
  8
0
 10
-17.695724
 20
30.815778
 30
0.0
 11
-17.695724
 21
-7.184222
 31
0.0
  0
LINE
  8
0
 10
-7.295724
 20
30.815778
 30
0.0
 11
-7.295724
 21
-7.184222
 31
0.0
  0
LINE
  8
0
 10
-16.695724
 20
-8.184222
 30
0.0
 11
-8.295724
 21
-8.184222
 31
0.0
  0
LINE
  8
0
 10
-16.695724
 20
31.815778
 30
0.0
 11
-8.295724
 21
31.815778
 31
0.0
  0
LINE
  8
0
 10
-16.695724
 20
-7.800287
 30
0.0
 11
-8.295724
 21
-7.800287
 31
0.0
  0
LINE
  8
0
 10
-16.695724
 20
5.385244
 30
0.0
 11
-8.295724
 21
5.385244
 31
0.0
  0
LINE
  8
0
 10
-16.695724
 20
-1.369754
 30
0.0
 11
-8.295724
 21
-1.369754
 31
0.0
  0
ARC
  8
0
 10
-47.773864
 20
54.972493
 30
0.0
 40
1.0
 50
90.0
 51
180.0
  0
ARC
  8
0
 10
-58.911875
 20
54.972493
 30
0.0
 40
1.0
 50
90.0
 51
180.0
  0
ARC
  8
0
 10
-62.811875
 20
54.972493
 30
0.0
 40
1.0
 50
90.0
 51
180.0
  0
ARC
  8
0
 10
-47.773864
 20
46.572493
 30
0.0
 40
1.0
 50
180.0
 51
270.0
  0
ARC
  8
0
 10
-58.911875
 20
46.572493
 30
0.0
 40
1.0
 50
180.0
 51
270.0
  0
ARC
  8
0
 10
-62.811875
 20
46.572493
 30
0.0
 40
1.0
 50
180.0
 51
270.0
  0
ARC
  8
0
 10
-26.935854
 20
54.972493
 30
0.0
 40
1.0
 50
0.0
 51
90.0
  0
ARC
  8
0
 10
-26.935854
 20
46.572493
 30
0.0
 40
1.0
 50
270.0
 51
0.0
  0
ARC
  8
0
 10
-16.695724
 20
30.815778
 30
0.0
 40
1.0
 50
90.0
 51
180.0
  0
ARC
  8
0
 10
-8.295724
 20
30.815778
 30
0.0
 40
1.0
 50
0.0
 51
90.0
  0
ARC
  8
0
 10
-16.695724
 20
-7.184222
 30
0.0
 40
1.0
 50
180.0
 51
270.0
  0
ARC
  8
0
 10
-8.295724
 20
-7.184222
 30
0.0
 40
1.0
 50
270.0
 51
0.0
  0
ARC
  8
0
 10
-16.695724
 20
-6.800287
 30
0.0
 40
1.0
 50
180.0
 51
270.0
  0
ARC
  8
0
 10
-8.295724
 20
-6.800287
 30
0.0
 40
1.0
 50
270.0
 51
0.0
  0
ARC
  8
0
 10
-16.695724
 20
-0.369754
 30
0.0
 40
1.0
 50
180.0
 51
270.0
  0
ARC
  8
0
 10
-8.295724
 20
-0.369754
 30
0.0
 40
1.0
 50
270.0
 51
0.0
  0
LINE
  8
0
 10
-16.695724
 20
18.246311
 30
0.0
 11
-8.295724
 21
18.246311
 31
0.0
  0
LINE
  8
0
 10
-16.695724
 20
25.001309
 30
0.0
 11
-8.295724
 21
25.001309
 31
0.0
  0
ARC
  8
0
 10
-16.695724
 20
24.001309
 30
0.0
 40
1.0
 50
90.0
 51
180.0
  0
ARC
  8
0
 10
-8.295724
 20
24.001309
 30
0.0
 40
1.0
 50
0.0
 51
90.0
  0
ARC
  8
0
 10
-16.695724
 20
30.431842
 30
0.0
 40
1.0
 50
90.0
 51
180.0
  0
LINE
  8
0
 10
-16.695724
 20
31.431842
 30
0.0
 11
-8.295724
 21
31.431842
 31
0.0
  0
ARC
  8
0
 10
-8.295724
 20
30.431842
 30
0.0
 40
1.0
 50
0.0
 51
90.0
  0
INSERT
  8
0
  2
*X0
 10
-19.909463
 20
-0.635688
 30
0.0
  0
ARC
  8
0
 10
51.094525
 20
37.226369
 30
0.0
 40
8.841623
 50
187.256277
 51
292.743723
  0
ARC
  8
0
 10
36.423714
 20
11.815778
 30
0.0
 40
25.0
 50
76.349423
 51
103.650577
  0
ARC
  8
0
 10
36.423714
 20
11.815778
 30
0.0
 40
25.0
 50
136.349423
 51
163.650577
  0
ARC
  8
0
 10
21.752902
 20
37.226369
 30
0.0
 40
8.841623
 50
247.256277
 51
352.743723
  0
ARC
  8
0
 10
36.423714
 20
11.815778
 30
0.0
 40
25.0
 50
196.349423
 51
223.650577
  0
ARC
  8
0
 10
7.082091
 20
11.815778
 30
0.0
 40
8.841623
 50
307.256277
 51
52.743723
  0
ARC
  8
0
 10
36.423714
 20
11.815778
 30
0.0
 40
25.0
 50
256.349423
 51
283.650577
  0
ARC
  8
0
 10
21.752902
 20
-13.594813
 30
0.0
 40
8.841623
 50
7.256277
 51
112.743723
  0
ARC
  8
0
 10
36.423714
 20
11.815778
 30
0.0
 40
25.0
 50
316.349423
 51
343.650577
  0
ARC
  8
0
 10
51.094525
 20
-13.594813
 30
0.0
 40
8.841623
 50
67.256277
 51
172.743723
  0
ARC
  8
0
 10
36.423714
 20
11.815778
 30
0.0
 40
25.0
 50
16.349423
 51
43.650577
  0
ARC
  8
0
 10
65.765337
 20
11.815778
 30
0.0
 40
8.841623
 50
127.256277
 51
232.743723
  0
CIRCLE
  8
0
 10
36.423714
 20
11.815778
 30
0.0
 40
17.3
  0
CIRCLE
  8
0
 10
36.423714
 20
11.815778
 30
0.0
 40
15.85
  0
CIRCLE
  8
0
 10
36.423714
 20
11.815778
 30
0.0
 40
4.25
  0
CIRCLE
  8
0
 10
36.423714
 20
11.815778
 30
0.0
 40
5.0
  0
CIRCLE
  8
0
 10
36.423714
 20
11.815778
 30
0.0
 40
8.7
  0
LINE
  8
0
 10
12.434643
 20
53.52668
 30
0.0
 11
12.434643
 21
61.92668
 31
0.0
  0
LINE
  8
0
 10
60.412785
 20
53.52668
 30
0.0
 11
60.412785
 21
61.92668
 31
0.0
  0
LINE
  8
0
 10
13.434643
 20
62.92668
 30
0.0
 11
59.412785
 21
62.92668
 31
0.0
  0
LINE
  8
0
 10
13.434643
 20
52.52668
 30
0.0
 11
36.423714
 21
52.52668
 31
0.0
  0
LINE
  8
0
 10
23.723714
 20
50.17668
 30
0.0
 11
23.723714
 21
52.52668
 31
0.0
  0
LINE
  8
0
 10
49.123714
 20
50.17668
 30
0.0
 11
49.123714
 21
52.52668
 31
0.0
  0
LINE
  8
0
 10
24.723714
 20
49.17668
 30
0.0
 11
48.123714
 21
49.17668
 31
0.0
  0
ARC
  8
0
 10
13.434643
 20
61.92668
 30
0.0
 40
1.0
 50
90.0
 51
180.0
  0
ARC
  8
0
 10
13.434643
 20
53.52668
 30
0.0
 40
1.0
 50
180.0
 51
270.0
  0
ARC
  8
0
 10
59.412785
 20
61.92668
 30
0.0
 40
1.0
 50
0.0
 51
90.0
  0
ARC
  8
0
 10
59.412785
 20
53.52668
 30
0.0
 40
1.0
 50
270.0
 51
0.0
  0
ARC
  8
0
 10
24.723714
 20
50.17668
 30
0.0
 40
1.0
 50
180.0
 51
270.0
  0
ARC
  8
0
 10
48.123714
 20
50.17668
 30
0.0
 40
1.0
 50
270.0
 51
0.0
  0
LINE
  8
0
 10
40.673714
 20
49.92668
 30
0.0
 11
40.673714
 21
60.47668
 31
0.0
  0
LINE
  8
0
 10
41.423714
 20
49.17668
 30
0.0
 11
41.423714
 21
61.22668
 31
0.0
  0
LINE
  8
0
 10
36.423714
 20
61.22668
 30
0.0
 11
52.273714
 21
61.22668
 31
0.0
  0
LINE
  8
0
 10
46.423714
 20
49.17668
 30
0.0
 11
46.423714
 21
61.22668
 31
0.0
  0
LINE
  8
0
  6
CENTER
 10
36.423714
 20
64.80265
 30
0.0
 11
36.423714
 21
46.95509
 31
0.0
  0
LINE
  8
0
 10
52.273714
 20
61.22668
 30
0.0
 11
53.723714
 21
62.92668
 31
0.0
  0
LINE
  8
0
 10
49.123714
 20
52.52668
 30
0.0
 11
59.412785
 21
52.52668
 31
0.0
  0
ARC
  8
0
 10
70.260712
 20
0.115778
 30
0.0
 40
1.0
 50
180.0
 51
270.0
  0
ARC
  8
0
 10
70.260712
 20
23.515778
 30
0.0
 40
1.0
 50
90.0
 51
180.0
  0
ARC
  8
0
 10
73.610712
 20
-12.184222
 30
0.0
 40
1.0
 50
180.0
 51
270.0
  0
ARC
  8
0
 10
82.010712
 20
-12.184222
 30
0.0
 40
1.0
 50
270.0
 51
0.0
  0
ARC
  8
0
 10
73.610712
 20
35.815778
 30
0.0
 40
1.0
 50
90.0
 51
180.0
  0
ARC
  8
0
 10
82.010712
 20
35.815778
 30
0.0
 40
1.0
 50
0.0
 51
90.0
  0
LINE
  8
0
 10
69.260712
 20
23.515778
 30
0.0
 11
69.260712
 21
0.115778
 31
0.0
  0
LINE
  8
0
 10
70.260712
 20
-0.884222
 30
0.0
 11
72.610712
 21
-0.884222
 31
0.0
  0
LINE
  8
0
 10
70.260712
 20
24.515778
 30
0.0
 11
72.610712
 21
24.515778
 31
0.0
  0
LINE
  8
0
 10
72.610712
 20
35.815778
 30
0.0
 11
72.610712
 21
-12.184222
 31
0.0
  0
LINE
  8
0
 10
83.010712
 20
35.815778
 30
0.0
 11
83.010712
 21
-12.184222
 31
0.0
  0
LINE
  8
0
 10
73.610712
 20
-13.184222
 30
0.0
 11
82.010712
 21
-13.184222
 31
0.0
  0
LINE
  8
0
 10
73.610712
 20
36.815778
 30
0.0
 11
82.010712
 21
36.815778
 31
0.0
  0
ARC
  8
0
 10
19.334643
 20
61.92668
 30
0.0
 40
1.0
 50
90.0
 51
180.0
  0
LINE
  8
0
 10
18.334643
 20
53.52668
 30
0.0
 11
18.334643
 21
61.92668
 31
0.0
  0
ARC
  8
0
 10
19.334643
 20
53.52668
 30
0.0
 40
1.0
 50
180.0
 51
270.0
  0
ARC
  8
0
 10
31.523714
 20
61.92668
 30
0.0
 40
1.0
 50
90.0
 51
180.0
  0
LINE
  8
0
 10
30.523714
 20
53.52668
 30
0.0
 11
30.523714
 21
61.92668
 31
0.0
  0
ARC
  8
0
 10
31.523714
 20
53.52668
 30
0.0
 40
1.0
 50
180.0
 51
270.0
  0
LINE
  8
0
 10
73.610712
 20
36.109604
 30
0.0
 11
82.010712
 21
36.109604
 31
0.0
  0
ARC
  8
0
 10
73.610712
 20
35.109604
 30
0.0
 40
1.0
 50
90.0
 51
180.0
  0
ARC
  8
0
 10
82.010712
 20
35.109604
 30
0.0
 40
1.0
 50
0.0
 51
90.0
  0
LINE
  8
0
 10
73.610712
 20
29.072241
 30
0.0
 11
82.010712
 21
29.072241
 31
0.0
  0
ARC
  8
0
 10
73.610712
 20
28.072241
 30
0.0
 40
1.0
 50
90.0
 51
180.0
  0
ARC
  8
0
 10
82.010712
 20
28.072241
 30
0.0
 40
1.0
 50
0.0
 51
90.0
  0
LINE
  8
0
 10
73.610712
 20
18.853141
 30
0.0
 11
82.010712
 21
18.853141
 31
0.0
  0
ARC
  8
0
 10
73.610712
 20
19.853141
 30
0.0
 40
1.0
 50
180.0
 51
270.0
  0
ARC
  8
0
 10
82.010712
 20
19.853141
 30
0.0
 40
1.0
 50
270.0
 51
0.0
  0
ARC
  8
0
 10
-16.695724
 20
19.246311
 30
0.0
 40
1.0
 50
180.0
 51
270.0
  0
ARC
  8
0
 10
-8.295724
 20
19.246311
 30
0.0
 40
1.0
 50
270.0
 51
0.0
  0
ARC
  8
0
 10
-16.695724
 20
4.385244
 30
0.0
 40
1.0
 50
90.0
 51
180.0
  0
ARC
  8
0
 10
-8.295724
 20
4.385244
 30
0.0
 40
1.0
 50
0.0
 51
90.0
  0
LINE
  8
0
 10
73.610712
 20
-12.478049
 30
0.0
 11
82.010712
 21
-12.478049
 31
0.0
  0
ARC
  8
0
 10
73.610712
 20
-11.478049
 30
0.0
 40
1.0
 50
180.0
 51
270.0
  0
ARC
  8
0
 10
82.010712
 20
-11.478049
 30
0.0
 40
1.0
 50
270.0
 51
0.0
  0
LINE
  8
0
 10
73.610712
 20
-5.440685
 30
0.0
 11
82.010712
 21
-5.440685
 31
0.0
  0
ARC
  8
0
 10
73.610712
 20
-4.440685
 30
0.0
 40
1.0
 50
180.0
 51
270.0
  0
ARC
  8
0
 10
82.010712
 20
-4.440685
 30
0.0
 40
1.0
 50
270.0
 51
0.0
  0
LINE
  8
0
 10
73.610712
 20
4.778414
 30
0.0
 11
82.010712
 21
4.778414
 31
0.0
  0
ARC
  8
0
 10
73.610712
 20
3.778414
 30
0.0
 40
1.0
 50
90.0
 51
180.0
  0
ARC
  8
0
 10
82.010712
 20
3.778414
 30
0.0
 40
1.0
 50
0.0
 51
90.0
  0
LINE
  8
0
 10
56.923714
 20
52.52668
 30
0.0
 11
56.923714
 21
62.92668
 31
0.0
  0
INSERT
  8
0
  2
*X1
 10
-31.6
 20
5.212561
 30
0.0
  0
LINE
  8
0
 10
36.423714
 20
49.92668
 30
0.0
 11
40.673714
 21
49.92668
 31
0.0
  0
LINE
  8
0
 10
36.423714
 20
60.47668
 30
0.0
 11
40.673714
 21
60.47668
 31
0.0
  0
LINE
  8
0
 10
-44.873864
 20
44.822493
 30
0.0
 11
-40.623864
 21
44.822493
 31
0.0
  0
LINE
  8
0
 10
-44.873864
 20
53.722493
 30
0.0
 11
-40.623864
 21
53.722493
 31
0.0
  0
LINE
  8
0
 10
-39.873864
 20
54.472493
 30
0.0
 11
-40.623864
 21
53.722493
 31
0.0
  0
LINE
  8
0
 10
-39.873864
 20
44.072493
 30
0.0
 11
-40.623864
 21
44.822493
 31
0.0
  0
LINE
  8
0
 10
41.423714
 20
61.22668
 30
0.0
 11
40.673714
 21
60.47668
 31
0.0
  0
LINE
  8
0
 10
41.423714
 20
49.17668
 30
0.0
 11
40.673714
 21
49.92668
 31
0.0
  0
INSERT
  8
0
  2
*X2
 10
0.0
 20
0.0
 30
0.0
1001
ACAD
1000
HATCH
1002
{
1070
    16
1000
ANSI31
1040
10.0
1040
0.0
1002
}
  0
INSERT
  8
0
  2
*X3
 10
0.0
 20
0.0
 30
0.0
1001
ACAD
1000
HATCH
1002
{
1070
    16
1000
ANSI31
1040
10.0
1040
0.0
1002
}
  0
ENDSEC
  0
EOF
