  0
SECTION
  2
HEADER
  9
$ACADVER
  1
AC1009
  9
$INSBASE
 10
0.0
 20
0.0
 30
0.0
  9
$EXTMIN
 10
106.435864
 20
-336.615123
 30
0.0
  9
$EXTMAX
 10
657.514018
 20
131.124298
 30
0.0
  9
$LIMMIN
 10
0.0
 20
0.0
  9
$LIMMAX
 10
12.0
 20
9.0
  9
$ORTHOMODE
 70
     1
  9
$REGENMODE
 70
     1
  9
$FILLMODE
 70
     1
  9
$QTEXTMODE
 70
     0
  9
$MIRRTEXT
 70
     1
  9
$DRAGMODE
 70
     2
  9
$LTSCALE
 40
7.0
  9
$OSMODE
 70
     0
  9
$ATTMODE
 70
     1
  9
$TEXTSIZE
 40
0.2
  9
$TRACEWID
 40
0.05
  9
$TEXTSTYLE
  7
STANDARD
  9
$CLAYER
  8
0
  9
$CELTYPE
  6
BYLAYER
  9
$CECOLOR
 62
   256
  9
$DIMSCALE
 40
1.0
  9
$DIMASZ
 40
2.5
  9
$DIMEXO
 40
0.0
  9
$DIMDLI
 40
5.0
  9
$DIMRND
 40
0.0
  9
$DIMDLE
 40
0.0
  9
$DIMEXE
 40
1.0
  9
$DIMTP
 40
0.0
  9
$DIMTM
 40
0.0
  9
$DIMTXT
 40
2.5
  9
$DIMCEN
 40
0.09
  9
$DIMTSZ
 40
0.0
  9
$DIMTOL
 70
     0
  9
$DIMLIM
 70
     0
  9
$DIMTIH
 70
     0
  9
$DIMTOH
 70
     0
  9
$DIMSE1
 70
     0
  9
$DIMSE2
 70
     0
  9
$DIMTAD
 70
     1
  9
$DIMZIN
 70
     0
  9
$DIMBLK
  1

  9
$DIMASO
 70
     0
  9
$DIMSHO
 70
     0
  9
$DIMPOST
  1

  9
$DIMAPOST
  1

  9
$DIMALT
 70
     0
  9
$DIMALTD
 70
     2
  9
$DIMALTF
 40
25.4
  9
$DIMLFAC
 40
1.0
  9
$DIMTOFL
 70
     1
  9
$DIMTVP
 40
0.0
  9
$DIMTIX
 70
     0
  9
$DIMSOXD
 70
     0
  9
$DIMSAH
 70
     0
  9
$DIMBLK1
  1

  9
$DIMBLK2
  1

  9
$DIMSTYLE
  2
*UNNAMED
  9
$DIMCLRD
 70
     0
  9
$DIMCLRE
 70
     0
  9
$DIMCLRT
 70
     0
  9
$DIMTFAC
 40
1.0
  9
$DIMGAP
 40
0.09
  9
$LUNITS
 70
     2
  9
$LUPREC
 70
     4
  9
$SKETCHINC
 40
0.1
  9
$FILLETRAD
 40
5.0
  9
$AUNITS
 70
     0
  9
$AUPREC
 70
     0
  9
$MENU
  1
wiberger
  9
$ELEVATION
 40
0.0
  9
$PELEVATION
 40
0.0
  9
$THICKNESS
 40
0.0
  9
$LIMCHECK
 70
     0
  9
$BLIPMODE
 70
     1
  9
$CHAMFERA
 40
0.0
  9
$CHAMFERB
 40
0.0
  9
$SKPOLY
 70
     0
  9
$TDCREATE
 40
2450186.631605555
  9
$TDUPDATE
 40
2450211.561416666
  9
$TDINDWG
 40
0.0005644676
  9
$TDUSRTIMER
 40
0.0005644676
  9
$USRTIMER
 70
     1
  9
$ANGBASE
 50
0.0
  9
$ANGDIR
 70
     0
  9
$PDMODE
 70
     0
  9
$PDSIZE
 40
0.0
  9
$PLINEWID
 40
0.0
  9
$COORDS
 70
     2
  9
$SPLFRAME
 70
     0
  9
$SPLINETYPE
 70
     6
  9
$SPLINESEGS
 70
     8
  9
$ATTDIA
 70
     0
  9
$ATTREQ
 70
     1
  9
$HANDLING
 70
     0
  9
$HANDSEED
  5
0
  9
$SURFTAB1
 70
     6
  9
$SURFTAB2
 70
     6
  9
$SURFTYPE
 70
     6
  9
$SURFU
 70
     6
  9
$SURFV
 70
     6
  9
$UCSNAME
  2

  9
$UCSORG
 10
0.0
 20
0.0
 30
0.0
  9
$UCSXDIR
 10
1.0
 20
0.0
 30
0.0
  9
$UCSYDIR
 10
0.0
 20
1.0
 30
0.0
  9
$PUCSNAME
  2

  9
$PUCSORG
 10
0.0
 20
0.0
 30
0.0
  9
$PUCSXDIR
 10
1.0
 20
0.0
 30
0.0
  9
$PUCSYDIR
 10
0.0
 20
1.0
 30
0.0
  9
$USERI1
 70
     0
  9
$USERI2
 70
     0
  9
$USERI3
 70
     0
  9
$USERI4
 70
     0
  9
$USERI5
 70
     0
  9
$USERR1
 40
0.0
  9
$USERR2
 40
0.0
  9
$USERR3
 40
0.0
  9
$USERR4
 40
0.0
  9
$USERR5
 40
0.0
  9
$WORLDVIEW
 70
     1
  9
$SHADEDGE
 70
     3
  9
$SHADEDIF
 70
    70
  9
$TILEMODE
 70
     1
  9
$MAXACTVP
 70
    16
  9
$PINSBASE
 10
0.0
 20
0.0
 30
0.0
  9
$PLIMCHECK
 70
     0
  9
$PEXTMIN
 10
1.000000E+20
 20
1.000000E+20
 30
1.000000E+20
  9
$PEXTMAX
 10
-1.000000E+20
 20
-1.000000E+20
 30
-1.000000E+20
  9
$PLIMMIN
 10
0.0
 20
0.0
  9
$PLIMMAX
 10
12.0
 20
9.0
  9
$UNITMODE
 70
     0
  9
$VISRETAIN
 70
     0
  9
$PLINEGEN
 70
     0
  9
$PSLTSCALE
 70
     0
  9
$TREEDEPTH
 70
  3020
  9
$DWGCODEPAGE
  3
undefined
  0
ENDSEC
  0
SECTION
  2
TABLES
  0
TABLE
  2
VPORT
 70
     2
  0
VPORT
  2
*ACTIVE
 70
     0
 10
0.0
 20
0.0
 11
1.0
 21
1.0
 12
529.679255
 22
-102.745413
 13
0.0
 23
0.0
 14
1.0
 24
1.0
 15
0.0
 25
0.0
 16
0.0
 26
0.0
 36
1.0
 17
0.0
 27
0.0
 37
0.0
 40
519.710467
 41
1.767507
 42
50.0
 43
0.0
 44
0.0
 50
0.0
 51
0.0
 71
     0
 72
   100
 73
     1
 74
     0
 75
     0
 76
     0
 77
     0
 78
     0
  0
ENDTAB
  0
TABLE
  2
LTYPE
 70
     2
  0
LTYPE
  2
CONTINUOUS
 70
    64
  3
Solid line
 72
    65
 73
     0
 40
0.0
  0
LTYPE
  2
CENTER
 70
    64
  3
____ _ ____ _ ____ _ ____ _ ____ _ ____ _ ____
 72
    65
 73
     4
 40
2.0
 49
1.25
 49
-0.25
 49
0.25
 49
-0.25
  0
ENDTAB
  0
TABLE
  2
LAYER
 70
     1
  0
LAYER
  2
0
 70
    64
 62
     7
  6
CONTINUOUS
  0
ENDTAB
  0
TABLE
  2
STYLE
 70
     1
  0
STYLE
  2
STANDARD
 70
     0
 40
0.0
 41
1.0
 50
0.0
 71
     0
 42
0.2
  3
txt
  4

  0
ENDTAB
  0
TABLE
  2
VIEW
 70
     0
  0
ENDTAB
  0
TABLE
  2
UCS
 70
     0
  0
ENDTAB
  0
TABLE
  2
APPID
 70
     1
  0
APPID
  2
ACAD
 70
    64
  0
ENDTAB
  0
TABLE
  2
DIMSTYLE
 70
     0
  0
ENDTAB
  0
ENDSEC
  0
SECTION
  2
BLOCKS
  0
BLOCK
  8
0
  2
*X0
 70
    65
 10
0.0
 20
0.0
 30
0.0
  3
*X
  0
LINE
  8
0
 62
     0
 10
228.1021
 20
132.642685
 30
0.0
 11
238.8521
 21
143.392685
 31
0.0
  0
LINE
  8
0
 62
     0
 10
228.1021
 20
136.178218
 30
0.0
 11
238.8521
 21
146.928218
 31
0.0
  0
LINE
  8
0
 62
     0
 10
228.1021
 20
139.713752
 30
0.0
 11
238.8521
 21
150.463752
 31
0.0
  0
LINE
  8
0
 62
     0
 10
240.13091
 20
151.742563
 30
0.0
 11
243.1021
 21
154.713752
 31
0.0
  0
LINE
  8
0
 62
     0
 10
228.1021
 20
143.249286
 30
0.0
 11
239.857055
 21
155.004241
 31
0.0
  0
LINE
  8
0
 62
     0
 10
228.1021
 20
146.78482
 30
0.0
 11
236.321521
 21
155.004241
 31
0.0
  0
LINE
  8
0
 62
     0
 10
228.1021
 20
150.320354
 30
0.0
 11
232.785987
 21
155.004241
 31
0.0
  0
LINE
  8
0
 62
     0
 10
228.1021
 20
153.855888
 30
0.0
 11
229.250453
 21
155.004241
 31
0.0
  0
LINE
  8
0
 62
     0
 10
228.1021
 20
129.107151
 30
0.0
 11
238.8521
 21
139.857151
 31
0.0
  0
LINE
  8
0
 62
     0
 10
228.1021
 20
125.571617
 30
0.0
 11
238.8521
 21
136.321617
 31
0.0
  0
LINE
  8
0
 62
     0
 10
229.070258
 20
123.004241
 30
0.0
 11
238.8521
 21
132.786083
 31
0.0
  0
LINE
  8
0
 62
     0
 10
232.605792
 20
123.004241
 30
0.0
 11
238.8521
 21
129.250549
 31
0.0
  0
LINE
  8
0
 62
     0
 10
236.141326
 20
123.004241
 30
0.0
 11
238.8521
 21
125.715015
 31
0.0
  0
ENDBLK
  8
0
  0
BLOCK
  8
0
  2
*X1
 70
    65
 10
0.0
 20
0.0
 30
0.0
  3
*X
  0
LINE
  8
0
 62
     0
 10
182.057184
 20
-185.638342
 30
0.0
 11
192.807184
 21
-174.888342
 31
0.0
  0
LINE
  8
0
 62
     0
 10
182.057184
 20
-182.102808
 30
0.0
 11
192.807184
 21
-171.352808
 31
0.0
  0
LINE
  8
0
 62
     0
 10
182.057184
 20
-178.567274
 30
0.0
 11
195.221633
 21
-165.402825
 31
0.0
  0
LINE
  8
0
 62
     0
 10
182.057184
 20
-175.03174
 30
0.0
 11
191.686099
 21
-165.402825
 31
0.0
  0
LINE
  8
0
 62
     0
 10
182.057184
 20
-171.496207
 30
0.0
 11
188.150565
 21
-165.402825
 31
0.0
  0
LINE
  8
0
 62
     0
 10
182.057184
 20
-167.960673
 30
0.0
 11
184.615031
 21
-165.402825
 31
0.0
  0
LINE
  8
0
 62
     0
 10
182.057184
 20
-189.173876
 30
0.0
 11
192.807184
 21
-178.423876
 31
0.0
  0
LINE
  8
0
 62
     0
 10
182.057184
 20
-192.70941
 30
0.0
 11
192.807184
 21
-181.95941
 31
0.0
  0
LINE
  8
0
 62
     0
 10
182.057184
 20
-196.244944
 30
0.0
 11
192.807184
 21
-185.494944
 31
0.0
  0
LINE
  8
0
 62
     0
 10
184.434836
 20
-197.402825
 30
0.0
 11
192.807184
 21
-189.030478
 31
0.0
  0
LINE
  8
0
 62
     0
 10
187.97037
 20
-197.402825
 30
0.0
 11
192.807184
 21
-192.566012
 31
0.0
  0
LINE
  8
0
 62
     0
 10
191.505904
 20
-197.402825
 30
0.0
 11
192.807184
 21
-196.101546
 31
0.0
  0
ENDBLK
  8
0
  0
BLOCK
  8
0
  2
*X2
 70
    65
 10
0.0
 20
0.0
 30
0.0
  3
*X
  0
LINE
  8
0
 62
     0
 10
154.499144
 20
-184.912111
 30
0.0
 11
162.86288
 21
-176.548375
 31
0.0
  0
LINE
  8
0
 62
     0
 10
151.118788
 20
-184.049826
 30
0.0
 11
159.481883
 21
-175.686731
 31
0.0
  0
LINE
  8
0
 62
     0
 10
147.738431
 20
-183.187542
 30
0.0
 11
156.100885
 21
-174.825088
 31
0.0
  0
LINE
  8
0
 62
     0
 10
144.358075
 20
-182.325258
 30
0.0
 11
152.719888
 21
-173.963445
 31
0.0
  0
LINE
  8
0
 62
     0
 10
140.977719
 20
-181.462974
 30
0.0
 11
149.33889
 21
-173.101802
 31
0.0
  0
LINE
  8
0
 62
     0
 10
137.597362
 20
-180.600689
 30
0.0
 11
145.957892
 21
-172.240159
 31
0.0
  0
LINE
  8
0
 62
     0
 10
134.217006
 20
-179.738405
 30
0.0
 11
142.576895
 21
-171.378516
 31
0.0
  0
LINE
  8
0
 62
     0
 10
124.824242
 20
-184.888528
 30
0.0
 11
127.51452
 21
-182.19825
 31
0.0
  0
LINE
  8
0
 62
     0
 10
129.560464
 20
-180.152306
 30
0.0
 11
139.195897
 21
-170.516873
 31
0.0
  0
LINE
  8
0
 62
     0
 10
120.567046
 20
-184.903084
 30
0.0
 11
135.8149
 21
-169.65523
 31
0.0
  0
LINE
  8
0
 62
     0
 10
116.324405
 20
-184.903084
 30
0.0
 11
132.434306
 21
-168.793183
 31
0.0
  0
LINE
  8
0
 62
     0
 10
112.081764
 20
-184.903084
 30
0.0
 11
129.92611
 21
-167.058739
 31
0.0
  0
LINE
  8
0
 62
     0
 10
107.904796
 20
-184.837411
 30
0.0
 11
127.804789
 21
-164.937418
 31
0.0
  0
LINE
  8
0
 62
     0
 10
105.674322
 20
-182.825245
 30
0.0
 11
125.631727
 21
-162.86784
 31
0.0
  0
LINE
  8
0
 62
     0
 10
105.529076
 20
-178.72785
 30
0.0
 11
121.853842
 21
-162.403084
 31
0.0
  0
LINE
  8
0
 62
     0
 10
105.529076
 20
-174.48521
 30
0.0
 11
117.611201
 21
-162.403084
 31
0.0
  0
LINE
  8
0
 62
     0
 10
105.529076
 20
-170.242569
 30
0.0
 11
113.368561
 21
-162.403084
 31
0.0
  0
LINE
  8
0
 62
     0
 10
105.529076
 20
-165.999928
 30
0.0
 11
109.12592
 21
-162.403084
 31
0.0
  0
LINE
  8
0
 62
     0
 10
157.879501
 20
-185.774395
 30
0.0
 11
166.243878
 21
-177.410018
 31
0.0
  0
LINE
  8
0
 62
     0
 10
161.259857
 20
-186.636679
 30
0.0
 11
169.624876
 21
-178.271661
 31
0.0
  0
LINE
  8
0
 62
     0
 10
164.640213
 20
-187.498964
 30
0.0
 11
173.005873
 21
-179.133304
 31
0.0
  0
LINE
  8
0
 62
     0
 10
168.02057
 20
-188.361248
 30
0.0
 11
181.529076
 21
-174.852742
 31
0.0
  0
LINE
  8
0
 62
     0
 10
171.400926
 20
-189.223532
 30
0.0
 11
182.221375
 21
-178.403084
 31
0.0
  0
LINE
  8
0
 62
     0
 10
174.687583
 20
-190.179516
 30
0.0
 11
186.464015
 21
-178.403084
 31
0.0
  0
LINE
  8
0
 62
     0
 10
176.529076
 20
-192.580664
 30
0.0
 11
180.529076
 21
-188.580664
 31
0.0
  0
LINE
  8
0
 62
     0
 10
183.706656
 20
-185.403084
 30
0.0
 11
190.706656
 21
-178.403084
 31
0.0
  0
LINE
  8
0
 62
     0
 10
176.529076
 20
-196.823305
 30
0.0
 11
180.529076
 21
-192.823305
 31
0.0
  0
LINE
  8
0
 62
     0
 10
187.949297
 20
-185.403084
 30
0.0
 11
194.949297
 21
-178.403084
 31
0.0
  0
LINE
  8
0
 62
     0
 10
176.529076
 20
-201.065945
 30
0.0
 11
180.529076
 21
-197.065945
 31
0.0
  0
LINE
  8
0
 62
     0
 10
192.191937
 20
-185.403084
 30
0.0
 11
195.529076
 21
-182.065945
 31
0.0
  0
LINE
  8
0
 62
     0
 10
176.529076
 20
-205.308586
 30
0.0
 11
180.529076
 21
-201.308586
 31
0.0
  0
LINE
  8
0
 62
     0
 10
176.529076
 20
-209.551227
 30
0.0
 11
180.529076
 21
-205.551227
 31
0.0
  0
LINE
  8
0
 62
     0
 10
176.529076
 20
-213.793868
 30
0.0
 11
180.529076
 21
-209.793868
 31
0.0
  0
LINE
  8
0
 62
     0
 10
177.595788
 20
-216.969796
 30
0.0
 11
180.529076
 21
-214.036508
 31
0.0
  0
LINE
  8
0
 62
     0
 10
179.219318
 20
-217.403084
 30
0.0
 11
176.529076
 21
-214.712842
 31
0.0
  0
LINE
  8
0
 62
     0
 10
144.067325
 20
-182.251091
 30
0.0
 11
124.225862
 21
-162.409628
 31
0.0
  0
LINE
  8
0
 62
     0
 10
138.371842
 20
-180.798249
 30
0.0
 11
119.976677
 21
-162.403084
 31
0.0
  0
LINE
  8
0
 62
     0
 10
132.744143
 20
-179.41319
 30
0.0
 11
115.734036
 21
-162.403084
 31
0.0
  0
LINE
  8
0
 62
     0
 10
129.347687
 20
-180.259375
 30
0.0
 11
111.491396
 21
-162.403084
 31
0.0
  0
LINE
  8
0
 62
     0
 10
127.446747
 20
-182.601076
 30
0.0
 11
107.449669
 21
-162.603998
 31
0.0
  0
LINE
  8
0
 62
     0
 10
125.382242
 20
-184.779211
 30
0.0
 11
105.562114
 21
-164.959083
 31
0.0
  0
LINE
  8
0
 62
     0
 10
121.263474
 20
-184.903084
 30
0.0
 11
105.529076
 21
-169.168686
 31
0.0
  0
LINE
  8
0
 62
     0
 10
117.020833
 20
-184.903084
 30
0.0
 11
105.529076
 21
-173.411327
 31
0.0
  0
LINE
  8
0
 62
     0
 10
112.778192
 20
-184.903084
 30
0.0
 11
105.529076
 21
-177.653967
 31
0.0
  0
LINE
  8
0
 62
     0
 10
108.535552
 20
-184.903084
 30
0.0
 11
105.529076
 21
-181.896608
 31
0.0
  0
LINE
  8
0
 62
     0
 10
180.529076
 20
-214.470201
 30
0.0
 11
176.529076
 21
-210.470201
 31
0.0
  0
LINE
  8
0
 62
     0
 10
149.762809
 20
-183.703934
 30
0.0
 11
135.679632
 21
-169.620757
 31
0.0
  0
LINE
  8
0
 62
     0
 10
180.529076
 20
-210.22756
 30
0.0
 11
176.529076
 21
-206.22756
 31
0.0
  0
LINE
  8
0
 62
     0
 10
155.458292
 20
-185.156777
 30
0.0
 11
141.373296
 21
-171.07178
 31
0.0
  0
LINE
  8
0
 62
     0
 10
180.529076
 20
-205.98492
 30
0.0
 11
176.529076
 21
-201.98492
 31
0.0
  0
LINE
  8
0
 62
     0
 10
161.153775
 20
-186.609619
 30
0.0
 11
147.066959
 21
-172.522804
 31
0.0
  0
LINE
  8
0
 62
     0
 10
180.529076
 20
-201.742279
 30
0.0
 11
176.529076
 21
-197.742279
 31
0.0
  0
LINE
  8
0
 62
     0
 10
166.849258
 20
-188.062462
 30
0.0
 11
152.760623
 21
-173.973827
 31
0.0
  0
LINE
  8
0
 62
     0
 10
180.529076
 20
-197.499638
 30
0.0
 11
176.529076
 21
-193.499638
 31
0.0
  0
LINE
  8
0
 62
     0
 10
172.544741
 20
-189.515304
 30
0.0
 11
158.454287
 21
-175.42485
 31
0.0
  0
LINE
  8
0
 62
     0
 10
180.529076
 20
-193.256998
 30
0.0
 11
164.147951
 21
-176.875873
 31
0.0
  0
LINE
  8
0
 62
     0
 10
180.529076
 20
-189.014357
 30
0.0
 11
169.841615
 21
-178.326896
 31
0.0
  0
LINE
  8
0
 62
     0
 10
181.160443
 20
-185.403084
 30
0.0
 11
174.959948
 21
-179.202589
 31
0.0
  0
LINE
  8
0
 62
     0
 10
185.403084
 20
-185.403084
 30
0.0
 11
176.529076
 21
-176.529076
 31
0.0
  0
LINE
  8
0
 62
     0
 10
189.645725
 20
-185.403084
 30
0.0
 11
182.645725
 21
-178.403084
 31
0.0
  0
LINE
  8
0
 62
     0
 10
181.529076
 20
-177.286435
 30
0.0
 11
178.645725
 21
-174.403084
 31
0.0
  0
LINE
  8
0
 62
     0
 10
193.888365
 20
-185.403084
 30
0.0
 11
186.888365
 21
-178.403084
 31
0.0
  0
LINE
  8
0
 62
     0
 10
195.529076
 20
-182.801154
 30
0.0
 11
191.131006
 21
-178.403084
 31
0.0
  0
LINE
  8
0
 62
     0
 10
195.529076
 20
-178.558513
 30
0.0
 11
195.373647
 21
-178.403084
 31
0.0
  0
ENDBLK
  8
0
  0
BLOCK
  8
0
  2
*X3
 70
    65
 10
0.0
 20
0.0
 30
0.0
  3
*X
  0
LINE
  8
0
 62
     0
 10
495.408737
 20
11.747698
 30
0.0
 11
507.013177
 21
23.352139
 31
0.0
  0
LINE
  8
0
 62
     0
 10
491.831608
 20
12.413211
 30
0.0
 11
503.398485
 21
23.980087
 31
0.0
  0
LINE
  8
0
 62
     0
 10
488.25448
 20
13.078723
 30
0.0
 11
499.783792
 21
24.608035
 31
0.0
  0
LINE
  8
0
 62
     0
 10
484.677352
 20
13.744235
 30
0.0
 11
496.1691
 21
25.235984
 31
0.0
  0
LINE
  8
0
 62
     0
 10
481.100223
 20
14.409748
 30
0.0
 11
492.554408
 21
25.863932
 31
0.0
  0
LINE
  8
0
 62
     0
 10
477.246493
 20
14.798658
 30
0.0
 11
488.939715
 21
26.491881
 31
0.0
  0
LINE
  8
0
 62
     0
 10
471.404483
 20
13.199289
 30
0.0
 11
485.325023
 21
27.119829
 31
0.0
  0
LINE
  8
0
 62
     0
 10
465.089414
 20
11.12686
 30
0.0
 11
481.710331
 21
27.747777
 31
0.0
  0
LINE
  8
0
 62
     0
 10
459.737361
 20
10.017448
 30
0.0
 11
478.141119
 21
28.421207
 31
0.0
  0
LINE
  8
0
 62
     0
 10
455.49472
 20
10.017448
 30
0.0
 11
475.236367
 21
29.759095
 31
0.0
  0
LINE
  8
0
 62
     0
 10
451.25208
 20
10.017448
 30
0.0
 11
472.60198
 21
31.367348
 31
0.0
  0
LINE
  8
0
 62
     0
 10
447.009439
 20
10.017448
 30
0.0
 11
469.967592
 21
32.975602
 31
0.0
  0
LINE
  8
0
 62
     0
 10
442.766798
 20
10.017448
 30
0.0
 11
467.333205
 21
34.583855
 31
0.0
  0
LINE
  8
0
 62
     0
 10
439.392667
 20
10.885958
 30
0.0
 11
464.698817
 21
36.192108
 31
0.0
  0
LINE
  8
0
 62
     0
 10
437.526836
 20
13.262767
 30
0.0
 11
461.988828
 21
37.724759
 31
0.0
  0
LINE
  8
0
 62
     0
 10
437.208832
 20
17.187404
 30
0.0
 11
458.038876
 21
38.017448
 31
0.0
  0
LINE
  8
0
 62
     0
 10
437.208832
 20
21.430045
 30
0.0
 11
453.796236
 21
38.017448
 31
0.0
  0
LINE
  8
0
 62
     0
 10
437.208832
 20
25.672686
 30
0.0
 11
449.553595
 21
38.017448
 31
0.0
  0
LINE
  8
0
 62
     0
 10
437.208832
 20
29.915326
 30
0.0
 11
445.310954
 21
38.017448
 31
0.0
  0
LINE
  8
0
 62
     0
 10
437.385431
 20
34.334566
 30
0.0
 11
440.891715
 21
37.84085
 31
0.0
  0
LINE
  8
0
 62
     0
 10
498.985865
 20
11.082186
 30
0.0
 11
510.627869
 21
22.72419
 31
0.0
  0
LINE
  8
0
 62
     0
 10
502.562994
 20
10.416674
 30
0.0
 11
514.242562
 21
22.096242
 31
0.0
  0
LINE
  8
0
 62
     0
 10
506.140122
 20
9.751162
 30
0.0
 11
517.857254
 21
21.468294
 31
0.0
  0
LINE
  8
0
 62
     0
 10
509.717251
 20
9.085649
 30
0.0
 11
521.471946
 21
20.840345
 31
0.0
  0
LINE
  8
0
 62
     0
 10
513.294379
 20
8.420137
 30
0.0
 11
528.89169
 21
24.017448
 31
0.0
  0
LINE
  8
0
 62
     0
 10
516.871507
 20
7.754625
 30
0.0
 11
533.134331
 21
24.017448
 31
0.0
  0
LINE
  8
0
 62
     0
 10
520.448636
 20
7.089113
 30
0.0
 11
533.376971
 21
20.017448
 31
0.0
  0
LINE
  8
0
 62
     0
 10
524.025764
 20
6.4236
 30
0.0
 11
537.619612
 21
20.017448
 31
0.0
  0
LINE
  8
0
 62
     0
 10
526.759972
 20
4.915168
 30
0.0
 11
532.208832
 21
10.364028
 31
0.0
  0
LINE
  8
0
 62
     0
 10
532.862253
 20
11.017448
 30
0.0
 11
541.862253
 21
20.017448
 31
0.0
  0
LINE
  8
0
 62
     0
 10
528.174186
 20
2.086741
 30
0.0
 11
532.208832
 21
6.121387
 31
0.0
  0
LINE
  8
0
 62
     0
 10
537.104893
 20
11.017448
 30
0.0
 11
546.104893
 21
20.017448
 31
0.0
  0
LINE
  8
0
 62
     0
 10
528.208832
 20
-2.121254
 30
0.0
 11
532.208832
 21
1.878746
 31
0.0
  0
LINE
  8
0
 62
     0
 10
541.347534
 20
11.017448
 30
0.0
 11
547.208832
 21
16.878746
 31
0.0
  0
LINE
  8
0
 62
     0
 10
528.208832
 20
-6.363894
 30
0.0
 11
532.208832
 21
-2.363894
 31
0.0
  0
LINE
  8
0
 62
     0
 10
545.590175
 20
11.017448
 30
0.0
 11
547.208832
 21
12.636106
 31
0.0
  0
LINE
  8
0
 62
     0
 10
528.208832
 20
-10.606535
 30
0.0
 11
532.208832
 21
-6.606535
 31
0.0
  0
LINE
  8
0
 62
     0
 10
528.208832
 20
-14.849176
 30
0.0
 11
532.208832
 21
-10.849176
 31
0.0
  0
LINE
  8
0
 62
     0
 10
528.208832
 20
-19.091816
 30
0.0
 11
532.208832
 21
-15.091816
 31
0.0
  0
LINE
  8
0
 62
     0
 10
529.634785
 20
-21.908504
 30
0.0
 11
532.208832
 21
-19.334457
 31
0.0
  0
LINE
  8
0
 62
     0
 10
482.180125
 20
14.208836
 30
0.0
 11
458.371512
 21
38.017448
 31
0.0
  0
LINE
  8
0
 62
     0
 10
477.341392
 20
14.804928
 30
0.0
 11
454.128872
 21
38.017448
 31
0.0
  0
LINE
  8
0
 62
     0
 10
473.889031
 20
14.014648
 30
0.0
 11
449.886231
 21
38.017448
 31
0.0
  0
LINE
  8
0
 62
     0
 10
470.694685
 20
12.966353
 30
0.0
 11
445.64359
 21
38.017448
 31
0.0
  0
LINE
  8
0
 62
     0
 10
467.500339
 20
11.918058
 30
0.0
 11
441.457693
 21
37.960705
 31
0.0
  0
LINE
  8
0
 62
     0
 10
464.305993
 20
10.869764
 30
0.0
 11
438.648127
 21
36.52763
 31
0.0
  0
LINE
  8
0
 62
     0
 10
460.915664
 20
10.017452
 30
0.0
 11
437.252947
 21
33.680169
 31
0.0
  0
LINE
  8
0
 62
     0
 10
456.673027
 20
10.017448
 30
0.0
 11
437.208832
 21
29.481643
 31
0.0
  0
LINE
  8
0
 62
     0
 10
452.430387
 20
10.017448
 30
0.0
 11
437.208832
 21
25.239003
 31
0.0
  0
LINE
  8
0
 62
     0
 10
448.187746
 20
10.017448
 30
0.0
 11
437.208832
 21
20.996362
 31
0.0
  0
LINE
  8
0
 62
     0
 10
443.945105
 20
10.017448
 30
0.0
 11
437.208832
 21
16.753721
 31
0.0
  0
LINE
  8
0
 62
     0
 10
487.392512
 20
13.239089
 30
0.0
 11
464.033056
 21
36.598545
 31
0.0
  0
LINE
  8
0
 62
     0
 10
492.604899
 20
12.269343
 30
0.0
 11
474.925158
 21
29.949083
 31
0.0
  0
LINE
  8
0
 62
     0
 10
531.099434
 20
-21.982552
 30
0.0
 11
528.208832
 21
-19.09195
 31
0.0
  0
LINE
  8
0
 62
     0
 10
497.817286
 20
11.299596
 30
0.0
 11
481.297364
 21
27.819518
 31
0.0
  0
LINE
  8
0
 62
     0
 10
532.208832
 20
-18.849309
 30
0.0
 11
528.208832
 21
-14.849309
 31
0.0
  0
LINE
  8
0
 62
     0
 10
503.029673
 20
10.32985
 30
0.0
 11
486.431999
 21
26.927524
 31
0.0
  0
LINE
  8
0
 62
     0
 10
532.208832
 20
-14.606669
 30
0.0
 11
528.208832
 21
-10.606669
 31
0.0
  0
LINE
  8
0
 62
     0
 10
508.24206
 20
9.360103
 30
0.0
 11
491.566635
 21
26.035529
 31
0.0
  0
LINE
  8
0
 62
     0
 10
532.208832
 20
-10.364028
 30
0.0
 11
528.208832
 21
-6.364028
 31
0.0
  0
LINE
  8
0
 62
     0
 10
513.454448
 20
8.390357
 30
0.0
 11
496.70127
 21
25.143535
 31
0.0
  0
LINE
  8
0
 62
     0
 10
532.208832
 20
-6.121387
 30
0.0
 11
528.208832
 21
-2.121387
 31
0.0
  0
LINE
  8
0
 62
     0
 10
518.666835
 20
7.420611
 30
0.0
 11
501.835905
 21
24.25154
 31
0.0
  0
LINE
  8
0
 62
     0
 10
532.208832
 20
-1.878746
 30
0.0
 11
528.105027
 21
2.225059
 31
0.0
  0
LINE
  8
0
 62
     0
 10
523.879222
 20
6.450864
 30
0.0
 11
506.97054
 21
23.359546
 31
0.0
  0
LINE
  8
0
 62
     0
 10
532.208832
 20
2.363894
 30
0.0
 11
512.105175
 21
22.467551
 31
0.0
  0
LINE
  8
0
 62
     0
 10
532.208832
 20
6.606535
 30
0.0
 11
517.239811
 21
21.575557
 31
0.0
  0
LINE
  8
0
 62
     0
 10
532.208832
 20
10.849176
 30
0.0
 11
522.374446
 21
20.683562
 31
0.0
  0
LINE
  8
0
 62
     0
 10
536.2832
 20
11.017448
 30
0.0
 11
525.88791
 21
21.412738
 31
0.0
  0
LINE
  8
0
 62
     0
 10
540.525841
 20
11.017448
 30
0.0
 11
527.867337
 21
23.675953
 31
0.0
  0
LINE
  8
0
 62
     0
 10
544.768482
 20
11.017448
 30
0.0
 11
535.768482
 21
20.017448
 31
0.0
  0
LINE
  8
0
 62
     0
 10
533.208832
 20
22.577098
 30
0.0
 11
531.768482
 21
24.017448
 31
0.0
  0
LINE
  8
0
 62
     0
 10
547.208832
 20
12.819738
 30
0.0
 11
540.011123
 21
20.017448
 31
0.0
  0
LINE
  8
0
 62
     0
 10
547.208832
 20
17.062379
 30
0.0
 11
544.253763
 21
20.017448
 31
0.0
  0
ENDBLK
  8
0
  0
BLOCK
  8
0
  2
*X4
 70
    65
 10
0.0
 20
0.0
 30
0.0
  3
*X
  0
LINE
  8
0
 62
     0
 10
499.930213
 20
40.310805
 30
0.0
 11
510.680213
 21
51.060805
 31
0.0
  0
LINE
  8
0
 62
     0
 10
499.930213
 20
43.846339
 30
0.0
 11
510.680213
 21
54.596339
 31
0.0
  0
LINE
  8
0
 62
     0
 10
499.930213
 20
47.381873
 30
0.0
 11
513.992321
 21
61.443981
 31
0.0
  0
LINE
  8
0
 62
     0
 10
499.930213
 20
50.917407
 30
0.0
 11
510.456787
 21
61.443981
 31
0.0
  0
LINE
  8
0
 62
     0
 10
499.930213
 20
54.452941
 30
0.0
 11
506.921253
 21
61.443981
 31
0.0
  0
LINE
  8
0
 62
     0
 10
499.930213
 20
57.988475
 30
0.0
 11
503.385719
 21
61.443981
 31
0.0
  0
LINE
  8
0
 62
     0
 10
499.930213
 20
36.775271
 30
0.0
 11
510.680213
 21
47.525271
 31
0.0
  0
LINE
  8
0
 62
     0
 10
499.930213
 20
33.239737
 30
0.0
 11
510.680213
 21
43.989737
 31
0.0
  0
LINE
  8
0
 62
     0
 10
499.930213
 20
29.704204
 30
0.0
 11
510.680213
 21
40.454204
 31
0.0
  0
LINE
  8
0
 62
     0
 10
502.205524
 20
28.443981
 30
0.0
 11
510.680213
 21
36.91867
 31
0.0
  0
LINE
  8
0
 62
     0
 10
505.741058
 20
28.443981
 30
0.0
 11
510.680213
 21
33.383136
 31
0.0
  0
LINE
  8
0
 62
     0
 10
509.276592
 20
28.443981
 30
0.0
 11
510.680213
 21
29.847602
 31
0.0
  0
ENDBLK
  8
0
  0
BLOCK
  8
0
  2
*X5
 70
    65
 10
0.0
 20
0.0
 30
0.0
  3
*X
  0
LINE
  8
0
 62
     0
 10
162.350422
 20
158.107782
 30
0.0
 11
171.176509
 21
166.933869
 31
0.0
  0
LINE
  8
0
 62
     0
 10
158.784145
 20
158.784145
 30
0.0
 11
167.610232
 21
167.610232
 31
0.0
  0
LINE
  8
0
 62
     0
 10
155.217867
 20
159.460508
 30
0.0
 11
164.043954
 21
168.286595
 31
0.0
  0
LINE
  8
0
 62
     0
 10
145.643632
 20
154.128913
 30
0.0
 11
160.477676
 21
168.962958
 31
0.0
  0
LINE
  8
0
 62
     0
 10
141.400991
 20
154.128913
 30
0.0
 11
156.911399
 21
169.639321
 31
0.0
  0
LINE
  8
0
 62
     0
 10
137.15835
 20
154.128913
 30
0.0
 11
153.460984
 21
170.431546
 31
0.0
  0
LINE
  8
0
 62
     0
 10
132.91571
 20
154.128913
 30
0.0
 11
151.107136
 21
172.32034
 31
0.0
  0
LINE
  8
0
 62
     0
 10
128.903691
 20
154.359535
 30
0.0
 11
148.985816
 21
174.44166
 31
0.0
  0
LINE
  8
0
 62
     0
 10
127.077961
 20
156.776446
 30
0.0
 11
146.702625
 21
176.40111
 31
0.0
  0
LINE
  8
0
 62
     0
 10
127.057184
 20
160.99831
 30
0.0
 11
142.687788
 21
176.628913
 31
0.0
  0
LINE
  8
0
 62
     0
 10
127.057184
 20
165.24095
 30
0.0
 11
138.445147
 21
176.628913
 31
0.0
  0
LINE
  8
0
 62
     0
 10
127.057184
 20
169.483591
 30
0.0
 11
134.202506
 21
176.628913
 31
0.0
  0
LINE
  8
0
 62
     0
 10
127.058816
 20
173.727864
 30
0.0
 11
129.958233
 21
176.627281
 31
0.0
  0
LINE
  8
0
 62
     0
 10
165.9167
 20
157.431419
 30
0.0
 11
174.742787
 21
166.257506
 31
0.0
  0
LINE
  8
0
 62
     0
 10
178.057184
 20
169.571903
 30
0.0
 11
179.614194
 21
171.128913
 31
0.0
  0
LINE
  8
0
 62
     0
 10
169.482978
 20
156.755056
 30
0.0
 11
183.057184
 21
170.329262
 31
0.0
  0
LINE
  8
0
 62
     0
 10
173.049255
 20
156.078693
 30
0.0
 11
184.099476
 21
167.128913
 31
0.0
  0
LINE
  8
0
 62
     0
 10
176.37424
 20
155.161036
 30
0.0
 11
182.057184
 21
160.843981
 31
0.0
  0
LINE
  8
0
 62
     0
 10
184.342116
 20
163.128913
 30
0.0
 11
188.342116
 21
167.128913
 31
0.0
  0
LINE
  8
0
 62
     0
 10
178.057184
 20
152.60134
 30
0.0
 11
182.057184
 21
156.60134
 31
0.0
  0
LINE
  8
0
 62
     0
 10
188.584757
 20
163.128913
 30
0.0
 11
192.584757
 21
167.128913
 31
0.0
  0
LINE
  8
0
 62
     0
 10
178.057184
 20
148.358699
 30
0.0
 11
182.057184
 21
152.358699
 31
0.0
  0
LINE
  8
0
 62
     0
 10
192.827398
 20
163.128913
 30
0.0
 11
196.827398
 21
167.128913
 31
0.0
  0
LINE
  8
0
 62
     0
 10
178.057184
 20
144.116059
 30
0.0
 11
182.057184
 21
148.116059
 31
0.0
  0
LINE
  8
0
 62
     0
 10
178.057184
 20
139.873418
 30
0.0
 11
182.057184
 21
143.873418
 31
0.0
  0
LINE
  8
0
 62
     0
 10
178.057184
 20
135.630777
 30
0.0
 11
182.057184
 21
139.630777
 31
0.0
  0
LINE
  8
0
 62
     0
 10
178.677572
 20
132.008525
 30
0.0
 11
182.057184
 21
135.388137
 31
0.0
  0
LINE
  8
0
 62
     0
 10
182.040601
 20
131.128913
 30
0.0
 11
182.057184
 21
131.145496
 31
0.0
  0
LINE
  8
0
 62
     0
 10
182.057184
 20
131.898227
 30
0.0
 11
178.057184
 21
135.898227
 31
0.0
  0
LINE
  8
0
 62
     0
 10
154.407323
 20
159.548088
 30
0.0
 11
137.326498
 21
176.628913
 31
0.0
  0
LINE
  8
0
 62
     0
 10
151.212412
 20
158.500358
 30
0.0
 11
133.083857
 21
176.628913
 31
0.0
  0
LINE
  8
0
 62
     0
 10
149.215477
 20
156.254652
 30
0.0
 11
129.024543
 21
176.445587
 31
0.0
  0
LINE
  8
0
 62
     0
 10
146.959625
 20
154.267864
 30
0.0
 11
127.099062
 21
174.128427
 31
0.0
  0
LINE
  8
0
 62
     0
 10
142.855935
 20
154.128913
 30
0.0
 11
127.057184
 21
169.927664
 31
0.0
  0
LINE
  8
0
 62
     0
 10
138.613294
 20
154.128913
 30
0.0
 11
127.057184
 21
165.685023
 31
0.0
  0
LINE
  8
0
 62
     0
 10
134.370654
 20
154.128913
 30
0.0
 11
127.057184
 21
161.442383
 31
0.0
  0
LINE
  8
0
 62
     0
 10
130.128013
 20
154.128913
 30
0.0
 11
127.057184
 21
157.199742
 31
0.0
  0
LINE
  8
0
 62
     0
 10
182.057184
 20
136.140867
 30
0.0
 11
178.057184
 21
140.140867
 31
0.0
  0
LINE
  8
0
 62
     0
 10
159.561298
 20
158.636753
 30
0.0
 11
141.569139
 21
176.628913
 31
0.0
  0
LINE
  8
0
 62
     0
 10
182.057184
 20
140.383508
 30
0.0
 11
178.057184
 21
144.383508
 31
0.0
  0
LINE
  8
0
 62
     0
 10
164.796897
 20
157.643795
 30
0.0
 11
145.823759
 21
176.616933
 31
0.0
  0
LINE
  8
0
 62
     0
 10
182.057184
 20
144.626149
 30
0.0
 11
178.057184
 21
148.626149
 31
0.0
  0
LINE
  8
0
 62
     0
 10
170.032496
 20
156.650837
 30
0.0
 11
157.07505
 21
169.608283
 31
0.0
  0
LINE
  8
0
 62
     0
 10
182.057184
 20
148.86879
 30
0.0
 11
178.057184
 21
152.86879
 31
0.0
  0
LINE
  8
0
 62
     0
 10
175.268096
 20
155.657878
 30
0.0
 11
162.310649
 21
168.615325
 31
0.0
  0
LINE
  8
0
 62
     0
 10
182.057184
 20
153.11143
 30
0.0
 11
167.546248
 21
167.622366
 31
0.0
  0
LINE
  8
0
 62
     0
 10
182.057184
 20
157.354071
 30
0.0
 11
172.781847
 21
166.629408
 31
0.0
  0
LINE
  8
0
 62
     0
 10
182.057184
 20
161.596712
 30
0.0
 11
176.94558
 21
166.708315
 31
0.0
  0
LINE
  8
0
 62
     0
 10
184.767623
 20
163.128913
 30
0.0
 11
178.162404
 21
169.734133
 31
0.0
  0
LINE
  8
0
 62
     0
 10
189.010264
 20
163.128913
 30
0.0
 11
185.010264
 21
167.128913
 31
0.0
  0
LINE
  8
0
 62
     0
 10
183.057184
 20
169.081993
 30
0.0
 11
181.010264
 21
171.128913
 31
0.0
  0
LINE
  8
0
 62
     0
 10
193.252905
 20
163.128913
 30
0.0
 11
189.252905
 21
167.128913
 31
0.0
  0
LINE
  8
0
 62
     0
 10
197.057184
 20
163.567274
 30
0.0
 11
193.495545
 21
167.128913
 31
0.0
  0
ENDBLK
  8
0
  0
ENDSEC
  0
SECTION
  2
ENTITIES
  0
LINE
  8
0
 10
213.795185
 20
109.375645
 30
0.0
 11
214.995531
 21
109.706497
 31
0.0
  0
LINE
  8
0
 10
199.238214
 20
120.666139
 30
0.0
 11
211.499845
 21
124.173513
 31
0.0
  0
LINE
  8
0
 10
197.057184
 20
107.002977
 30
0.0
 11
211.295185
 21
107.002977
 31
0.0
  0
LINE
  8
0
 10
198.371703
 20
109.375645
 30
0.0
 11
213.795185
 21
109.375645
 31
0.0
  0
LINE
  8
0
 10
197.057184
 20
121.502977
 30
0.0
 11
202.163764
 21
121.502977
 31
0.0
  0
LINE
  8
0
 10
218.557184
 20
108.002977
 30
0.0
 11
234.557184
 21
108.002977
 31
0.0
  0
LINE
  8
0
 10
218.557184
 20
130.502977
 30
0.0
 11
234.557184
 21
130.502977
 31
0.0
  0
ARC
  8
0
 10
234.557184
 20
111.002977
 30
0.0
 40
3.0
 50
270.0
 51
0.0
  0
LINE
  8
0
 10
237.557184
 20
111.002977
 30
0.0
 11
237.557184
 21
127.502977
 31
0.0
  0
ARC
  8
0
 10
234.557184
 20
127.502977
 30
0.0
 40
3.0
 50
0.0
 51
90.0
  0
ARC
  8
0
 10
218.557184
 20
111.002977
 30
0.0
 40
3.0
 50
237.676348
 51
270.0
  0
ARC
  8
0
 10
218.557184
 20
127.502977
 30
0.0
 40
3.0
 50
90.0
 51
137.866482
  0
LINE
  8
0
 10
179.557184
 20
125.002977
 30
0.0
 11
178.057184
 21
123.502977
 31
0.0
  0
LINE
  8
0
 10
179.557184
 20
85.002977
 30
0.0
 11
178.057184
 21
86.502977
 31
0.0
  0
LINE
  8
0
 10
216.057184
 20
86.502977
 30
0.0
 11
214.557184
 21
85.002977
 31
0.0
  0
CIRCLE
  8
0
 10
197.057184
 20
6.258327
 30
0.0
 40
17.5
  0
LINE
  8
0
 10
178.057184
 20
107.002977
 30
0.0
 11
176.092211
 21
109.375645
 31
0.0
  0
LINE
  8
0
 10
178.057184
 20
121.502977
 30
0.0
 11
176.092211
 21
119.875645
 31
0.0
  0
ARC
  8
0
 10
155.502982
 20
128.869627
 30
0.0
 40
5.0
 50
225.0
 51
259.261103
  0
ARC
  8
0
 10
130.057184
 20
127.502977
 30
0.0
 40
3.0
 50
90.0
 51
180.0
  0
ARC
  8
0
 10
130.057184
 20
111.002977
 30
0.0
 40
3.0
 50
180.0
 51
270.0
  0
ARC
  8
0
 10
146.057184
 20
111.002977
 30
0.0
 40
3.0
 50
270.0
 51
320.797404
  0
ARC
  8
0
 10
145.555923
 20
127.502977
 30
0.0
 40
3.0
 50
45.0
 51
90.0
  0
LINE
  8
0
 10
178.057184
 20
121.502977
 30
0.0
 11
178.057184
 21
123.502977
 31
0.0
  0
LINE
  8
0
 10
151.967448
 20
125.334093
 30
0.0
 11
147.677243
 21
129.624298
 31
0.0
  0
LINE
  8
0
 10
176.092211
 20
109.375645
 30
0.0
 11
155.208871
 21
113.336278
 31
0.0
  0
LINE
  8
0
 10
176.092211
 20
119.875645
 30
0.0
 11
154.571313
 21
123.957194
 31
0.0
  0
LINE
  8
0
 10
146.057184
 20
108.002977
 30
0.0
 11
130.057184
 21
108.002977
 31
0.0
  0
LINE
  8
0
 10
145.555923
 20
130.502977
 30
0.0
 11
130.057184
 21
130.502977
 31
0.0
  0
LINE
  8
0
 10
127.057184
 20
111.002977
 30
0.0
 11
127.057184
 21
127.502977
 31
0.0
  0
LINE
  8
0
 10
212.250205
 20
125.002977
 30
0.0
 11
179.557184
 21
125.002977
 31
0.0
  0
LINE
  8
0
 10
214.557184
 20
85.002977
 30
0.0
 11
179.557184
 21
85.002977
 31
0.0
  0
LINE
  8
0
 10
178.057184
 20
86.502977
 30
0.0
 11
178.057184
 21
107.002977
 31
0.0
  0
LINE
  8
0
 10
216.057184
 20
86.502977
 30
0.0
 11
216.057184
 21
109.034734
 31
0.0
  0
LINE
  8
0
 10
213.795185
 20
-2.732742
 30
0.0
 11
229.785579
 21
-33.75604
 31
0.0
  0
LINE
  8
0
 10
196.474677
 20
-12.732742
 30
0.0
 11
215.346444
 21
-42.092478
 31
0.0
  0
ARC
  8
0
 10
213.664026
 20
-43.173898
 30
0.0
 40
2.0
 50
352.649192
 51
32.731982
  0
ARC
  8
0
 10
231.563326
 20
-32.839733
 30
0.0
 40
2.0
 50
207.268018
 51
247.350808
  0
LINE
  8
0
 10
196.474677
 20
25.249395
 30
0.0
 11
215.346444
 21
54.609132
 31
0.0
  0
LINE
  8
0
 10
213.795185
 20
15.249395
 30
0.0
 11
229.785579
 21
46.272693
 31
0.0
  0
ARC
  8
0
 10
231.563326
 20
45.356386
 30
0.0
 40
2.0
 50
112.649192
 51
152.731982
  0
ARC
  8
0
 10
213.664026
 20
55.690552
 30
0.0
 40
2.0
 50
327.268018
 51
7.350808
  0
ARC
  8
0
 10
145.9442
 20
-4.075839
 30
0.0
 40
2.0
 50
87.268018
 51
127.350808
  0
ARC
  8
0
 10
145.9442
 20
16.592492
 30
0.0
 40
2.0
 50
232.649192
 51
272.731982
  0
CIRCLE
  8
0
 10
197.057184
 20
6.258327
 30
0.0
 40
14.0
  0
LINE
  8
0
 10
180.90169
 20
16.258327
 30
0.0
 11
146.039528
 21
14.594765
 31
0.0
  0
LINE
  8
0
 10
180.90169
 20
-3.741673
 30
0.0
 11
146.039528
 21
-2.078112
 31
0.0
  0
CIRCLE
  8
0
 10
197.057184
 20
6.258327
 30
0.0
 40
19.0
  0
LINE
  8
0
 10
197.057184
 20
123.502977
 30
0.0
 11
209.155681
 21
123.502977
 31
0.0
  0
LINE
  8
0
 10
216.057184
 20
86.502977
 30
0.0
 11
197.057184
 21
86.502977
 31
0.0
  0
ARC
  8
0
 10
211.295185
 20
109.502977
 30
0.0
 40
2.5
 50
270.0
 51
357.080486
  0
LINE
  8
0
 10
197.057184
 20
107.99962
 30
0.0
 11
198.371703
 21
109.375645
 31
0.0
  0
LINE
  8
0
 10
198.371703
 20
109.375645
 30
0.0
 11
210.732613
 21
112.403865
 31
0.0
  0
LINE
  8
0
 10
199.238214
 20
120.666139
 30
0.0
 11
197.057184
 21
120.935642
 31
0.0
  0
LINE
  8
0
 10
182.057184
 20
85.002977
 30
0.0
 11
182.057184
 21
117.002977
 31
0.0
  0
LINE
  8
0
 10
197.057184
 20
121.002977
 30
0.0
 11
183.057184
 21
121.002977
 31
0.0
  0
LINE
  8
0
 10
183.057184
 20
121.002977
 30
0.0
 11
183.057184
 21
125.002977
 31
0.0
  0
LINE
  8
0
 10
197.057184
 20
117.002977
 30
0.0
 11
182.057184
 21
117.002977
 31
0.0
  0
LINE
  8
0
 10
192.807184
 20
85.002977
 30
0.0
 11
192.807184
 21
113.002977
 31
0.0
  0
LINE
  8
0
 10
197.057184
 20
113.002977
 30
0.0
 11
192.807184
 21
113.002977
 31
0.0
  0
LINE
  8
0
 10
192.807184
 20
113.002977
 30
0.0
 11
197.057184
 21
115.456716
 31
0.0
  0
LINE
  8
0
  6
CENTER
 10
197.057184
 20
81.390643
 30
0.0
 11
197.057184
 21
129.805646
 31
0.0
  0
LINE
  8
0
 10
298.112741
 20
17.258327
 30
0.0
 11
298.112741
 21
23.758327
 31
0.0
  0
LINE
  8
0
 10
259.612741
 20
-12.741673
 30
0.0
 11
259.612741
 21
25.258327
 31
0.0
  0
LINE
  8
0
 10
259.612741
 20
25.258327
 30
0.0
 11
296.612741
 21
25.258327
 31
0.0
  0
LINE
  8
0
 10
258.112741
 20
-11.241673
 30
0.0
 11
258.112741
 21
23.758327
 31
0.0
  0
LINE
  8
0
 10
284.112741
 20
68.353826
 30
0.0
 11
300.612741
 21
68.353826
 31
0.0
  0
LINE
  8
0
 10
303.612741
 20
49.855087
 30
0.0
 11
303.612741
 21
65.353826
 31
0.0
  0
LINE
  8
0
 10
281.112741
 20
49.353826
 30
0.0
 11
281.112741
 21
65.353826
 31
0.0
  0
LINE
  8
0
 10
292.985408
 20
27.2233
 30
0.0
 11
297.066958
 21
40.839696
 31
0.0
  0
LINE
  8
0
 10
282.485408
 20
27.2233
 30
0.0
 11
286.254889
 21
39.74701
 31
0.0
  0
LINE
  8
0
 10
298.443856
 20
43.443562
 30
0.0
 11
302.734061
 21
47.733767
 31
0.0
  0
ARC
  8
0
 10
300.612741
 20
49.855087
 30
0.0
 40
3.0
 50
315.0
 51
0.0
  0
ARC
  8
0
 10
284.112741
 20
49.353826
 30
0.0
 40
3.0
 50
180.0
 51
230.797438
  0
ARC
  8
0
 10
284.112741
 20
65.353826
 30
0.0
 40
3.0
 50
90.0
 51
180.0
  0
ARC
  8
0
 10
300.612741
 20
65.353826
 30
0.0
 40
3.0
 50
0.0
 51
90.0
  0
ARC
  8
0
 10
301.97939
 20
39.908028
 30
0.0
 40
5.0
 50
135.0
 51
169.261103
  0
LINE
  8
0
 10
294.612741
 20
25.258327
 30
0.0
 11
292.985408
 21
27.2233
 31
0.0
  0
LINE
  8
0
 10
280.112741
 20
25.258327
 30
0.0
 11
282.485408
 21
27.2233
 31
0.0
  0
LINE
  8
0
 10
259.612741
 20
-12.741673
 30
0.0
 11
258.112741
 21
-11.241673
 31
0.0
  0
LINE
  8
0
 10
258.112741
 20
23.758327
 30
0.0
 11
259.612741
 21
25.258327
 31
0.0
  0
LINE
  8
0
 10
298.112741
 20
23.758327
 30
0.0
 11
296.612741
 21
25.258327
 31
0.0
  0
ARC
  8
0
 10
300.612741
 20
14.258327
 30
0.0
 40
3.0
 50
0.0
 51
90.0
  0
ARC
  8
0
 10
284.112741
 20
14.258327
 30
0.0
 40
3.0
 50
90.0
 51
180.0
  0
LINE
  8
0
 10
284.112741
 20
17.258327
 30
0.0
 11
300.612741
 21
17.258327
 31
0.0
  0
ARC
  8
0
 10
300.612741
 20
-1.741673
 30
0.0
 40
3.0
 50
270.0
 51
360.0
  0
LINE
  8
0
 10
284.112741
 20
-4.741673
 30
0.0
 11
300.612741
 21
-4.741673
 31
0.0
  0
ARC
  8
0
 10
284.112741
 20
-1.741673
 30
0.0
 40
3.0
 50
180.0
 51
270.0
  0
LINE
  8
0
 10
303.612741
 20
14.258327
 30
0.0
 11
303.612741
 21
-1.741673
 31
0.0
  0
LINE
  8
0
 10
281.112741
 20
14.258327
 30
0.0
 11
281.112741
 21
-1.741673
 31
0.0
  0
LINE
  8
0
 10
280.112741
 20
13.758327
 30
0.0
 11
280.112741
 21
-1.241673
 31
0.0
  0
ARC
  8
0
 10
301.97939
 20
-27.391374
 30
0.0
 40
5.0
 50
190.738897
 51
225.0
  0
ARC
  8
0
 10
300.612741
 20
-52.837172
 30
0.0
 40
3.0
 50
270.0
 51
360.0
  0
ARC
  8
0
 10
284.112741
 20
-52.837172
 30
0.0
 40
3.0
 50
180.0
 51
270.0
  0
ARC
  8
0
 10
300.612741
 20
-37.338433
 30
0.0
 40
3.0
 50
360.0
 51
45.0
  0
LINE
  8
0
 10
298.443856
 20
-30.926908
 30
0.0
 11
302.734061
 21
-35.217113
 31
0.0
  0
LINE
  8
0
 10
292.985408
 20
-14.706646
 30
0.0
 11
297.066958
 21
-28.323043
 31
0.0
  0
LINE
  8
0
 10
303.612741
 20
-37.338433
 30
0.0
 11
303.612741
 21
-52.837172
 31
0.0
  0
LINE
  8
0
 10
284.112741
 20
-55.837172
 30
0.0
 11
300.612741
 21
-55.837172
 31
0.0
  0
LINE
  8
0
 10
298.112741
 20
-11.241673
 30
0.0
 11
296.612741
 21
-12.741673
 31
0.0
  0
LINE
  8
0
 10
259.612741
 20
-12.741673
 30
0.0
 11
296.612741
 21
-12.741673
 31
0.0
  0
LINE
  8
0
 10
280.112741
 20
-12.741673
 30
0.0
 11
282.485408
 21
-14.706646
 31
0.0
  0
LINE
  8
0
 10
294.612741
 20
-12.741673
 30
0.0
 11
292.985408
 21
-14.706646
 31
0.0
  0
LINE
  8
0
 10
258.112741
 20
-11.241673
 30
0.0
 11
259.612741
 21
-12.741673
 31
0.0
  0
LINE
  8
0
 10
298.112741
 20
-11.241673
 30
0.0
 11
298.112741
 21
-4.741673
 31
0.0
  0
LINE
  8
0
 10
296.612741
 20
-12.741673
 30
0.0
 11
296.612741
 21
-4.741673
 31
0.0
  0
LINE
  8
0
 10
296.612741
 20
25.258327
 30
0.0
 11
296.612741
 21
17.258327
 31
0.0
  0
ARC
  8
0
 10
282.112741
 20
13.758327
 30
0.0
 40
2.0
 50
109.254555
 51
180.0
  0
ARC
  8
0
 10
282.112741
 20
-1.241673
 30
0.0
 40
2.0
 50
180.0
 51
250.745445
  0
INSERT
  8
0
  2
*X0
 10
-46.044916
 20
-38.001264
 30
0.0
  0
LINE
  8
0
 10
302.793129
 20
-237.577796
 30
0.0
 11
302.793129
 21
-245.577796
 31
0.0
  0
LINE
  8
0
 10
302.793129
 20
-275.577796
 30
0.0
 11
302.793129
 21
-267.577796
 31
0.0
  0
LINE
  8
0
 10
304.293129
 20
-274.077796
 30
0.0
 11
304.293129
 21
-267.577796
 31
0.0
  0
LINE
  8
0
 10
261.293129
 20
-274.077796
 30
0.0
 11
262.793129
 21
-275.577796
 31
0.0
  0
LINE
  8
0
 10
262.793129
 20
-275.577796
 30
0.0
 11
302.793129
 21
-275.577796
 31
0.0
  0
LINE
  8
0
 10
304.293129
 20
-274.077796
 30
0.0
 11
302.793129
 21
-275.577796
 31
0.0
  0
LINE
  8
0
 10
286.293129
 20
-246.077009
 30
0.0
 11
286.293129
 21
-267.078582
 31
0.0
  0
LINE
  8
0
 10
293.793129
 20
-248.577796
 30
0.0
 11
293.793129
 21
-264.577796
 31
0.0
  0
LINE
  8
0
 10
316.293129
 20
-248.577796
 30
0.0
 11
316.293129
 21
-264.577796
 31
0.0
  0
ARC
  8
0
 10
296.793129
 20
-264.577796
 30
0.0
 40
3.0
 50
180.0
 51
270.0
  0
LINE
  8
0
 10
296.793129
 20
-267.577796
 30
0.0
 11
313.293129
 21
-267.577796
 31
0.0
  0
ARC
  8
0
 10
313.293129
 20
-264.577796
 30
0.0
 40
3.0
 50
270.0
 51
360.0
  0
LINE
  8
0
 10
296.793129
 20
-245.577796
 30
0.0
 11
313.293129
 21
-245.577796
 31
0.0
  0
ARC
  8
0
 10
296.793129
 20
-248.577796
 30
0.0
 40
3.0
 50
90.0
 51
180.0
  0
ARC
  8
0
 10
313.293129
 20
-248.577796
 30
0.0
 40
3.0
 50
0.0
 51
90.0
  0
LINE
  8
0
 10
304.293129
 20
-239.077796
 30
0.0
 11
302.793129
 21
-237.577796
 31
0.0
  0
LINE
  8
0
 10
261.293129
 20
-239.077796
 30
0.0
 11
262.793129
 21
-237.577796
 31
0.0
  0
LINE
  8
0
 10
262.793129
 20
-275.577796
 30
0.0
 11
261.293129
 21
-274.077796
 31
0.0
  0
LINE
  8
0
 10
286.293129
 20
-237.577796
 30
0.0
 11
288.665796
 21
-235.612823
 31
0.0
  0
LINE
  8
0
 10
300.793129
 20
-237.577796
 30
0.0
 11
299.165796
 21
-235.612823
 31
0.0
  0
ARC
  8
0
 10
294.306267
 20
-203.895293
 30
0.0
 40
5.0
 50
349.261103
 51
26.711455
  0
ARC
  8
0
 10
314.659778
 20
-205.607586
 30
0.0
 40
5.0
 50
135.0
 51
169.261103
  0
ARC
  8
0
 10
313.293129
 20
-180.161789
 30
0.0
 40
3.0
 50
0.0
 51
90.0
  0
ARC
  8
0
 10
296.793129
 20
-180.161789
 30
0.0
 40
3.0
 50
90.0
 51
180.0
  0
ARC
  8
0
 10
296.793129
 20
-196.161789
 30
0.0
 40
3.0
 50
180.0
 51
270.0
  0
ARC
  8
0
 10
313.293129
 20
-195.660527
 30
0.0
 40
3.0
 50
315.0
 51
0.0
  0
LINE
  8
0
 10
298.772675
 20
-201.647805
 30
0.0
 11
297.521716
 21
-199.161789
 31
0.0
  0
LINE
  8
0
 10
311.124244
 20
-202.072053
 30
0.0
 11
315.414449
 21
-197.781848
 31
0.0
  0
LINE
  8
0
 10
296.793129
 20
-199.161789
 30
0.0
 11
297.521716
 21
-199.161789
 31
0.0
  0
LINE
  8
0
 10
293.793129
 20
-196.161789
 30
0.0
 11
293.793129
 21
-180.161789
 31
0.0
  0
LINE
  8
0
 10
316.293129
 20
-195.660527
 30
0.0
 11
316.293129
 21
-180.161789
 31
0.0
  0
LINE
  8
0
 10
296.793129
 20
-177.161789
 30
0.0
 11
313.293129
 21
-177.161789
 31
0.0
  0
LINE
  8
0
 10
261.293129
 20
-274.077796
 30
0.0
 11
261.293129
 21
-239.077796
 31
0.0
  0
LINE
  8
0
 10
262.793129
 20
-237.577796
 30
0.0
 11
302.793129
 21
-237.577796
 31
0.0
  0
LINE
  8
0
 10
262.793129
 20
-275.577796
 30
0.0
 11
262.793129
 21
-237.577796
 31
0.0
  0
LINE
  8
0
 10
304.293129
 20
-245.577796
 30
0.0
 11
304.293129
 21
-239.077796
 31
0.0
  0
LINE
  8
0
  6
CENTER
 10
197.057184
 20
-165.884248
 30
0.0
 11
197.057184
 21
-117.469245
 31
0.0
  0
LINE
  8
0
 10
192.807184
 20
-135.583348
 30
0.0
 11
197.057184
 21
-133.129609
 31
0.0
  0
LINE
  8
0
 10
197.057184
 20
-135.583348
 30
0.0
 11
192.807184
 21
-135.583348
 31
0.0
  0
LINE
  8
0
 10
192.807184
 20
-163.583348
 30
0.0
 11
192.807184
 21
-135.583348
 31
0.0
  0
LINE
  8
0
 10
197.057184
 20
-131.583348
 30
0.0
 11
182.057184
 21
-131.583348
 31
0.0
  0
LINE
  8
0
 10
183.057184
 20
-124.583348
 30
0.0
 11
183.057184
 21
-120.583348
 31
0.0
  0
LINE
  8
0
 10
197.057184
 20
-124.583348
 30
0.0
 11
183.057184
 21
-124.583348
 31
0.0
  0
LINE
  8
0
 10
182.057184
 20
-163.583348
 30
0.0
 11
182.057184
 21
-131.583348
 31
0.0
  0
LINE
  8
0
 10
199.238214
 20
-124.920186
 30
0.0
 11
197.057184
 21
-124.650683
 31
0.0
  0
LINE
  8
0
 10
198.371703
 20
-136.21068
 30
0.0
 11
222.880706
 21
-125.767135
 31
0.0
  0
LINE
  8
0
 10
197.057184
 20
-137.586705
 30
0.0
 11
198.371703
 21
-136.21068
 31
0.0
  0
ARC
  8
0
 10
212.020263
 20
-136.083348
 30
0.0
 40
2.5
 50
270.0
 51
357.080486
  0
LINE
  8
0
 10
216.057184
 20
-162.083348
 30
0.0
 11
197.057184
 21
-162.083348
 31
0.0
  0
LINE
  8
0
 10
197.057184
 20
-122.083348
 30
0.0
 11
205.972588
 21
-122.083348
 31
0.0
  0
CIRCLE
  8
0
 10
197.057184
 20
-256.577796
 30
0.0
 40
19.0
  0
CIRCLE
  8
0
 10
197.057184
 20
-256.577796
 30
0.0
 40
14.0
  0
LINE
  8
0
 10
216.057184
 20
-162.083348
 30
0.0
 11
216.057184
 21
-135.184762
 31
0.0
  0
LINE
  8
0
 10
178.057184
 20
-162.083348
 30
0.0
 11
178.057184
 21
-138.583348
 31
0.0
  0
LINE
  8
0
 10
214.557184
 20
-163.583348
 30
0.0
 11
179.557184
 21
-163.583348
 31
0.0
  0
LINE
  8
0
 10
209.533441
 20
-120.583348
 30
0.0
 11
179.557184
 21
-120.583348
 31
0.0
  0
LINE
  8
0
 10
107.057184
 20
-128.083348
 30
0.0
 11
107.057184
 21
-111.583348
 31
0.0
  0
LINE
  8
0
 10
125.555923
 20
-108.583348
 30
0.0
 11
110.057184
 21
-108.583348
 31
0.0
  0
LINE
  8
0
 10
126.057184
 20
-131.083348
 30
0.0
 11
110.057184
 21
-131.083348
 31
0.0
  0
LINE
  8
0
 10
129.057184
 20
-128.083348
 30
0.0
 11
129.057184
 21
-127.354761
 31
0.0
  0
LINE
  8
0
 10
176.092211
 20
-125.71068
 30
0.0
 11
134.571313
 21
-115.129131
 31
0.0
  0
LINE
  8
0
 10
176.092211
 20
-136.21068
 30
0.0
 11
134.722357
 21
-125.657777
 31
0.0
  0
LINE
  8
0
 10
131.967448
 20
-113.752232
 30
0.0
 11
127.677243
 21
-109.462027
 31
0.0
  0
LINE
  8
0
 10
131.543201
 20
-126.103802
 30
0.0
 11
129.057184
 21
-127.354761
 31
0.0
  0
LINE
  8
0
 10
178.057184
 20
-124.083348
 30
0.0
 11
178.057184
 21
-122.083348
 31
0.0
  0
ARC
  8
0
 10
125.555923
 20
-111.583348
 30
0.0
 40
3.0
 50
45.0
 51
90.0
  0
ARC
  8
0
 10
126.057184
 20
-128.083348
 30
0.0
 40
3.0
 50
270.0
 51
0.0
  0
ARC
  8
0
 10
110.057184
 20
-128.083348
 30
0.0
 40
3.0
 50
180.0
 51
270.0
  0
ARC
  8
0
 10
110.057184
 20
-111.583348
 30
0.0
 40
3.0
 50
90.0
 51
180.0
  0
ARC
  8
0
 10
135.502982
 20
-110.216698
 30
0.0
 40
5.0
 50
225.0
 51
259.261103
  0
ARC
  8
0
 10
133.790689
 20
-130.57021
 30
0.0
 40
5.0
 50
79.261103
 51
116.711455
  0
LINE
  8
0
 10
178.057184
 20
-124.083348
 30
0.0
 11
176.092211
 21
-125.71068
 31
0.0
  0
LINE
  8
0
 10
178.057184
 20
-138.583348
 30
0.0
 11
176.092211
 21
-136.21068
 31
0.0
  0
CIRCLE
  8
0
 10
197.057184
 20
-256.577796
 30
0.0
 40
17.5
  0
LINE
  8
0
 10
216.057184
 20
-162.083348
 30
0.0
 11
214.557184
 21
-163.583348
 31
0.0
  0
LINE
  8
0
 10
179.557184
 20
-163.583348
 30
0.0
 11
178.057184
 21
-162.083348
 31
0.0
  0
LINE
  8
0
 10
179.557184
 20
-120.583348
 30
0.0
 11
178.057184
 21
-122.083348
 31
0.0
  0
ARC
  8
0
 10
228.557184
 20
-111.583348
 30
0.0
 40
3.0
 50
90.0
 51
184.158749
  0
ARC
  8
0
 10
228.557184
 20
-128.083348
 30
0.0
 40
3.0
 50
217.12645
 51
270.0
  0
ARC
  8
0
 10
244.557184
 20
-111.583348
 30
0.0
 40
3.0
 50
0.0
 51
90.0
  0
LINE
  8
0
 10
247.557184
 20
-128.083348
 30
0.0
 11
247.557184
 21
-111.583348
 31
0.0
  0
ARC
  8
0
 10
244.557184
 20
-128.083348
 30
0.0
 40
3.0
 50
270.0
 51
0.0
  0
LINE
  8
0
 10
228.557184
 20
-108.583348
 30
0.0
 11
244.557184
 21
-108.583348
 31
0.0
  0
LINE
  8
0
 10
228.557184
 20
-131.083348
 30
0.0
 11
244.557184
 21
-131.083348
 31
0.0
  0
LINE
  8
0
 10
197.057184
 20
-124.083348
 30
0.0
 11
201.224785
 21
-124.083348
 31
0.0
  0
LINE
  8
0
 10
198.371703
 20
-136.21068
 30
0.0
 11
214.517018
 21
-136.21068
 31
0.0
  0
LINE
  8
0
 10
197.057184
 20
-138.583348
 30
0.0
 11
212.020265
 21
-138.583348
 31
0.0
  0
LINE
  8
0
 10
124.381739
 20
-247.577796
 30
0.0
 11
182.748096
 21
-244.077796
 31
0.0
  0
LINE
  8
0
 10
124.381739
 20
-265.577796
 30
0.0
 11
182.748096
 21
-269.077796
 31
0.0
  0
LINE
  8
0
 10
241.189135
 20
-315.016577
 30
0.0
 11
215.037046
 21
-262.719829
 31
0.0
  0
LINE
  8
0
 10
225.600678
 20
-324.016577
 30
0.0
 11
193.386411
 21
-275.219829
 31
0.0
  0
LINE
  8
0
 10
225.600678
 20
-189.139014
 30
0.0
 11
193.386411
 21
-237.935762
 31
0.0
  0
LINE
  8
0
 10
241.189135
 20
-198.139014
 30
0.0
 11
215.037046
 21
-250.435762
 31
0.0
  0
LINE
  8
0
 10
288.237055
 20
-244.077796
 30
0.0
 11
298.793129
 21
-244.077796
 31
0.0
  0
LINE
  8
0
 10
288.237055
 20
-269.077796
 30
0.0
 11
298.793131
 21
-269.077796
 31
0.0
  0
LINE
  8
0
 10
296.793129
 20
-245.577796
 30
0.0
 11
288.64812
 21
-244.108766
 31
0.0
  0
ARC
  8
0
 10
288.293129
 20
-246.077009
 30
0.0
 40
2.0
 50
79.776078
 51
180.0
  0
ARC
  8
0
 10
298.793129
 20
-246.077796
 30
0.0
 40
2.0
 50
14.477512
 51
90.0
  0
LINE
  8
0
 10
288.237055
 20
-269.077796
 30
0.0
 11
298.793129
 21
-269.077796
 31
0.0
  0
LINE
  8
0
 10
296.793129
 20
-267.577796
 30
0.0
 11
288.64812
 21
-269.046825
 31
0.0
  0
ARC
  8
0
 10
288.293129
 20
-267.078582
 30
0.0
 40
2.0
 50
180.0
 51
280.223922
  0
ARC
  8
0
 10
298.793129
 20
-267.077796
 30
0.0
 40
2.0
 50
270.0
 51
345.522488
  0
LINE
  8
0
 10
288.665796
 20
-235.612823
 30
0.0
 11
299.2187
 21
-204.826962
 31
0.0
  0
LINE
  8
0
 10
299.165796
 20
-235.612823
 30
0.0
 11
309.747346
 21
-204.675918
 31
0.0
  0
LINE
  8
0
 10
299.165796
 20
-277.542769
 30
0.0
 11
309.747346
 21
-308.479673
 31
0.0
  0
LINE
  8
0
 10
288.665796
 20
-277.542769
 30
0.0
 11
299.2187
 21
-308.32863
 31
0.0
  0
LINE
  8
0
 10
296.793129
 20
-335.993803
 30
0.0
 11
313.293129
 21
-335.993803
 31
0.0
  0
LINE
  8
0
 10
316.293129
 20
-317.495064
 30
0.0
 11
316.293129
 21
-332.993803
 31
0.0
  0
LINE
  8
0
 10
293.793129
 20
-316.993803
 30
0.0
 11
293.793129
 21
-332.993803
 31
0.0
  0
LINE
  8
0
 10
296.793129
 20
-313.993803
 30
0.0
 11
297.521716
 21
-313.993803
 31
0.0
  0
LINE
  8
0
 10
311.124244
 20
-311.083539
 30
0.0
 11
315.414449
 21
-315.373744
 31
0.0
  0
LINE
  8
0
 10
298.772675
 20
-311.507786
 30
0.0
 11
297.521716
 21
-313.993803
 31
0.0
  0
ARC
  8
0
 10
313.293129
 20
-317.495064
 30
0.0
 40
3.0
 50
360.0
 51
45.0
  0
ARC
  8
0
 10
296.793129
 20
-316.993803
 30
0.0
 40
3.0
 50
90.0
 51
180.0
  0
ARC
  8
0
 10
296.793129
 20
-332.993803
 30
0.0
 40
3.0
 50
180.0
 51
270.0
  0
ARC
  8
0
 10
313.293129
 20
-332.993803
 30
0.0
 40
3.0
 50
270.0
 51
360.0
  0
ARC
  8
0
 10
314.659778
 20
-307.548005
 30
0.0
 40
5.0
 50
190.738897
 51
225.0
  0
ARC
  8
0
 10
294.306267
 20
-309.260298
 30
0.0
 40
5.0
 50
333.288545
 51
10.738897
  0
LINE
  8
0
 10
300.793129
 20
-275.577796
 30
0.0
 11
299.165796
 21
-277.542769
 31
0.0
  0
LINE
  8
0
 10
286.293129
 20
-275.577796
 30
0.0
 11
288.665796
 21
-277.542769
 31
0.0
  0
CIRCLE
  8
0
 10
226.557184
 20
57.353826
 30
0.0
 40
11.0
  0
CIRCLE
  8
0
 10
138.057184
 20
6.258327
 30
0.0
 40
11.0
  0
CIRCLE
  8
0
 10
226.557184
 20
-44.837172
 30
0.0
 40
11.0
  0
CIRCLE
  8
0
 10
118.057184
 20
-256.577796
 30
0.0
 40
11.0
  0
CIRCLE
  8
0
 10
236.557184
 20
-324.993803
 30
0.0
 40
11.0
  0
CIRCLE
  8
0
 10
236.557184
 20
-188.161789
 30
0.0
 40
11.0
  0
LINE
  8
0
 10
199.238214
 20
-124.920186
 30
0.0
 11
222.704498
 21
-115.035074
 31
0.0
  0
LINE
  8
0
 10
222.704498
 20
-115.035074
 30
0.0
 11
225.565083
 21
-111.800908
 31
0.0
  0
LINE
  8
0
 10
214.517018
 20
-136.21068
 30
0.0
 11
225.415022
 21
-128.951417
 31
0.0
  0
LINE
  8
0
 10
226.165268
 20
-129.894076
 30
0.0
 11
222.880706
 21
-125.767135
 31
0.0
  0
INSERT
  8
0
  2
*X1
 10
0.0
 20
33.819478
 30
0.0
  0
CIRCLE
  8
0
 10
515.749712
 20
-162.31167
 30
0.0
 40
21.0
  0
LINE
  8
0
 10
197.057184
 20
124.002977
 30
0.0
 11
183.057184
 21
124.002977
 31
0.0
  0
LINE
  8
0
 10
197.057184
 20
122.502977
 30
0.0
 11
185.057184
 21
122.502977
 31
0.0
  0
LINE
  8
0
 10
185.057184
 20
121.002977
 30
0.0
 11
185.057184
 21
122.502977
 31
0.0
  0
LINE
  8
0
 10
197.057184
 20
-123.083348
 30
0.0
 11
185.057184
 21
-123.083348
 31
0.0
  0
LINE
  8
0
 10
185.057184
 20
-124.583348
 30
0.0
 11
185.057184
 21
-123.083348
 31
0.0
  0
LINE
  8
0
 10
197.057184
 20
-121.583348
 30
0.0
 11
183.057184
 21
-121.583348
 31
0.0
  0
INSERT
  8
0
  2
*X2
 10
1.528108
 20
53.819736
 30
0.0
  0
LINE
  8
0
 10
426.062847
 20
-152.252792
 30
0.0
 11
500.559254
 21
-147.81167
 31
0.0
  0
LINE
  8
0
 10
426.062847
 20
-172.370549
 30
0.0
 11
500.559254
 21
-176.81167
 31
0.0
  0
ARC
  8
0
 10
425.884318
 20
-149.258108
 30
0.0
 40
3.0
 50
238.867205
 51
273.411664
  0
ARC
  8
0
 10
425.884318
 20
-175.365233
 30
0.0
 40
3.0
 50
86.588336
 51
121.132795
  0
CIRCLE
  8
0
 10
417.999712
 20
-162.31167
 30
0.0
 40
12.25
  0
CIRCLE
  8
0
 10
564.624712
 20
-246.965654
 30
0.0
 40
12.25
  0
ARC
  8
0
 10
571.987125
 20
-233.610603
 30
0.0
 40
3.0
 50
206.588336
 51
241.132795
  0
ARC
  8
0
 10
549.377692
 20
-246.664165
 30
0.0
 40
3.0
 50
358.867205
 51
33.411664
  0
LINE
  8
0
 10
569.304389
 20
-234.953334
 30
0.0
 11
535.902309
 21
-168.216993
 31
0.0
  0
LINE
  8
0
 10
551.881899
 20
-245.012213
 30
0.0
 11
510.787572
 21
-182.716993
 31
0.0
  0
CIRCLE
  8
0
 10
564.624712
 20
-77.657687
 30
0.0
 40
12.25
  0
ARC
  8
0
 10
549.377692
 20
-77.959175
 30
0.0
 40
3.0
 50
326.588336
 51
1.132795
  0
ARC
  8
0
 10
571.987125
 20
-91.012738
 30
0.0
 40
3.0
 50
118.867205
 51
153.411664
  0
LINE
  8
0
 10
551.881899
 20
-79.611127
 30
0.0
 11
510.787572
 21
-141.906348
 31
0.0
  0
LINE
  8
0
 10
569.304389
 20
-89.670006
 30
0.0
 11
535.902309
 21
-156.406348
 31
0.0
  0
CIRCLE
  8
0
 10
515.749712
 20
-162.31167
 30
0.0
 40
19.0
  0
CIRCLE
  8
0
 10
515.749712
 20
-162.31167
 30
0.0
 40
14.0
  0
LINE
  8
0
 10
515.749712
 20
2.940273
 30
0.0
 11
501.749712
 21
2.940273
 31
0.0
  0
LINE
  8
0
 10
503.749712
 20
-0.059727
 30
0.0
 11
503.749712
 21
1.440273
 31
0.0
  0
LINE
  8
0
 10
515.749712
 20
1.440273
 30
0.0
 11
503.749712
 21
1.440273
 31
0.0
  0
LINE
  8
0
 10
498.249712
 20
-42.059727
 30
0.0
 11
496.749712
 21
-40.559727
 31
0.0
  0
LINE
  8
0
 10
534.749712
 20
-40.559727
 30
0.0
 11
533.249712
 21
-42.059727
 31
0.0
  0
LINE
  8
0
 10
533.249712
 20
-42.059727
 30
0.0
 11
498.249712
 21
-42.059727
 31
0.0
  0
LINE
  8
0
 10
496.749712
 20
-40.559727
 30
0.0
 11
496.749712
 21
-18.059727
 31
0.0
  0
LINE
  8
0
 10
534.749712
 20
-40.559727
 30
0.0
 11
534.749712
 21
-18.059727
 31
0.0
  0
LINE
  8
0
 10
534.749712
 20
-40.559727
 30
0.0
 11
515.749712
 21
-40.559727
 31
0.0
  0
LINE
  8
0
 10
500.749712
 20
-42.059727
 30
0.0
 11
500.749712
 21
-9.059727
 31
0.0
  0
LINE
  8
0
 10
515.749712
 20
-0.059727
 30
0.0
 11
501.749712
 21
-0.059727
 31
0.0
  0
LINE
  8
0
 10
501.749712
 20
-0.059727
 30
0.0
 11
501.749712
 21
3.940273
 31
0.0
  0
LINE
  8
0
 10
515.749712
 20
-9.059727
 30
0.0
 11
500.749712
 21
-9.059727
 31
0.0
  0
LINE
  8
0
 10
511.499712
 20
-42.059727
 30
0.0
 11
511.499712
 21
-13.059727
 31
0.0
  0
LINE
  8
0
 10
515.749712
 20
-13.059727
 30
0.0
 11
511.499712
 21
-13.059727
 31
0.0
  0
LINE
  8
0
 10
511.499712
 20
-13.059727
 30
0.0
 11
515.749712
 21
-10.605988
 31
0.0
  0
LINE
  8
0
  6
CENTER
 10
515.749712
 20
-45.312627
 30
0.0
 11
515.749712
 21
8.270376
 31
0.0
  0
LINE
  8
0
 10
494.749712
 20
1.440273
 30
0.0
 11
494.749712
 21
1.940273
 31
0.0
  0
LINE
  8
0
 10
526.834397
 20
3.940273
 30
0.0
 11
496.749712
 21
3.940273
 31
0.0
  0
LINE
  8
0
 10
494.749712
 20
1.940273
 30
0.0
 11
496.749712
 21
3.940273
 31
0.0
  0
LINE
  8
0
 10
496.749712
 20
-18.059727
 30
0.0
 11
494.749712
 21
-14.059727
 31
0.0
  0
LINE
  8
0
 10
428.844114
 20
17.940273
 30
0.0
 11
410.749712
 21
17.940273
 31
0.0
  0
LINE
  8
0
 10
405.749712
 20
-5.059727
 30
0.0
 11
405.749712
 21
12.940273
 31
0.0
  0
LINE
  8
0
 10
429.450256
 20
-10.059727
 30
0.0
 11
410.749712
 21
-10.059727
 31
0.0
  0
LINE
  8
0
 10
491.749712
 20
0.461436
 30
0.0
 11
447.682146
 21
8.116903
 31
0.0
  0
LINE
  8
0
 10
494.749712
 20
-14.059727
 30
0.0
 11
448.323098
 21
-5.422218
 31
0.0
  0
LINE
  8
0
 10
496.749712
 20
-18.059727
 30
0.0
 11
478.749712
 21
-11.082983
 31
0.0
  0
LINE
  8
0
 10
431.449417
 20
17.207871
 30
0.0
 11
444.183116
 21
9.434143
 31
0.0
  0
ARC
  8
0
 10
410.749712
 20
12.940273
 30
0.0
 40
5.0
 50
90.0
 51
180.0
  0
ARC
  8
0
 10
410.749712
 20
-5.059727
 30
0.0
 40
5.0
 50
180.0
 51
270.0
  0
ARC
  8
0
 10
428.844114
 20
12.940273
 30
0.0
 40
5.0
 50
58.596573
 51
90.0
  0
LINE
  8
0
 10
431.00931
 20
-9.810448
 30
0.0
 11
443.375912
 21
-5.752076
 31
0.0
  0
ARC
  8
0
 10
429.450256
 20
-5.059727
 30
0.0
 40
5.0
 50
270.0
 51
288.168387
  0
ARC
  8
0
 10
446.494019
 20
-15.253518
 30
0.0
 40
10.0
 50
79.460816
 51
108.168387
  0
ARC
  8
0
 10
449.393723
 20
17.969339
 30
0.0
 40
10.0
 50
238.596573
 51
260.144867
  0
LINE
  8
0
 10
494.749712
 20
1.440273
 30
0.0
 11
491.749712
 21
0.461436
 31
0.0
  0
LINE
  8
0
 10
571.874716
 20
17.940273
 30
0.0
 11
557.374712
 21
17.940273
 31
0.0
  0
ARC
  8
0
 10
557.374712
 20
12.940273
 30
0.0
 40
5.0
 50
90.0
 51
135.76066
  0
ARC
  8
0
 10
557.374712
 20
-5.059727
 30
0.0
 40
5.0
 50
240.630493
 51
270.0
  0
LINE
  8
0
 10
571.874712
 20
-10.059727
 30
0.0
 11
557.374712
 21
-10.059727
 31
0.0
  0
ARC
  8
0
 10
571.874712
 20
12.940273
 30
0.0
 40
5.0
 50
360.0
 51
90.0
  0
LINE
  8
0
 10
576.874712
 20
-5.059727
 30
0.0
 11
576.874712
 21
12.940273
 31
0.0
  0
ARC
  8
0
 10
571.874712
 20
-5.059727
 30
0.0
 40
5.0
 50
270.0
 51
360.0
  0
LINE
  8
0
 10
515.749712
 20
-14.059727
 30
0.0
 11
524.469933
 21
-14.059727
 31
0.0
  0
LINE
  8
0
 10
515.749712
 20
-12.741626
 30
0.0
 11
544.017337
 21
-5.232849
 31
0.0
  0
LINE
  8
0
 10
515.749712
 20
1.177188
 30
0.0
 11
544.718303
 21
8.398203
 31
0.0
  0
LINE
  8
0
 10
547.565678
 20
10.034113
 30
0.0
 11
553.792553
 21
16.428559
 31
0.0
  0
LINE
  8
0
 10
548.500349
 20
-5.802901
 30
0.0
 11
554.922511
 21
-9.417102
 31
0.0
  0
LINE
  8
0
 10
515.749712
 20
-18.059727
 30
0.0
 11
534.749712
 21
-18.059727
 31
0.0
  0
LINE
  8
0
 10
534.749712
 20
-18.059727
 30
0.0
 11
536.749712
 21
-14.059727
 31
0.0
  0
LINE
  8
0
 10
536.749712
 20
-14.059727
 30
0.0
 11
536.749712
 21
-13.747063
 31
0.0
  0
LINE
  8
0
 10
535.91109
 20
-14.059727
 30
0.0
 11
552.308761
 21
-7.946161
 31
0.0
  0
ARC
  8
0
 10
543.267087
 20
14.220056
 30
0.0
 40
6.0
 50
283.996898
 51
315.76066
  0
ARC
  8
0
 10
545.557708
 20
-11.03175
 30
0.0
 40
6.0
 50
60.630493
 51
104.876039
  0
LINE
  8
0
 10
524.469933
 20
-14.059727
 30
0.0
 11
523.464883
 21
-18.059727
 31
0.0
  0
LINE
  8
0
 10
532.103737
 20
-14.059727
 30
0.0
 11
536.749712
 21
-14.059727
 31
0.0
  0
LINE
  8
0
 10
532.490614
 20
-11.082983
 30
0.0
 11
535.954716
 21
-11.082983
 31
0.0
  0
LINE
  8
0
 10
524.469933
 20
-14.059727
 30
0.0
 11
532.490614
 21
-11.082983
 31
0.0
  0
LINE
  8
0
 10
532.490614
 20
-11.082983
 30
0.0
 11
523.464883
 21
-18.059727
 31
0.0
  0
LINE
  8
0
 10
526.928984
 20
-18.059727
 30
0.0
 11
535.954716
 21
-11.082983
 31
0.0
  0
LINE
  8
0
 10
620.478484
 20
-143.31167
 30
0.0
 11
620.478484
 21
-181.31167
 31
0.0
  0
LINE
  8
0
 10
624.478484
 20
-141.31167
 30
0.0
 11
624.478484
 21
-160.31167
 31
0.0
  0
LINE
  8
0
 10
639.978484
 20
-141.31167
 30
0.0
 11
638.999647
 21
-138.31167
 31
0.0
  0
ARC
  8
0
 10
657.178775
 20
-105.426979
 30
0.0
 40
10.0
 50
148.596573
 51
170.144867
  0
ARC
  8
0
 10
623.955917
 20
-102.527276
 30
0.0
 40
10.0
 50
349.460816
 51
18.168387
  0
ARC
  8
0
 10
633.478484
 20
-89.108232
 30
0.0
 40
5.0
 50
180.0
 51
198.168387
  0
LINE
  8
0
 10
628.727763
 20
-90.667285
 30
0.0
 11
633.45736
 21
-99.409169
 31
0.0
  0
ARC
  8
0
 10
651.478484
 20
-88.502089
 30
0.0
 40
5.0
 50
328.596573
 51
360.0
  0
ARC
  8
0
 10
633.478484
 20
-70.407687
 30
0.0
 40
5.0
 50
90.0
 51
180.0
  0
ARC
  8
0
 10
651.478484
 20
-70.407687
 30
0.0
 40
5.0
 50
0.0
 51
90.0
  0
LINE
  8
0
 10
655.746082
 20
-91.107393
 30
0.0
 11
648.643578
 21
-100.216372
 31
0.0
  0
LINE
  8
0
 10
624.478484
 20
-141.31167
 30
0.0
 11
633.787218
 21
-104.356355
 31
0.0
  0
LINE
  8
0
 10
638.999647
 20
-138.31167
 30
0.0
 11
647.326338
 21
-103.715403
 31
0.0
  0
LINE
  8
0
 10
628.478484
 20
-89.108232
 30
0.0
 11
628.478484
 21
-70.407687
 31
0.0
  0
LINE
  8
0
 10
633.478484
 20
-65.407687
 30
0.0
 11
651.478484
 21
-65.407687
 31
0.0
  0
LINE
  8
0
 10
656.478484
 20
-88.502089
 30
0.0
 11
656.478484
 21
-70.407687
 31
0.0
  0
LINE
  8
0
 10
620.478484
 20
-143.31167
 30
0.0
 11
624.478484
 21
-141.31167
 31
0.0
  0
LINE
  8
0
 10
640.478484
 20
-141.31167
 30
0.0
 11
642.478484
 21
-143.31167
 31
0.0
  0
LINE
  8
0
 10
642.478484
 20
-181.31167
 30
0.0
 11
642.478484
 21
-174.56167
 31
0.0
  0
LINE
  8
0
 10
624.478484
 20
-141.31167
 30
0.0
 11
640.478484
 21
-141.31167
 31
0.0
  0
LINE
  8
0
 10
597.978484
 20
-181.31167
 30
0.0
 11
597.978484
 21
-143.31167
 31
0.0
  0
LINE
  8
0
 10
597.978484
 20
-181.31167
 30
0.0
 11
620.478484
 21
-181.31167
 31
0.0
  0
LINE
  8
0
 10
597.978484
 20
-143.31167
 30
0.0
 11
620.478484
 21
-143.31167
 31
0.0
  0
LINE
  8
0
 10
596.478484
 20
-179.81167
 30
0.0
 11
596.478484
 21
-144.81167
 31
0.0
  0
LINE
  8
0
 10
597.978484
 20
-181.31167
 30
0.0
 11
596.478484
 21
-179.81167
 31
0.0
  0
LINE
  8
0
 10
596.478484
 20
-144.81167
 30
0.0
 11
597.978484
 21
-143.31167
 31
0.0
  0
ARC
  8
0
 10
515.749712
 20
-162.31167
 30
0.0
 40
24.0
 50
143.563025
 51
216.436975
  0
ARC
  8
0
 10
515.749712
 20
-162.31167
 30
0.0
 40
24.0
 50
23.563025
 51
96.436975
  0
ARC
  8
0
 10
515.749712
 20
-162.31167
 30
0.0
 40
24.0
 50
263.563025
 51
336.436975
  0
LINE
  8
0
 10
621.896032
 20
-142.602897
 30
0.0
 11
627.248308
 21
-130.315577
 31
0.0
  0
LINE
  8
0
 10
621.896032
 20
-182.020444
 30
0.0
 11
627.248308
 21
-194.307764
 31
0.0
  0
LINE
  8
0
 10
624.478484
 20
-183.31167
 30
0.0
 11
640.478484
 21
-183.31167
 31
0.0
  0
LINE
  8
0
 10
640.478484
 20
-183.31167
 30
0.0
 11
642.478484
 21
-181.31167
 31
0.0
  0
LINE
  8
0
 10
620.478484
 20
-181.31167
 30
0.0
 11
624.478484
 21
-183.31167
 31
0.0
  0
LINE
  8
0
 10
656.478484
 20
-236.121252
 30
0.0
 11
656.478484
 21
-254.215654
 31
0.0
  0
LINE
  8
0
 10
633.478484
 20
-259.215654
 30
0.0
 11
651.478484
 21
-259.215654
 31
0.0
  0
LINE
  8
0
 10
628.478484
 20
-235.515109
 30
0.0
 11
628.478484
 21
-254.215654
 31
0.0
  0
LINE
  8
0
 10
638.999647
 20
-186.31167
 30
0.0
 11
647.326338
 21
-220.907938
 31
0.0
  0
LINE
  8
0
 10
624.478484
 20
-183.31167
 30
0.0
 11
633.787218
 21
-220.266986
 31
0.0
  0
LINE
  8
0
 10
655.746082
 20
-233.515948
 30
0.0
 11
648.643578
 21
-224.406969
 31
0.0
  0
ARC
  8
0
 10
651.478484
 20
-254.215654
 30
0.0
 40
5.0
 50
270.0
 51
0.0
  0
ARC
  8
0
 10
633.478484
 20
-254.215654
 30
0.0
 40
5.0
 50
180.0
 51
270.0
  0
ARC
  8
0
 10
651.478484
 20
-236.121252
 30
0.0
 40
5.0
 50
0.0
 51
31.403427
  0
LINE
  8
0
 10
628.727763
 20
-233.956056
 30
0.0
 11
633.45736
 21
-225.214172
 31
0.0
  0
ARC
  8
0
 10
633.478484
 20
-235.515109
 30
0.0
 40
5.0
 50
161.831613
 51
180.0
  0
ARC
  8
0
 10
623.955917
 20
-222.096065
 30
0.0
 40
10.0
 50
341.831613
 51
10.539184
  0
ARC
  8
0
 10
657.178775
 20
-219.196362
 30
0.0
 40
10.0
 50
189.855133
 51
211.403427
  0
LINE
  8
0
 10
639.978484
 20
-183.31167
 30
0.0
 11
638.999647
 21
-186.31167
 31
0.0
  0
LINE
  8
0
 10
628.478484
 20
-169.56167
 30
0.0
 11
628.478484
 21
-155.06167
 31
0.0
  0
LINE
  8
0
 10
633.478484
 20
-150.06167
 30
0.0
 11
651.478484
 21
-150.06167
 31
0.0
  0
ARC
  8
0
 10
651.478484
 20
-155.06167
 30
0.0
 40
5.0
 50
0.0
 51
90.0
  0
ARC
  8
0
 10
633.478484
 20
-155.06167
 30
0.0
 40
5.0
 50
90.0
 51
180.0
  0
LINE
  8
0
 10
656.478484
 20
-169.561672
 30
0.0
 11
656.478484
 21
-155.06167
 31
0.0
  0
LINE
  8
0
 10
633.478484
 20
-174.56167
 30
0.0
 11
651.478484
 21
-174.56167
 31
0.0
  0
ARC
  8
0
 10
651.478484
 20
-169.56167
 30
0.0
 40
5.0
 50
270.0
 51
0.0
  0
ARC
  8
0
 10
633.478484
 20
-169.56167
 30
0.0
 40
5.0
 50
180.0
 51
270.0
  0
LINE
  8
0
 10
625.545493
 20
-176.105913
 30
0.0
 11
630.003803
 21
-173.157028
 31
0.0
  0
LINE
  8
0
 10
625.545493
 20
-148.517428
 30
0.0
 11
630.003803
 21
-151.466313
 31
0.0
  0
LINE
  8
0
 10
627.478484
 20
-176.81167
 30
0.0
 11
636.978484
 21
-176.81167
 31
0.0
  0
LINE
  8
0
 10
627.478484
 20
-147.81167
 30
0.0
 11
636.978484
 21
-147.81167
 31
0.0
  0
ARC
  8
0
 10
627.478484
 20
-150.81167
 30
0.0
 40
3.0
 50
90.0
 51
180.0
  0
ARC
  8
0
 10
636.978484
 20
-150.81167
 30
0.0
 40
3.0
 50
14.477512
 51
90.0
  0
ARC
  8
0
 10
636.978484
 20
-173.81167
 30
0.0
 40
3.0
 50
270.0
 51
345.522488
  0
ARC
  8
0
 10
627.478484
 20
-173.81167
 30
0.0
 40
3.0
 50
180.0
 51
270.0
  0
LINE
  8
0
 10
627.248308
 20
-160.31167
 30
0.0
 11
620.478484
 21
-160.31167
 31
0.0
  0
LINE
  8
0
 10
627.248308
 20
-164.31167
 30
0.0
 11
620.478484
 21
-164.31167
 31
0.0
  0
LINE
  8
0
 10
627.248308
 20
-160.31167
 30
0.0
 11
627.248308
 21
-164.31167
 31
0.0
  0
LINE
  8
0
 10
624.478484
 20
-164.31167
 30
0.0
 11
624.478484
 21
-183.31167
 31
0.0
  0
LINE
  8
0
 10
642.478484
 20
-150.06167
 30
0.0
 11
642.478484
 21
-143.31167
 31
0.0
  0
LINE
  8
0
 10
640.478484
 20
-183.31167
 30
0.0
 11
640.478484
 21
-174.56167
 31
0.0
  0
LINE
  8
0
 10
640.478484
 20
-150.06167
 30
0.0
 11
640.478484
 21
-141.31167
 31
0.0
  0
INSERT
  8
0
  2
*X3
 10
-31.459121
 20
-20.077175
 30
0.0
  0
INSERT
  8
0
  2
*X4
 10
0.819499
 20
-70.503708
 30
0.0
  0
ARC
  8
0
 10
197.057184
 20
6.258327
 30
0.0
 40
20.964973
 50
151.85653
 51
208.14347
  0
ARC
  8
0
 10
197.057184
 20
6.258327
 30
0.0
 40
20.964973
 50
31.85653
 51
88.14347
  0
ARC
  8
0
 10
197.057184
 20
6.258327
 30
0.0
 40
20.964973
 50
271.85653
 51
328.14347
  0
ARC
  8
0
 10
197.057184
 20
-256.577796
 30
0.0
 40
20.964973
 50
143.93614
 51
216.06386
  0
ARC
  8
0
 10
197.057184
 20
-256.577796
 30
0.0
 40
20.964973
 50
263.93614
 51
336.06386
  0
LINE
  8
0
 10
150.402624
 20
111.584168
 30
0.0
 11
148.381931
 21
109.106784
 31
0.0
  0
ARC
  8
0
 10
154.277203
 20
108.423845
 30
0.0
 40
5.0
 50
79.261103
 51
140.797394
  0
LINE
  8
0
 10
284.627383
 20
45.062666
 30
0.0
 11
282.216547
 21
47.029078
 31
0.0
  0
ARC
  8
0
 10
281.467061
 20
41.188087
 30
0.0
 40
5.0
 50
343.24886
 51
50.797394
  0
LINE
  8
0
 10
281.112741
 20
-36.837172
 30
0.0
 11
281.112741
 21
-52.837172
 31
0.0
  0
ARC
  8
0
 10
281.467061
 20
-28.671433
 30
0.0
 40
5.0
 50
309.202606
 51
16.75114
  0
LINE
  8
0
 10
284.627383
 20
-32.546012
 30
0.0
 11
282.216547
 21
-34.512425
 31
0.0
  0
ARC
  8
0
 10
284.112741
 20
-36.837172
 30
0.0
 40
3.0
 50
129.202562
 51
180.0
  0
LINE
  8
0
 10
282.485408
 20
-14.706646
 30
0.0
 11
286.254889
 21
-27.230357
 31
0.0
  0
INSERT
  8
0
  2
*X5
 10
0.0
 20
-46.125936
 30
0.0
  0
LINE
  8
0
 10
211.499845
 20
124.173513
 30
0.0
 11
216.332434
 21
129.515559
 31
0.0
  0
LINE
  8
0
 10
210.732613
 20
112.403865
 30
0.0
 11
216.95308
 21
108.467854
 31
0.0
  0
ENDSEC
  0
EOF
