  0
SECTION
  2
HEADER
  9
$ACADVER
  1
AC1009
  9
$INSBASE
 10
0.0
 20
0.0
 30
0.0
  9
$EXTMIN
 10
-50.0
 20
-1000.0
 30
0.0
  9
$EXTMAX
 10
1029.0
 20
1050.0
 30
0.0
  9
$LIMMIN
 10
0.0
 20
0.0
  9
$LIMMAX
 10
420.0
 20
297.0
  9
$ORTHOMODE
 70
     1
  9
$REGENMODE
 70
     1
  9
$FILLMODE
 70
     1
  9
$QTEXTMODE
 70
     0
  9
$MIRRTEXT
 70
     1
  9
$DRAGMODE
 70
     2
  9
$LTSCALE
 40
1.0
  9
$OSMODE
 70
     0
  9
$ATTMODE
 70
     1
  9
$TEXTSIZE
 40
3.5
  9
$TRACEWID
 40
1.0
  9
$TEXTSTYLE
  7
STANDARD
  9
$CLAYER
  8
0
  9
$CELTYPE
  6
CONTINUOUS
  9
$CECOLOR
 62
   256
  9
$DIMSCALE
 40
1.0
  9
$DIMASZ
 40
2.5
  9
$DIMEXO
 40
0.625
  9
$DIMDLI
 40
3.75
  9
$DIMRND
 40
0.0
  9
$DIMDLE
 40
0.0
  9
$DIMEXE
 40
1.25
  9
$DIMTP
 40
0.0
  9
$DIMTM
 40
0.0
  9
$DIMTXT
 40
2.5
  9
$DIMCEN
 40
2.5
  9
$DIMTSZ
 40
0.0
  9
$DIMTOL
 70
     0
  9
$DIMLIM
 70
     0
  9
$DIMTIH
 70
     1
  9
$DIMTOH
 70
     0
  9
$DIMSE1
 70
     0
  9
$DIMSE2
 70
     0
  9
$DIMTAD
 70
     1
  9
$DIMZIN
 70
     8
  9
$DIMBLK
  1

  9
$DIMASO
 70
     1
  9
$DIMSHO
 70
     1
  9
$DIMPOST
  1

  9
$DIMAPOST
  1

  9
$DIMALT
 70
     0
  9
$DIMALTD
 70
     2
  9
$DIMALTF
 40
0.0394
  9
$DIMLFAC
 40
1.0
  9
$DIMTOFL
 70
     1
  9
$DIMTVP
 40
1.0
  9
$DIMTIX
 70
     0
  9
$DIMSOXD
 70
     0
  9
$DIMSAH
 70
     0
  9
$DIMBLK1
  1

  9
$DIMBLK2
  1

  9
$DIMSTYLE
  2
*UNNAMED
  9
$DIMCLRD
 70
     0
  9
$DIMCLRE
 70
     0
  9
$DIMCLRT
 70
     0
  9
$DIMTFAC
 40
1.0
  9
$DIMGAP
 40
0.625
  9
$LUNITS
 70
     2
  9
$LUPREC
 70
     4
  9
$SKETCHINC
 40
1.0
  9
$FILLETRAD
 40
1.0
  9
$AUNITS
 70
     0
  9
$AUPREC
 70
     0
  9
$MENU
  1
acad
  9
$ELEVATION
 40
0.0
  9
$PELEVATION
 40
0.0
  9
$THICKNESS
 40
0.0
  9
$LIMCHECK
 70
     0
  9
$BLIPMODE
 70
     1
  9
$CHAMFERA
 40
1.0
  9
$CHAMFERB
 40
1.0
  9
$SKPOLY
 70
     0
  9
$TDCREATE
 40
2450744.376078703
  9
$TDUPDATE
 40
2450749.678305671
  9
$TDINDWG
 40
1.3102699074
  9
$TDUSRTIMER
 40
1.3102699074
  9
$USRTIMER
 70
     1
  9
$ANGBASE
 50
0.0
  9
$ANGDIR
 70
     0
  9
$PDMODE
 70
     0
  9
$PDSIZE
 40
0.0
  9
$PLINEWID
 40
0.0
  9
$COORDS
 70
     1
  9
$SPLFRAME
 70
     0
  9
$SPLINETYPE
 70
     6
  9
$SPLINESEGS
 70
     8
  9
$ATTDIA
 70
     0
  9
$ATTREQ
 70
     1
  9
$HANDLING
 70
     0
  9
$HANDSEED
  5
0
  9
$SURFTAB1
 70
     6
  9
$SURFTAB2
 70
     6
  9
$SURFTYPE
 70
     6
  9
$SURFU
 70
     6
  9
$SURFV
 70
     6
  9
$UCSNAME
  2

  9
$UCSORG
 10
0.0
 20
0.0
 30
0.0
  9
$UCSXDIR
 10
1.0
 20
0.0
 30
0.0
  9
$UCSYDIR
 10
0.0
 20
1.0
 30
0.0
  9
$PUCSNAME
  2

  9
$PUCSORG
 10
0.0
 20
0.0
 30
0.0
  9
$PUCSXDIR
 10
1.0
 20
0.0
 30
0.0
  9
$PUCSYDIR
 10
0.0
 20
1.0
 30
0.0
  9
$USERI1
 70
     0
  9
$USERI2
 70
     0
  9
$USERI3
 70
     0
  9
$USERI4
 70
     0
  9
$USERI5
 70
     0
  9
$USERR1
 40
0.0
  9
$USERR2
 40
0.0
  9
$USERR3
 40
0.0
  9
$USERR4
 40
0.0
  9
$USERR5
 40
0.0
  9
$WORLDVIEW
 70
     1
  9
$SHADEDGE
 70
     3
  9
$SHADEDIF
 70
    70
  9
$TILEMODE
 70
     1
  9
$MAXACTVP
 70
    16
  9
$PINSBASE
 10
0.0
 20
0.0
 30
0.0
  9
$PLIMCHECK
 70
     0
  9
$PEXTMIN
 10
1.000000E+20
 20
1.000000E+20
 30
1.000000E+20
  9
$PEXTMAX
 10
-1.000000E+20
 20
-1.000000E+20
 30
-1.000000E+20
  9
$PLIMMIN
 10
0.0
 20
0.0
  9
$PLIMMAX
 10
420.0
 20
297.0
  9
$UNITMODE
 70
     0
  9
$VISRETAIN
 70
     0
  9
$PLINEGEN
 70
     0
  9
$PSLTSCALE
 70
     1
  9
$TREEDEPTH
 70
  3020
  9
$DWGCODEPAGE
  3
iso8859-1
  0
ENDSEC
  0
SECTION
  2
TABLES
  0
TABLE
  2
VPORT
 70
     2
  0
VPORT
  2
*ACTIVE
 70
     0
 10
0.0
 20
0.0
 11
1.0
 21
1.0
 12
1402.380952
 22
-150.0
 13
0.0
 23
0.0
 14
0.5
 24
0.5
 15
10.0
 25
10.0
 16
0.0
 26
0.0
 36
1.0
 17
0.0
 27
0.0
 37
0.0
 40
1700.0
 41
1.767507
 42
50.0
 43
0.0
 44
0.0
 50
0.0
 51
0.0
 71
     0
 72
   100
 73
     1
 74
     0
 75
     0
 76
     0
 77
     0
 78
     0
  0
ENDTAB
  0
TABLE
  2
LTYPE
 70
    25
  0
LTYPE
  2
CONTINUOUS
 70
    64
  3
Solid line
 72
    65
 73
     0
 40
0.0
  0
LTYPE
  2
BORDER
 70
     0
  3
__ __ . __ __ . __ __ . __ __ . __ __ . __ __ .
 72
    65
 73
     6
 40
1.75
 49
0.5
 49
-0.25
 49
0.5
 49
-0.25
 49
0.0
 49
-0.25
  0
LTYPE
  2
BORDER2
 70
     0
  3
__.__.__.__.__.__.__.__.__.__.__.__.__.__.__.__
 72
    65
 73
     6
 40
0.875
 49
0.25
 49
-0.125
 49
0.25
 49
-0.125
 49
0.0
 49
-0.125
  0
LTYPE
  2
BORDERX2
 70
     0
  3
____  ____  .  ____  ____  .  ____  ____  .  __
 72
    65
 73
     6
 40
3.5
 49
1.0
 49
-0.5
 49
1.0
 49
-0.5
 49
0.0
 49
-0.5
  0
LTYPE
  2
CENTER
 70
     0
  3
____ _ ____ _ ____ _ ____ _ ____ _ ____ _ ____ 
 72
    65
 73
     4
 40
2.0
 49
1.25
 49
-0.25
 49
0.25
 49
-0.25
  0
LTYPE
  2
CENTER2
 70
     0
  3
___ _ ___ _ ___ _ ___ _ ___ _ ___ _ ___ _ ___ _
 72
    65
 73
     4
 40
1.125
 49
0.75
 49
-0.125
 49
0.125
 49
-0.125
  0
LTYPE
  2
CENTERX2
 70
     0
  3
________  __  ________  __  ________  __  _____
 72
    65
 73
     4
 40
4.0
 49
2.5
 49
-0.5
 49
0.5
 49
-0.5
  0
LTYPE
  2
DASHDOT
 70
     0
  3
__ . __ . __ . __ . __ . __ . __ . __ . __ . __
 72
    65
 73
     4
 40
1.0
 49
0.5
 49
-0.25
 49
0.0
 49
-0.25
  0
LTYPE
  2
DASHDOT2
 70
     0
  3
_._._._._._._._._._._._._._._._._._._._._._._._
 72
    65
 73
     4
 40
0.5
 49
0.25
 49
-0.125
 49
0.0
 49
-0.125
  0
LTYPE
  2
DASHDOTX2
 70
    64
  3
____  .  ____  .  ____  .  ____  .  ____  .  __
 72
    65
 73
     4
 40
2.0
 49
1.0
 49
-0.5
 49
0.0
 49
-0.5
  0
LTYPE
  2
DASHED
 70
     0
  3
__ __ __ __ __ __ __ __ __ __ __ __ __ __ __ __
 72
    65
 73
     2
 40
0.75
 49
0.5
 49
-0.25
  0
LTYPE
  2
DASHED2
 70
     0
  3
_ _ _ _ _ _ _ _ _ _ _ _ _ _ _ _ _ _ _ _ _ _ _ _
 72
    65
 73
     2
 40
0.375
 49
0.25
 49
-0.125
  0
LTYPE
  2
DASHEDX2
 70
     0
  3
____  ____  ____  ____  ____  ____  ____  ____ 
 72
    65
 73
     2
 40
1.5
 49
1.0
 49
-0.5
  0
LTYPE
  2
DIVIDE
 70
     0
  3
____ . . ____ . . ____ . . ____ . . ____ . . __
 72
    65
 73
     6
 40
1.25
 49
0.5
 49
-0.25
 49
0.0
 49
-0.25
 49
0.0
 49
-0.25
  0
LTYPE
  2
DIVIDE2
 70
     0
  3
__..__..__..__..__..__..__..__..__..__..__..__.
 72
    65
 73
     6
 40
0.625
 49
0.25
 49
-0.125
 49
0.0
 49
-0.125
 49
0.0
 49
-0.125
  0
LTYPE
  2
DIVIDEX2
 70
     0
  3
________  .  .  ________  .  .  ________  .  . 
 72
    65
 73
     6
 40
2.5
 49
1.0
 49
-0.5
 49
0.0
 49
-0.5
 49
0.0
 49
-0.5
  0
LTYPE
  2
DOT
 70
     0
  3
. . . . . . . . . . . . . . . . . . . . . . . .
 72
    65
 73
     2
 40
0.25
 49
0.0
 49
-0.25
  0
LTYPE
  2
DOT2
 70
     0
  3
...............................................
 72
    65
 73
     2
 40
0.125
 49
0.0
 49
-0.125
  0
LTYPE
  2
DOTX2
 70
     0
  3
.  .  .  .  .  .  .  .  .  .  .  .  .  .  .  . 
 72
    65
 73
     2
 40
0.5
 49
0.0
 49
-0.5
  0
LTYPE
  2
HIDDEN
 70
     0
  3
__ __ __ __ __ __ __ __ __ __ __ __ __ __ __ __
 72
    65
 73
     2
 40
0.375
 49
0.25
 49
-0.125
  0
LTYPE
  2
HIDDEN2
 70
     0
  3
_ _ _ _ _ _ _ _ _ _ _ _ _ _ _ _ _ _ _ _ _ _ _ _
 72
    65
 73
     2
 40
0.1875
 49
0.125
 49
-0.0625
  0
LTYPE
  2
HIDDENX2
 70
     0
  3
____ ____ ____ ____ ____ ____ ____ ____ ____ __
 72
    65
 73
     2
 40
0.75
 49
0.5
 49
-0.25
  0
LTYPE
  2
PHANTOM
 70
     0
  3
______  __  __  ______  __  __  ______  __  __ 
 72
    65
 73
     6
 40
2.5
 49
1.25
 49
-0.25
 49
0.25
 49
-0.25
 49
0.25
 49
-0.25
  0
LTYPE
  2
PHANTOM2
 70
     0
  3
___ _ _ ___ _ _ ___ _ _ ___ _ _ ___ _ _ ___ _ _
 72
    65
 73
     6
 40
1.25
 49
0.625
 49
-0.125
 49
0.125
 49
-0.125
 49
0.125
 49
-0.125
  0
LTYPE
  2
PHANTOMX2
 70
     0
  3
____________    ____    ____    ____________   
 72
    65
 73
     6
 40
5.0
 49
2.5
 49
-0.5
 49
0.5
 49
-0.5
 49
0.5
 49
-0.5
  0
ENDTAB
  0
TABLE
  2
LAYER
 70
     1
  0
LAYER
  2
0
 70
    64
 62
     7
  6
CONTINUOUS
  0
ENDTAB
  0
TABLE
  2
STYLE
 70
     1
  0
STYLE
  2
STANDARD
 70
     0
 40
0.0
 41
1.0
 50
0.0
 71
     0
 42
3.5
  3
txt
  4

  0
ENDTAB
  0
TABLE
  2
VIEW
 70
     0
  0
ENDTAB
  0
TABLE
  2
UCS
 70
     0
  0
ENDTAB
  0
TABLE
  2
APPID
 70
     1
  0
APPID
  2
ACAD
 70
    64
  0
ENDTAB
  0
TABLE
  2
DIMSTYLE
 70
     0
  0
ENDTAB
  0
ENDSEC
  0
SECTION
  2
BLOCKS
  0
BLOCK
  8
0
  2
*X0
 70
    65
 10
0.0
 20
0.0
 30
0.0
  3
*X
  0
LINE
  8
0
  6
CONTINUOUS
 62
     0
 10
652.0
 20
168.338962
 30
0.0
 11
653.661038
 21
170.0
 31
0.0
  0
LINE
  8
0
  6
CONTINUOUS
 62
     0
 10
662.663993
 20
179.002955
 30
0.0
 11
683.180381
 21
199.519342
 31
0.0
  0
LINE
  8
0
  6
CONTINUOUS
 62
     0
 10
665.575609
 20
186.157212
 30
0.0
 11
684.544086
 21
205.125689
 31
0.0
  0
LINE
  8
0
  6
CONTINUOUS
 62
     0
 10
668.487226
 20
193.311469
 30
0.0
 11
688.920962
 21
213.745205
 31
0.0
  0
LINE
  8
0
  6
CONTINUOUS
 62
     0
 10
671.398842
 20
200.465726
 30
0.0
 11
688.629591
 21
217.696475
 31
0.0
  0
LINE
  8
0
  6
CONTINUOUS
 62
     0
 10
674.310458
 20
207.619982
 30
0.0
 11
687.287164
 21
220.596688
 31
0.0
  0
LINE
  8
0
  6
CONTINUOUS
 62
     0
 10
675.447835
 20
213.0
 30
0.0
 11
685.252267
 21
222.804432
 31
0.0
  0
LINE
  8
0
  6
CONTINUOUS
 62
     0
 10
671.222557
 20
213.017363
 30
0.0
 11
682.552795
 21
224.347601
 31
0.0
  0
LINE
  8
0
  6
CONTINUOUS
 62
     0
 10
669.050823
 20
215.088269
 30
0.0
 11
678.962483
 21
224.99993
 31
0.0
  0
LINE
  8
0
  6
CONTINUOUS
 62
     0
 10
653.5
 20
165.596321
 30
0.0
 11
657.903679
 21
170.0
 31
0.0
  0
LINE
  8
0
  6
CONTINUOUS
 62
     0
 10
659.752377
 20
171.848698
 30
0.0
 11
681.816675
 21
193.912996
 31
0.0
  0
LINE
  8
0
  6
CONTINUOUS
 62
     0
 10
655.14632
 20
163.0
 30
0.0
 11
680.452969
 21
188.306649
 31
0.0
  0
LINE
  8
0
  6
CONTINUOUS
 62
     0
 10
660.38896
 20
164.0
 30
0.0
 11
679.089263
 21
182.700302
 31
0.0
  0
LINE
  8
0
  6
CONTINUOUS
 62
     0
 10
664.631601
 20
164.0
 30
0.0
 11
677.725557
 21
177.093956
 31
0.0
  0
LINE
  8
0
  6
CONTINUOUS
 62
     0
 10
668.874242
 20
164.0
 30
0.0
 11
676.361851
 21
171.487609
 31
0.0
  0
LINE
  8
0
  6
CONTINUOUS
 62
     0
 10
673.116882
 20
164.0
 30
0.0
 11
678.0
 21
168.883118
 31
0.0
  0
LINE
  8
0
  6
CONTINUOUS
 62
     0
 10
677.359523
 20
164.0
 30
0.0
 11
678.0
 21
164.640477
 31
0.0
  0
ENDBLK
  8
0
  0
BLOCK
  8
0
  2
*X1
 70
    65
 10
0.0
 20
0.0
 30
0.0
  3
*X
  0
LINE
  8
0
  6
CONTINUOUS
 62
     0
 10
1069.60276
 20
195.618779
 30
0.0
 11
1091.593912
 21
217.609931
 31
0.0
  0
LINE
  8
0
  6
CONTINUOUS
 62
     0
 10
1071.989246
 20
202.247905
 30
0.0
 11
1095.971759
 21
226.230419
 31
0.0
  0
LINE
  8
0
  6
CONTINUOUS
 62
     0
 10
1074.375731
 20
208.877031
 30
0.0
 11
1095.547598
 21
230.048898
 31
0.0
  0
LINE
  8
0
  6
CONTINUOUS
 62
     0
 10
1076.762217
 20
215.506157
 30
0.0
 11
1094.173647
 21
232.917588
 31
0.0
  0
LINE
  8
0
  6
CONTINUOUS
 62
     0
 10
1079.148702
 20
222.135283
 30
0.0
 11
1092.144031
 21
235.130612
 31
0.0
  0
LINE
  8
0
  6
CONTINUOUS
 62
     0
 10
1077.270778
 20
224.5
 30
0.0
 11
1089.485134
 21
236.714356
 31
0.0
  0
LINE
  8
0
  6
CONTINUOUS
 62
     0
 10
1075.012661
 20
226.484523
 30
0.0
 11
1086.015477
 21
237.487339
 31
0.0
  0
LINE
  8
0
  6
CONTINUOUS
 62
     0
 10
1076.245198
 20
231.959701
 30
0.0
 11
1080.540299
 21
236.254802
 31
0.0
  0
LINE
  8
0
  6
CONTINUOUS
 62
     0
 10
1067.216275
 20
188.989653
 30
0.0
 11
1089.842981
 21
211.616359
 31
0.0
  0
LINE
  8
0
  6
CONTINUOUS
 62
     0
 10
1055.0
 20
172.530737
 30
0.0
 11
1056.969263
 21
174.5
 31
0.0
  0
LINE
  8
0
  6
CONTINUOUS
 62
     0
 10
1064.82979
 20
182.360527
 30
0.0
 11
1088.09205
 21
205.622787
 31
0.0
  0
LINE
  8
0
  6
CONTINUOUS
 62
     0
 10
1057.0
 20
170.288096
 30
0.0
 11
1061.211904
 21
174.5
 31
0.0
  0
LINE
  8
0
  6
CONTINUOUS
 62
     0
 10
1062.443304
 20
175.731401
 30
0.0
 11
1086.341119
 21
199.629216
 31
0.0
  0
LINE
  8
0
  6
CONTINUOUS
 62
     0
 10
1057.0
 20
166.045456
 30
0.0
 11
1084.590188
 21
193.635644
 31
0.0
  0
LINE
  8
0
  6
CONTINUOUS
 62
     0
 10
1062.197185
 20
167.0
 30
0.0
 11
1082.839257
 21
187.642072
 31
0.0
  0
LINE
  8
0
  6
CONTINUOUS
 62
     0
 10
1066.439826
 20
167.0
 30
0.0
 11
1081.088326
 21
181.6485
 31
0.0
  0
LINE
  8
0
  6
CONTINUOUS
 62
     0
 10
1070.682466
 20
167.0
 30
0.0
 11
1079.337395
 21
175.654928
 31
0.0
  0
LINE
  8
0
  6
CONTINUOUS
 62
     0
 10
1074.925107
 20
167.0
 30
0.0
 11
1081.949189
 21
174.024081
 31
0.0
  0
LINE
  8
0
  6
CONTINUOUS
 62
     0
 10
1079.167748
 20
167.0
 30
0.0
 11
1081.949189
 21
169.781441
 31
0.0
  0
ENDBLK
  8
0
  0
BLOCK
  8
0
  2
*X2
 70
    65
 10
0.0
 20
0.0
 30
0.0
  3
*X
  0
LINE
  8
0
  6
CONTINUOUS
 62
     0
 10
1005.080805
 20
71.699854
 30
0.0
 11
1008.880951
 21
75.5
 31
0.0
  0
LINE
  8
0
  6
CONTINUOUS
 62
     0
 10
1014.0
 20
80.619049
 30
0.0
 11
1016.800146
 21
83.419195
 31
0.0
  0
LINE
  8
0
  6
CONTINUOUS
 62
     0
 10
1006.048939
 20
68.425347
 30
0.0
 11
1020.074653
 21
82.451061
 31
0.0
  0
LINE
  8
0
  6
CONTINUOUS
 62
     0
 10
1007.76526
 20
65.899028
 30
0.0
 11
1022.600972
 21
80.73474
 31
0.0
  0
LINE
  8
0
  6
CONTINUOUS
 62
     0
 10
1010.102422
 20
63.993549
 30
0.0
 11
1024.506451
 21
78.397578
 31
0.0
  0
LINE
  8
0
  6
CONTINUOUS
 62
     0
 10
1013.123898
 20
62.772384
 30
0.0
 11
1025.727616
 21
75.376102
 31
0.0
  0
LINE
  8
0
  6
CONTINUOUS
 62
     0
 10
1017.239194
 20
62.64504
 30
0.0
 11
1025.85496
 21
71.260806
 31
0.0
  0
ENDBLK
  8
0
  0
BLOCK
  8
0
  2
*X3
 70
    65
 10
0.0
 20
0.0
 30
0.0
  3
*X
  0
LINE
  8
0
  6
CONTINUOUS
 62
     0
 10
990.4987
 20
125.0
 30
0.0
 11
998.4987
 21
133.0
 31
0.0
  0
LINE
  8
0
  6
CONTINUOUS
 62
     0
 10
986.256059
 20
125.0
 30
0.0
 11
994.256059
 21
133.0
 31
0.0
  0
LINE
  8
0
  6
CONTINUOUS
 62
     0
 10
985.0
 20
127.986581
 30
0.0
 11
986.013419
 21
129.0
 31
0.0
  0
LINE
  8
0
  6
CONTINUOUS
 62
     0
 10
987.0
 20
129.986581
 30
0.0
 11
990.013419
 21
133.0
 31
0.0
  0
LINE
  8
0
  6
CONTINUOUS
 62
     0
 10
987.0
 20
134.229222
 30
0.0
 11
987.270778
 21
134.5
 31
0.0
  0
LINE
  8
0
  6
CONTINUOUS
 62
     0
 10
994.741341
 20
125.0
 30
0.0
 11
1002.741341
 21
133.0
 31
0.0
  0
LINE
  8
0
  6
CONTINUOUS
 62
     0
 10
998.983982
 20
125.0
 30
0.0
 11
1006.983982
 21
133.0
 31
0.0
  0
LINE
  8
0
  6
CONTINUOUS
 62
     0
 10
1002.311495
 20
124.084873
 30
0.0
 11
1011.226622
 21
133.0
 31
0.0
  0
LINE
  8
0
  6
CONTINUOUS
 62
     0
 10
1007.469263
 20
125.0
 30
0.0
 11
1011.919233
 21
129.44997
 31
0.0
  0
LINE
  8
0
  6
CONTINUOUS
 62
     0
 10
1011.711904
 20
125.0
 30
0.0
 11
1011.919233
 21
125.20733
 31
0.0
  0
ENDBLK
  8
0
  0
BLOCK
  8
0
  2
*X4
 70
    65
 10
0.0
 20
0.0
 30
0.0
  3
*X
  0
LINE
  8
0
  6
CONTINUOUS
 62
     0
 10
1004.027704
 20
133.0
 30
0.0
 11
989.421716
 21
147.605988
 31
0.0
  0
LINE
  8
0
  6
CONTINUOUS
 62
     0
 10
984.027704
 20
153.0
 30
0.0
 11
970.0
 21
167.027704
 31
0.0
  0
LINE
  8
0
  6
CONTINUOUS
 62
     0
 10
999.785063
 20
133.0
 30
0.0
 11
985.785063
 21
147.0
 31
0.0
  0
LINE
  8
0
  6
CONTINUOUS
 62
     0
 10
979.785063
 20
153.0
 30
0.0
 11
970.0
 21
162.785063
 31
0.0
  0
LINE
  8
0
  6
CONTINUOUS
 62
     0
 10
995.542423
 20
133.0
 30
0.0
 11
981.542423
 21
147.0
 31
0.0
  0
LINE
  8
0
  6
CONTINUOUS
 62
     0
 10
975.542423
 20
153.0
 30
0.0
 11
970.0
 21
158.542423
 31
0.0
  0
LINE
  8
0
  6
CONTINUOUS
 62
     0
 10
991.299782
 20
133.0
 30
0.0
 11
977.299782
 21
147.0
 31
0.0
  0
LINE
  8
0
  6
CONTINUOUS
 62
     0
 10
971.299782
 20
153.0
 30
0.0
 11
970.0
 21
154.299782
 31
0.0
  0
LINE
  8
0
  6
CONTINUOUS
 62
     0
 10
987.0
 20
133.057141
 30
0.0
 11
973.057141
 21
147.0
 31
0.0
  0
LINE
  8
0
  6
CONTINUOUS
 62
     0
 10
981.57186
 20
130.0
 30
0.0
 11
970.0
 21
141.57186
 31
0.0
  0
LINE
  8
0
  6
CONTINUOUS
 62
     0
 10
977.329219
 20
130.0
 30
0.0
 11
970.0
 21
137.329219
 31
0.0
  0
LINE
  8
0
  6
CONTINUOUS
 62
     0
 10
973.086579
 20
130.0
 30
0.0
 11
970.0
 21
133.086579
 31
0.0
  0
LINE
  8
0
  6
CONTINUOUS
 62
     0
 10
1008.270345
 20
133.0
 30
0.0
 11
990.476933
 21
150.793412
 31
0.0
  0
LINE
  8
0
  6
CONTINUOUS
 62
     0
 10
988.270345
 20
153.0
 30
0.0
 11
971.385172
 21
169.885172
 31
0.0
  0
LINE
  8
0
  6
CONTINUOUS
 62
     0
 10
1010.0
 20
135.512986
 30
0.0
 11
975.512986
 21
170.0
 31
0.0
  0
LINE
  8
0
  6
CONTINUOUS
 62
     0
 10
1010.0
 20
139.755626
 30
0.0
 11
979.755626
 21
170.0
 31
0.0
  0
LINE
  8
0
  6
CONTINUOUS
 62
     0
 10
1010.0
 20
143.998267
 30
0.0
 11
988.498267
 21
165.5
 31
0.0
  0
LINE
  8
0
  6
CONTINUOUS
 62
     0
 10
987.0
 20
166.998267
 30
0.0
 11
983.998267
 21
170.0
 31
0.0
  0
LINE
  8
0
  6
CONTINUOUS
 62
     0
 10
1010.0
 20
148.240908
 30
0.0
 11
991.240908
 21
167.0
 31
0.0
  0
LINE
  8
0
  6
CONTINUOUS
 62
     0
 10
1010.0
 20
152.483548
 30
0.0
 11
995.483548
 21
167.0
 31
0.0
  0
LINE
  8
0
  6
CONTINUOUS
 62
     0
 10
1010.0
 20
156.726189
 30
0.0
 11
999.726189
 21
167.0
 31
0.0
  0
LINE
  8
0
  6
CONTINUOUS
 62
     0
 10
1010.0
 20
160.96883
 30
0.0
 11
1003.96883
 21
167.0
 31
0.0
  0
LINE
  8
0
  6
CONTINUOUS
 62
     0
 10
1010.0
 20
165.21147
 30
0.0
 11
1008.21147
 21
167.0
 31
0.0
  0
ENDBLK
  8
0
  0
BLOCK
  8
0
  2
*X5
 70
    65
 10
0.0
 20
0.0
 30
0.0
  3
*X
  0
LINE
  8
0
  6
CONTINUOUS
 62
     0
 10
337.009679
 20
-388.481878
 30
0.0
 11
338.991557
 21
-386.5
 31
0.0
  0
LINE
  8
0
  6
CONTINUOUS
 62
     0
 10
346.0
 20
-379.491557
 30
0.0
 11
349.481878
 21
-376.009679
 31
0.0
  0
LINE
  8
0
  6
CONTINUOUS
 62
     0
 10
337.698851
 20
-392.035347
 30
0.0
 11
343.234198
 21
-386.5
 31
0.0
  0
LINE
  8
0
  6
CONTINUOUS
 62
     0
 10
346.0
 20
-383.734198
 30
0.0
 11
353.035347
 21
-376.698851
 31
0.0
  0
LINE
  8
0
  6
CONTINUOUS
 62
     0
 10
339.138861
 20
-394.837978
 30
0.0
 11
355.837978
 21
-378.138861
 31
0.0
  0
LINE
  8
0
  6
CONTINUOUS
 62
     0
 10
341.146394
 20
-397.073085
 30
0.0
 11
358.073085
 21
-380.146394
 31
0.0
  0
LINE
  8
0
  6
CONTINUOUS
 62
     0
 10
343.697299
 20
-398.764821
 30
0.0
 11
359.764821
 21
-382.697299
 31
0.0
  0
LINE
  8
0
  6
CONTINUOUS
 62
     0
 10
346.891461
 20
-399.8133
 30
0.0
 11
360.8133
 21
-385.891461
 31
0.0
  0
LINE
  8
0
  6
CONTINUOUS
 62
     0
 10
351.139707
 20
-399.807695
 30
0.0
 11
360.807695
 21
-390.139707
 31
0.0
  0
ENDBLK
  8
0
  0
BLOCK
  8
0
  2
*X6
 70
    65
 10
0.0
 20
0.0
 30
0.0
  3
*X
  0
LINE
  8
0
  6
CONTINUOUS
 62
     0
 10
338.213203
 20
-317.0
 30
0.0
 11
320.587491
 21
-299.374287
 31
0.0
  0
LINE
  8
0
  6
CONTINUOUS
 62
     0
 10
318.213203
 20
-297.0
 30
0.0
 11
301.356602
 21
-280.143398
 31
0.0
  0
LINE
  8
0
  6
CONTINUOUS
 62
     0
 10
333.970563
 20
-317.0
 30
0.0
 11
319.399013
 21
-302.42845
 31
0.0
  0
LINE
  8
0
  6
CONTINUOUS
 62
     0
 10
313.970563
 20
-297.0
 30
0.0
 11
300.0
 21
-283.029437
 31
0.0
  0
LINE
  8
0
  6
CONTINUOUS
 62
     0
 10
329.727922
 20
-317.0
 30
0.0
 11
315.727922
 21
-303.0
 31
0.0
  0
LINE
  8
0
  6
CONTINUOUS
 62
     0
 10
309.727922
 20
-297.0
 30
0.0
 11
300.0
 21
-287.272078
 31
0.0
  0
LINE
  8
0
  6
CONTINUOUS
 62
     0
 10
325.485281
 20
-317.0
 30
0.0
 11
311.485281
 21
-303.0
 31
0.0
  0
LINE
  8
0
  6
CONTINUOUS
 62
     0
 10
305.485281
 20
-297.0
 30
0.0
 11
300.0
 21
-291.514719
 31
0.0
  0
LINE
  8
0
  6
CONTINUOUS
 62
     0
 10
321.242641
 20
-317.0
 30
0.0
 11
307.242641
 21
-303.0
 31
0.0
  0
LINE
  8
0
  6
CONTINUOUS
 62
     0
 10
301.242641
 20
-297.0
 30
0.0
 11
300.0
 21
-295.757359
 31
0.0
  0
LINE
  8
0
  6
CONTINUOUS
 62
     0
 10
317.0
 20
-317.0
 30
0.0
 11
303.0
 21
-303.0
 31
0.0
  0
LINE
  8
0
  6
CONTINUOUS
 62
     0
 10
315.757359
 20
-320.0
 30
0.0
 11
300.0
 21
-304.242641
 31
0.0
  0
LINE
  8
0
  6
CONTINUOUS
 62
     0
 10
311.514719
 20
-320.0
 30
0.0
 11
300.0
 21
-308.485281
 31
0.0
  0
LINE
  8
0
  6
CONTINUOUS
 62
     0
 10
307.272078
 20
-320.0
 30
0.0
 11
300.0
 21
-312.727922
 31
0.0
  0
LINE
  8
0
  6
CONTINUOUS
 62
     0
 10
303.029437
 20
-320.0
 30
0.0
 11
300.0
 21
-316.970563
 31
0.0
  0
LINE
  8
0
  6
CONTINUOUS
 62
     0
 10
342.455844
 20
-317.0
 30
0.0
 11
305.455844
 21
-280.0
 31
0.0
  0
LINE
  8
0
  6
CONTINUOUS
 62
     0
 10
344.5
 20
-314.801515
 30
0.0
 11
309.698485
 21
-280.0
 31
0.0
  0
LINE
  8
0
  6
CONTINUOUS
 62
     0
 10
344.5
 20
-310.558875
 30
0.0
 11
317.941125
 21
-284.0
 31
0.0
  0
LINE
  8
0
  6
CONTINUOUS
 62
     0
 10
317.0
 20
-283.058875
 30
0.0
 11
313.941125
 21
-280.0
 31
0.0
  0
LINE
  8
0
  6
CONTINUOUS
 62
     0
 10
344.5
 20
-306.316234
 30
0.0
 11
321.183766
 21
-283.0
 31
0.0
  0
LINE
  8
0
  6
CONTINUOUS
 62
     0
 10
344.5
 20
-302.073593
 30
0.0
 11
325.426407
 21
-283.0
 31
0.0
  0
LINE
  8
0
  6
CONTINUOUS
 62
     0
 10
344.5
 20
-297.830952
 30
0.0
 11
329.669048
 21
-283.0
 31
0.0
  0
LINE
  8
0
  6
CONTINUOUS
 62
     0
 10
344.5
 20
-293.588312
 30
0.0
 11
333.911688
 21
-283.0
 31
0.0
  0
LINE
  8
0
  6
CONTINUOUS
 62
     0
 10
344.5
 20
-289.345671
 30
0.0
 11
338.154329
 21
-283.0
 31
0.0
  0
LINE
  8
0
  6
CONTINUOUS
 62
     0
 10
344.5
 20
-285.10303
 30
0.0
 11
342.39697
 21
-283.0
 31
0.0
  0
ENDBLK
  8
0
  0
BLOCK
  8
0
  2
*X7
 70
    65
 10
0.0
 20
0.0
 30
0.0
  3
*X
  0
LINE
  8
0
  6
CONTINUOUS
 62
     0
 10
330.776733
 20
-250.465041
 30
0.0
 11
355.512885
 21
-225.728889
 31
0.0
  0
LINE
  8
0
  6
CONTINUOUS
 62
     0
 10
333.139723
 20
-243.85941
 30
0.0
 11
359.829219
 21
-217.169914
 31
0.0
  0
LINE
  8
0
  6
CONTINUOUS
 62
     0
 10
335.502713
 20
-237.25378
 30
0.0
 11
360.997578
 21
-211.758915
 31
0.0
  0
LINE
  8
0
  6
CONTINUOUS
 62
     0
 10
337.865703
 20
-230.648149
 30
0.0
 11
360.365179
 21
-208.148673
 31
0.0
  0
LINE
  8
0
  6
CONTINUOUS
 62
     0
 10
340.228692
 20
-224.042519
 30
0.0
 11
358.961757
 21
-205.309454
 31
0.0
  0
LINE
  8
0
  6
CONTINUOUS
 62
     0
 10
342.591682
 20
-217.436889
 30
0.0
 11
356.985654
 21
-203.042917
 31
0.0
  0
LINE
  8
0
  6
CONTINUOUS
 62
     0
 10
342.28593
 20
-213.5
 30
0.0
 11
354.467825
 21
-201.318105
 31
0.0
  0
LINE
  8
0
  6
CONTINUOUS
 62
     0
 10
338.098126
 20
-213.445163
 30
0.0
 11
351.317399
 21
-200.22589
 31
0.0
  0
LINE
  8
0
  6
CONTINUOUS
 62
     0
 10
337.142137
 20
-210.158512
 30
0.0
 11
347.158512
 21
-200.142137
 31
0.0
  0
LINE
  8
0
  6
CONTINUOUS
 62
     0
 10
328.413744
 20
-257.070671
 30
0.0
 11
353.826707
 21
-231.657708
 31
0.0
  0
LINE
  8
0
  6
CONTINUOUS
 62
     0
 10
326.050754
 20
-263.676302
 30
0.0
 11
352.140529
 21
-237.586526
 31
0.0
  0
LINE
  8
0
  6
CONTINUOUS
 62
     0
 10
315.5
 20
-278.469696
 30
0.0
 11
318.969696
 21
-275.0
 31
0.0
  0
LINE
  8
0
  6
CONTINUOUS
 62
     0
 10
323.687764
 20
-270.281932
 30
0.0
 11
350.454352
 21
-243.515345
 31
0.0
  0
LINE
  8
0
  6
CONTINUOUS
 62
     0
 10
317.0
 20
-281.212337
 30
0.0
 11
348.768174
 21
-249.444163
 31
0.0
  0
LINE
  8
0
  6
CONTINUOUS
 62
     0
 10
318.454978
 20
-284.0
 30
0.0
 11
319.0
 21
-283.454978
 31
0.0
  0
LINE
  8
0
  6
CONTINUOUS
 62
     0
 10
319.454978
 20
-283.0
 30
0.0
 11
347.081996
 21
-255.372981
 31
0.0
  0
LINE
  8
0
  6
CONTINUOUS
 62
     0
 10
323.697618
 20
-283.0
 30
0.0
 11
345.395818
 21
-261.3018
 31
0.0
  0
LINE
  8
0
  6
CONTINUOUS
 62
     0
 10
327.940259
 20
-283.0
 30
0.0
 11
343.709641
 21
-267.230618
 31
0.0
  0
LINE
  8
0
  6
CONTINUOUS
 62
     0
 10
332.1829
 20
-283.0
 30
0.0
 11
342.023463
 21
-273.159437
 31
0.0
  0
LINE
  8
0
  6
CONTINUOUS
 62
     0
 10
336.42554
 20
-283.0
 30
0.0
 11
344.42554
 21
-275.0
 31
0.0
  0
LINE
  8
0
  6
CONTINUOUS
 62
     0
 10
340.668181
 20
-283.0
 30
0.0
 11
345.437017
 21
-278.231164
 31
0.0
  0
LINE
  8
0
  6
CONTINUOUS
 62
     0
 10
344.910822
 20
-283.0
 30
0.0
 11
345.437017
 21
-282.473805
 31
0.0
  0
ENDBLK
  8
0
  0
BLOCK
  8
0
  2
*X8
 70
    65
 10
0.0
 20
0.0
 30
0.0
  3
*X
  0
LINE
  8
0
  6
CONTINUOUS
 62
     0
 10
323.624025
 20
-325.5
 30
0.0
 11
332.124025
 21
-317.0
 31
0.0
  0
LINE
  8
0
  6
CONTINUOUS
 62
     0
 10
319.381384
 20
-325.5
 30
0.0
 11
327.881384
 21
-317.0
 31
0.0
  0
LINE
  8
0
  6
CONTINUOUS
 62
     0
 10
315.774205
 20
-324.864539
 30
0.0
 11
323.638744
 21
-317.0
 31
0.0
  0
LINE
  8
0
  6
CONTINUOUS
 62
     0
 10
315.5
 20
-320.896103
 30
0.0
 11
316.28467
 21
-320.111433
 31
0.0
  0
LINE
  8
0
  6
CONTINUOUS
 62
     0
 10
317.0
 20
-319.396103
 30
0.0
 11
319.396103
 21
-317.0
 31
0.0
  0
LINE
  8
0
  6
CONTINUOUS
 62
     0
 10
327.866666
 20
-325.5
 30
0.0
 11
336.366666
 21
-317.0
 31
0.0
  0
LINE
  8
0
  6
CONTINUOUS
 62
     0
 10
332.109307
 20
-325.5
 30
0.0
 11
340.609307
 21
-317.0
 31
0.0
  0
LINE
  8
0
  6
CONTINUOUS
 62
     0
 10
335.095074
 20
-326.756873
 30
0.0
 11
344.851947
 21
-317.0
 31
0.0
  0
LINE
  8
0
  6
CONTINUOUS
 62
     0
 10
340.594588
 20
-325.5
 30
0.0
 11
345.371683
 21
-320.722905
 31
0.0
  0
LINE
  8
0
  6
CONTINUOUS
 62
     0
 10
344.938495
 20
-325.398734
 30
0.0
 11
345.398734
 21
-324.938495
 31
0.0
  0
ENDBLK
  8
0
  0
BLOCK
  8
0
  2
*X9
 70
    65
 10
0.0
 20
0.0
 30
0.0
  3
*X
  0
LINE
  8
0
  6
CONTINUOUS
 62
     0
 10
914.260154
 20
-413.686381
 30
0.0
 11
918.946535
 21
-409.0
 31
0.0
  0
LINE
  8
0
  6
CONTINUOUS
 62
     0
 10
926.0
 20
-401.946535
 30
0.0
 11
930.686381
 21
-397.260154
 31
0.0
  0
LINE
  8
0
  6
CONTINUOUS
 62
     0
 10
915.299257
 20
-416.889918
 30
0.0
 11
923.189176
 21
-409.0
 31
0.0
  0
LINE
  8
0
  6
CONTINUOUS
 62
     0
 10
926.0
 20
-406.189176
 30
0.0
 11
933.889918
 21
-398.299257
 31
0.0
  0
LINE
  8
0
  6
CONTINUOUS
 62
     0
 10
916.900048
 20
-419.531768
 30
0.0
 11
936.531768
 21
-399.900048
 31
0.0
  0
LINE
  8
0
  6
CONTINUOUS
 62
     0
 10
918.973201
 20
-421.701257
 30
0.0
 11
938.701257
 21
-401.973201
 31
0.0
  0
LINE
  8
0
  6
CONTINUOUS
 62
     0
 10
921.511486
 20
-423.405611
 30
0.0
 11
940.405611
 21
-404.511486
 31
0.0
  0
LINE
  8
0
  6
CONTINUOUS
 62
     0
 10
924.583109
 20
-424.576629
 30
0.0
 11
941.576629
 21
-407.583109
 31
0.0
  0
LINE
  8
0
  6
CONTINUOUS
 62
     0
 10
928.408335
 20
-424.994044
 30
0.0
 11
941.994044
 21
-411.408335
 31
0.0
  0
LINE
  8
0
  6
CONTINUOUS
 62
     0
 10
933.992223
 20
-423.652796
 30
0.0
 11
940.652796
 21
-416.992223
 31
0.0
  0
ENDBLK
  8
0
  0
BLOCK
  8
0
  2
*X10
 70
    65
 10
0.0
 20
0.0
 30
0.0
  3
*X
  0
LINE
  8
0
  6
CONTINUOUS
 62
     0
 10
891.880518
 20
-330.0
 30
0.0
 11
901.880518
 21
-320.0
 31
0.0
  0
LINE
  8
0
  6
CONTINUOUS
 62
     0
 10
887.637877
 20
-330.0
 30
0.0
 11
897.637877
 21
-320.0
 31
0.0
  0
LINE
  8
0
  6
CONTINUOUS
 62
     0
 10
883.65553
 20
-329.739706
 30
0.0
 11
893.395237
 21
-320.0
 31
0.0
  0
LINE
  8
0
  6
CONTINUOUS
 62
     0
 10
883.0
 20
-326.152596
 30
0.0
 11
884.152596
 21
-325.0
 31
0.0
  0
LINE
  8
0
  6
CONTINUOUS
 62
     0
 10
885.0
 20
-324.152596
 30
0.0
 11
889.152596
 21
-320.0
 31
0.0
  0
LINE
  8
0
  6
CONTINUOUS
 62
     0
 10
885.0
 20
-319.909955
 30
0.0
 11
886.409955
 21
-318.5
 31
0.0
  0
LINE
  8
0
  6
CONTINUOUS
 62
     0
 10
896.123159
 20
-330.0
 30
0.0
 11
906.123159
 21
-320.0
 31
0.0
  0
LINE
  8
0
  6
CONTINUOUS
 62
     0
 10
900.365799
 20
-330.0
 30
0.0
 11
910.365799
 21
-320.0
 31
0.0
  0
LINE
  8
0
  6
CONTINUOUS
 62
     0
 10
904.60844
 20
-330.0
 30
0.0
 11
914.60844
 21
-320.0
 31
0.0
  0
LINE
  8
0
  6
CONTINUOUS
 62
     0
 10
906.34734
 20
-332.50374
 30
0.0
 11
918.851081
 21
-320.0
 31
0.0
  0
LINE
  8
0
  6
CONTINUOUS
 62
     0
 10
913.093721
 20
-330.0
 30
0.0
 11
919.849609
 21
-323.244112
 31
0.0
  0
LINE
  8
0
  6
CONTINUOUS
 62
     0
 10
917.336362
 20
-330.0
 30
0.0
 11
919.849609
 21
-327.486753
 31
0.0
  0
ENDBLK
  8
0
  0
BLOCK
  8
0
  2
*X11
 70
    65
 10
0.0
 20
0.0
 30
0.0
  3
*X
  0
LINE
  8
0
  6
CONTINUOUS
 62
     0
 10
905.801936
 20
-235.468408
 30
0.0
 11
932.367032
 21
-208.903313
 31
0.0
  0
LINE
  8
0
  6
CONTINUOUS
 62
     0
 10
908.004846
 20
-229.022858
 30
0.0
 11
934.051977
 21
-202.975727
 31
0.0
  0
LINE
  8
0
  6
CONTINUOUS
 62
     0
 10
910.207756
 20
-222.577308
 30
0.0
 11
941.868144
 21
-190.916919
 31
0.0
  0
LINE
  8
0
  6
CONTINUOUS
 62
     0
 10
912.410665
 20
-216.131758
 30
0.0
 11
941.814415
 21
-186.728008
 31
0.0
  0
LINE
  8
0
  6
CONTINUOUS
 62
     0
 10
914.613575
 20
-209.686207
 30
0.0
 11
940.851972
 21
-183.44781
 31
0.0
  0
LINE
  8
0
  6
CONTINUOUS
 62
     0
 10
916.816484
 20
-203.240657
 30
0.0
 11
939.309341
 21
-180.7478
 31
0.0
  0
LINE
  8
0
  6
CONTINUOUS
 62
     0
 10
919.019394
 20
-196.795107
 30
0.0
 11
937.288983
 21
-178.525517
 31
0.0
  0
LINE
  8
0
  6
CONTINUOUS
 62
     0
 10
920.57186
 20
-191.0
 30
0.0
 11
934.80611
 21
-176.76575
 31
0.0
  0
LINE
  8
0
  6
CONTINUOUS
 62
     0
 10
916.329219
 20
-191.0
 30
0.0
 11
931.802839
 21
-175.526381
 31
0.0
  0
LINE
  8
0
  6
CONTINUOUS
 62
     0
 10
914.000266
 20
-189.086313
 30
0.0
 11
928.086313
 21
-175.000266
 31
0.0
  0
LINE
  8
0
  6
CONTINUOUS
 62
     0
 10
914.973634
 20
-183.870304
 30
0.0
 11
922.870304
 21
-175.973634
 31
0.0
  0
LINE
  8
0
  6
CONTINUOUS
 62
     0
 10
903.599027
 20
-241.913959
 30
0.0
 11
930.682087
 21
-214.830899
 31
0.0
  0
LINE
  8
0
  6
CONTINUOUS
 62
     0
 10
901.396117
 20
-248.359509
 30
0.0
 11
928.997141
 21
-220.758485
 31
0.0
  0
LINE
  8
0
  6
CONTINUOUS
 62
     0
 10
883.148041
 20
-270.850226
 30
0.0
 11
883.850226
 21
-270.148041
 31
0.0
  0
LINE
  8
0
  6
CONTINUOUS
 62
     0
 10
899.193208
 20
-254.805059
 30
0.0
 11
927.312196
 21
-226.686071
 31
0.0
  0
LINE
  8
0
  6
CONTINUOUS
 62
     0
 10
883.240908
 20
-275.0
 30
0.0
 11
888.240908
 21
-270.0
 31
0.0
  0
LINE
  8
0
  6
CONTINUOUS
 62
     0
 10
896.990298
 20
-261.25061
 30
0.0
 11
925.627251
 21
-232.613657
 31
0.0
  0
LINE
  8
0
  6
CONTINUOUS
 62
     0
 10
885.0
 20
-277.483548
 30
0.0
 11
892.483548
 21
-270.0
 31
0.0
  0
LINE
  8
0
  6
CONTINUOUS
 62
     0
 10
894.787388
 20
-267.69616
 30
0.0
 11
923.942306
 21
-238.541243
 31
0.0
  0
LINE
  8
0
  6
CONTINUOUS
 62
     0
 10
885.226189
 20
-281.5
 30
0.0
 11
922.25736
 21
-244.468829
 31
0.0
  0
LINE
  8
0
  6
CONTINUOUS
 62
     0
 10
890.96883
 20
-280.0
 30
0.0
 11
920.572415
 21
-250.396415
 31
0.0
  0
LINE
  8
0
  6
CONTINUOUS
 62
     0
 10
895.21147
 20
-280.0
 30
0.0
 11
918.88747
 21
-256.324001
 31
0.0
  0
LINE
  8
0
  6
CONTINUOUS
 62
     0
 10
899.454111
 20
-280.0
 30
0.0
 11
917.202524
 21
-262.251587
 31
0.0
  0
LINE
  8
0
  6
CONTINUOUS
 62
     0
 10
903.696752
 20
-280.0
 30
0.0
 11
915.517579
 21
-268.179173
 31
0.0
  0
LINE
  8
0
  6
CONTINUOUS
 62
     0
 10
907.939392
 20
-280.0
 30
0.0
 11
917.939392
 21
-270.0
 31
0.0
  0
LINE
  8
0
  6
CONTINUOUS
 62
     0
 10
912.182033
 20
-280.0
 30
0.0
 11
919.903272
 21
-272.278761
 31
0.0
  0
LINE
  8
0
  6
CONTINUOUS
 62
     0
 10
916.424674
 20
-280.0
 30
0.0
 11
919.903272
 21
-276.521402
 31
0.0
  0
ENDBLK
  8
0
  0
BLOCK
  8
0
  2
*X12
 70
    65
 10
0.0
 20
0.0
 30
0.0
  3
*X
  0
LINE
  8
0
  6
CONTINUOUS
 62
     0
 10
913.969696
 20
-320.0
 30
0.0
 11
870.734848
 21
-276.765152
 31
0.0
  0
LINE
  8
0
  6
CONTINUOUS
 62
     0
 10
909.727056
 20
-320.0
 30
0.0
 11
890.49423
 21
-300.767175
 31
0.0
  0
LINE
  8
0
  6
CONTINUOUS
 62
     0
 10
886.727056
 20
-297.0
 30
0.0
 11
870.0
 21
-280.272944
 31
0.0
  0
LINE
  8
0
  6
CONTINUOUS
 62
     0
 10
905.484415
 20
-320.0
 30
0.0
 11
888.484415
 21
-303.0
 31
0.0
  0
LINE
  8
0
  6
CONTINUOUS
 62
     0
 10
882.484415
 20
-297.0
 30
0.0
 11
870.0
 21
-284.515585
 31
0.0
  0
LINE
  8
0
  6
CONTINUOUS
 62
     0
 10
901.241774
 20
-320.0
 30
0.0
 11
884.241774
 21
-303.0
 31
0.0
  0
LINE
  8
0
  6
CONTINUOUS
 62
     0
 10
878.241774
 20
-297.0
 30
0.0
 11
870.0
 21
-288.758226
 31
0.0
  0
LINE
  8
0
  6
CONTINUOUS
 62
     0
 10
896.999133
 20
-320.0
 30
0.0
 11
879.999133
 21
-303.0
 31
0.0
  0
LINE
  8
0
  6
CONTINUOUS
 62
     0
 10
873.999133
 20
-297.0
 30
0.0
 11
870.0
 21
-293.000867
 31
0.0
  0
LINE
  8
0
  6
CONTINUOUS
 62
     0
 10
892.756493
 20
-320.0
 30
0.0
 11
875.756493
 21
-303.0
 31
0.0
  0
LINE
  8
0
  6
CONTINUOUS
 62
     0
 10
888.513852
 20
-320.0
 30
0.0
 11
871.513852
 21
-303.0
 31
0.0
  0
LINE
  8
0
  6
CONTINUOUS
 62
     0
 10
885.0
 20
-320.728789
 30
0.0
 11
870.0
 21
-305.728789
 31
0.0
  0
LINE
  8
0
  6
CONTINUOUS
 62
     0
 10
885.0
 20
-324.971429
 30
0.0
 11
870.0
 21
-309.971429
 31
0.0
  0
LINE
  8
0
  6
CONTINUOUS
 62
     0
 10
879.78593
 20
-324.0
 30
0.0
 11
870.0
 21
-314.21407
 31
0.0
  0
LINE
  8
0
  6
CONTINUOUS
 62
     0
 10
875.543289
 20
-324.0
 30
0.0
 11
870.0
 21
-318.456711
 31
0.0
  0
LINE
  8
0
  6
CONTINUOUS
 62
     0
 10
918.212337
 20
-320.0
 30
0.0
 11
874.212337
 21
-276.0
 31
0.0
  0
LINE
  8
0
  6
CONTINUOUS
 62
     0
 10
918.5
 20
-316.045022
 30
0.0
 11
878.454978
 21
-276.0
 31
0.0
  0
LINE
  8
0
  6
CONTINUOUS
 62
     0
 10
918.5
 20
-311.802382
 30
0.0
 11
887.0
 21
-280.302382
 31
0.0
  0
LINE
  8
0
  6
CONTINUOUS
 62
     0
 10
885.0
 20
-278.302382
 30
0.0
 11
882.697618
 21
-276.0
 31
0.0
  0
LINE
  8
0
  6
CONTINUOUS
 62
     0
 10
918.5
 20
-307.559741
 30
0.0
 11
890.940259
 21
-280.0
 31
0.0
  0
LINE
  8
0
  6
CONTINUOUS
 62
     0
 10
918.5
 20
-303.3171
 30
0.0
 11
895.1829
 21
-280.0
 31
0.0
  0
LINE
  8
0
  6
CONTINUOUS
 62
     0
 10
918.5
 20
-299.07446
 30
0.0
 11
899.42554
 21
-280.0
 31
0.0
  0
LINE
  8
0
  6
CONTINUOUS
 62
     0
 10
918.5
 20
-294.831819
 30
0.0
 11
903.668181
 21
-280.0
 31
0.0
  0
LINE
  8
0
  6
CONTINUOUS
 62
     0
 10
918.5
 20
-290.589178
 30
0.0
 11
907.910822
 21
-280.0
 31
0.0
  0
LINE
  8
0
  6
CONTINUOUS
 62
     0
 10
918.5
 20
-286.346538
 30
0.0
 11
912.153462
 21
-280.0
 31
0.0
  0
LINE
  8
0
  6
CONTINUOUS
 62
     0
 10
918.5
 20
-282.103897
 30
0.0
 11
916.396103
 21
-280.0
 31
0.0
  0
ENDBLK
  8
0
  0
BLOCK
  8
0
  2
*X13
 70
    65
 10
0.0
 20
0.0
 30
0.0
  3
*X
  0
LINE
  8
0
  6
CONTINUOUS
 62
     0
 10
619.015535
 20
84.442809
 30
0.0
 11
621.072727
 21
86.5
 31
0.0
  0
LINE
  8
0
  6
CONTINUOUS
 62
     0
 10
626.0
 20
91.427273
 30
0.0
 11
629.557191
 21
94.984465
 31
0.0
  0
LINE
  8
0
  6
CONTINUOUS
 62
     0
 10
619.828938
 20
81.013571
 30
0.0
 11
632.986429
 21
94.171062
 31
0.0
  0
LINE
  8
0
  6
CONTINUOUS
 62
     0
 10
621.47364
 20
78.415632
 30
0.0
 11
635.584368
 21
92.52636
 31
0.0
  0
LINE
  8
0
  6
CONTINUOUS
 62
     0
 10
623.774539
 20
76.47389
 30
0.0
 11
637.52611
 21
90.225461
 31
0.0
  0
LINE
  8
0
  6
CONTINUOUS
 62
     0
 10
626.790449
 20
75.24716
 30
0.0
 11
638.75284
 21
87.209551
 31
0.0
  0
LINE
  8
0
  6
CONTINUOUS
 62
     0
 10
630.984901
 20
75.198971
 30
0.0
 11
638.801029
 21
83.015099
 31
0.0
  0
ENDBLK
  8
0
  0
BLOCK
  8
0
  2
*X14
 70
    65
 10
0.0
 20
0.0
 30
0.0
  3
*X
  0
LINE
  8
0
  6
CONTINUOUS
 62
     0
 10
609.418398
 20
130.0
 30
0.0
 11
615.418398
 21
136.0
 31
0.0
  0
LINE
  8
0
  6
CONTINUOUS
 62
     0
 10
605.175757
 20
130.0
 30
0.0
 11
611.175757
 21
136.0
 31
0.0
  0
LINE
  8
0
  6
CONTINUOUS
 62
     0
 10
602.049803
 20
131.116687
 30
0.0
 11
607.0
 21
136.066884
 31
0.0
  0
LINE
  8
0
  6
CONTINUOUS
 62
     0
 10
603.5
 20
136.809524
 30
0.0
 11
603.690476
 21
137.0
 31
0.0
  0
LINE
  8
0
  6
CONTINUOUS
 62
     0
 10
613.661038
 20
130.0
 30
0.0
 11
619.661038
 21
136.0
 31
0.0
  0
LINE
  8
0
  6
CONTINUOUS
 62
     0
 10
616.819414
 20
128.915735
 30
0.0
 11
623.903679
 21
136.0
 31
0.0
  0
LINE
  8
0
  6
CONTINUOUS
 62
     0
 10
622.14632
 20
130.0
 30
0.0
 11
627.923829
 21
135.777509
 31
0.0
  0
LINE
  8
0
  6
CONTINUOUS
 62
     0
 10
626.38896
 20
130.0
 30
0.0
 11
627.923829
 21
131.534869
 31
0.0
  0
ENDBLK
  8
0
  0
BLOCK
  8
0
  2
*X15
 70
    65
 10
0.0
 20
0.0
 30
0.0
  3
*X
  0
LINE
  8
0
  6
CONTINUOUS
 62
     0
 10
619.190042
 20
136.0
 30
0.0
 11
608.190042
 21
147.0
 31
0.0
  0
LINE
  8
0
  6
CONTINUOUS
 62
     0
 10
602.190042
 20
153.0
 30
0.0
 11
590.345021
 21
164.845021
 31
0.0
  0
LINE
  8
0
  6
CONTINUOUS
 62
     0
 10
614.947402
 20
136.0
 30
0.0
 11
603.947402
 21
147.0
 31
0.0
  0
LINE
  8
0
  6
CONTINUOUS
 62
     0
 10
597.947402
 20
153.0
 30
0.0
 11
590.0
 21
160.947402
 31
0.0
  0
LINE
  8
0
  6
CONTINUOUS
 62
     0
 10
610.704761
 20
136.0
 30
0.0
 11
599.704761
 21
147.0
 31
0.0
  0
LINE
  8
0
  6
CONTINUOUS
 62
     0
 10
593.704761
 20
153.0
 30
0.0
 11
590.0
 21
156.704761
 31
0.0
  0
LINE
  8
0
  6
CONTINUOUS
 62
     0
 10
605.46212
 20
137.0
 30
0.0
 11
595.46212
 21
147.0
 31
0.0
  0
LINE
  8
0
  6
CONTINUOUS
 62
     0
 10
603.5
 20
134.71948
 30
0.0
 11
591.21948
 21
147.0
 31
0.0
  0
LINE
  8
0
  6
CONTINUOUS
 62
     0
 10
599.976839
 20
134.0
 30
0.0
 11
590.0
 21
143.976839
 31
0.0
  0
LINE
  8
0
  6
CONTINUOUS
 62
     0
 10
595.734198
 20
134.0
 30
0.0
 11
590.0
 21
139.734198
 31
0.0
  0
LINE
  8
0
  6
CONTINUOUS
 62
     0
 10
623.432683
 20
136.0
 30
0.0
 11
610.377269
 21
149.055414
 31
0.0
  0
LINE
  8
0
  6
CONTINUOUS
 62
     0
 10
606.432683
 20
153.0
 30
0.0
 11
593.432683
 21
166.0
 31
0.0
  0
LINE
  8
0
  6
CONTINUOUS
 62
     0
 10
627.675324
 20
136.0
 30
0.0
 11
597.675324
 21
166.0
 31
0.0
  0
LINE
  8
0
  6
CONTINUOUS
 62
     0
 10
627.0
 20
140.917964
 30
0.0
 11
604.917964
 21
163.0
 31
0.0
  0
LINE
  8
0
  6
CONTINUOUS
 62
     0
 10
603.5
 20
164.417964
 30
0.0
 11
601.917964
 21
166.0
 31
0.0
  0
LINE
  8
0
  6
CONTINUOUS
 62
     0
 10
627.0
 20
145.160605
 30
0.0
 11
608.160605
 21
164.0
 31
0.0
  0
LINE
  8
0
  6
CONTINUOUS
 62
     0
 10
627.0
 20
149.403246
 30
0.0
 11
612.403246
 21
164.0
 31
0.0
  0
LINE
  8
0
  6
CONTINUOUS
 62
     0
 10
627.0
 20
153.645886
 30
0.0
 11
616.645886
 21
164.0
 31
0.0
  0
LINE
  8
0
  6
CONTINUOUS
 62
     0
 10
627.0
 20
157.888527
 30
0.0
 11
620.888527
 21
164.0
 31
0.0
  0
LINE
  8
0
  6
CONTINUOUS
 62
     0
 10
627.0
 20
162.131168
 30
0.0
 11
625.131168
 21
164.0
 31
0.0
  0
ENDBLK
  8
0
  0
BLOCK
  8
0
  2
*X16
 70
    65
 10
0.0
 20
0.0
 30
0.0
  3
*X
  0
LINE
  8
0
  6
CONTINUOUS
 62
     0
 10
254.016119
 20
97.038414
 30
0.0
 11
256.477705
 21
99.5
 31
0.0
  0
LINE
  8
0
  6
CONTINUOUS
 62
     0
 10
260.5
 20
103.522295
 30
0.0
 11
262.461586
 21
105.483881
 31
0.0
  0
LINE
  8
0
  6
CONTINUOUS
 62
     0
 10
254.56955
 20
93.349204
 30
0.0
 11
266.150796
 21
104.93045
 31
0.0
  0
LINE
  8
0
  6
CONTINUOUS
 62
     0
 10
256.13869
 20
90.675704
 30
0.0
 11
268.824296
 21
103.36131
 31
0.0
  0
LINE
  8
0
  6
CONTINUOUS
 62
     0
 10
258.444
 20
88.738372
 30
0.0
 11
270.761628
 21
101.056
 31
0.0
  0
LINE
  8
0
  6
CONTINUOUS
 62
     0
 10
261.563628
 20
87.61536
 30
0.0
 11
271.88464
 21
97.936372
 31
0.0
  0
LINE
  8
0
  6
CONTINUOUS
 62
     0
 10
266.329374
 20
88.138465
 30
0.0
 11
271.361535
 21
93.170626
 31
0.0
  0
ENDBLK
  8
0
  0
BLOCK
  8
0
  2
*X17
 70
    65
 10
0.0
 20
0.0
 30
0.0
  3
*X
  0
LINE
  8
0
  6
CONTINUOUS
 62
     0
 10
243.308658
 20
133.0
 30
0.0
 11
249.308658
 21
139.0
 31
0.0
  0
LINE
  8
0
  6
CONTINUOUS
 62
     0
 10
239.066017
 20
133.0
 30
0.0
 11
245.066017
 21
139.0
 31
0.0
  0
LINE
  8
0
  6
CONTINUOUS
 62
     0
 10
237.0
 20
135.176624
 30
0.0
 11
240.823376
 21
139.0
 31
0.0
  0
LINE
  8
0
  6
CONTINUOUS
 62
     0
 10
247.551299
 20
133.0
 30
0.0
 11
253.551299
 21
139.0
 31
0.0
  0
LINE
  8
0
  6
CONTINUOUS
 62
     0
 10
251.793939
 20
133.0
 30
0.0
 11
257.793939
 21
139.0
 31
0.0
  0
LINE
  8
0
  6
CONTINUOUS
 62
     0
 10
254.869795
 20
131.833215
 30
0.0
 11
262.03658
 21
139.0
 31
0.0
  0
LINE
  8
0
  6
CONTINUOUS
 62
     0
 10
260.279221
 20
133.0
 30
0.0
 11
262.956682
 21
135.677461
 31
0.0
  0
ENDBLK
  8
0
  0
BLOCK
  8
0
  2
*X18
 70
    65
 10
0.0
 20
0.0
 30
0.0
  3
*X
  0
LINE
  8
0
  6
CONTINUOUS
 62
     0
 10
251.322943
 20
139.0
 30
0.0
 11
243.322943
 21
147.0
 31
0.0
  0
LINE
  8
0
  6
CONTINUOUS
 62
     0
 10
237.322943
 20
153.0
 30
0.0
 11
228.322943
 21
162.0
 31
0.0
  0
LINE
  8
0
  6
CONTINUOUS
 62
     0
 10
247.080303
 20
139.0
 30
0.0
 11
239.080303
 21
147.0
 31
0.0
  0
LINE
  8
0
  6
CONTINUOUS
 62
     0
 10
233.080303
 20
153.0
 30
0.0
 11
225.040151
 21
161.040151
 31
0.0
  0
LINE
  8
0
  6
CONTINUOUS
 62
     0
 10
242.837662
 20
139.0
 30
0.0
 11
234.837662
 21
147.0
 31
0.0
  0
LINE
  8
0
  6
CONTINUOUS
 62
     0
 10
228.837662
 20
153.0
 30
0.0
 11
225.0
 21
156.837662
 31
0.0
  0
LINE
  8
0
  6
CONTINUOUS
 62
     0
 10
238.5
 20
139.095021
 30
0.0
 11
230.595021
 21
147.0
 31
0.0
  0
LINE
  8
0
  6
CONTINUOUS
 62
     0
 10
235.35238
 20
138.0
 30
0.0
 11
226.35238
 21
147.0
 31
0.0
  0
LINE
  8
0
  6
CONTINUOUS
 62
     0
 10
231.10974
 20
138.0
 30
0.0
 11
225.0
 21
144.10974
 31
0.0
  0
LINE
  8
0
  6
CONTINUOUS
 62
     0
 10
226.867099
 20
138.0
 30
0.0
 11
225.0
 21
139.867099
 31
0.0
  0
LINE
  8
0
  6
CONTINUOUS
 62
     0
 10
255.565584
 20
139.0
 30
0.0
 11
245.430074
 21
149.13551
 31
0.0
  0
LINE
  8
0
  6
CONTINUOUS
 62
     0
 10
241.565584
 20
153.0
 30
0.0
 11
232.565584
 21
162.0
 31
0.0
  0
LINE
  8
0
  6
CONTINUOUS
 62
     0
 10
259.808225
 20
139.0
 30
0.0
 11
238.808225
 21
160.0
 31
0.0
  0
LINE
  8
0
  6
CONTINUOUS
 62
     0
 10
238.5
 20
160.308225
 30
0.0
 11
236.808225
 21
162.0
 31
0.0
  0
LINE
  8
0
  6
CONTINUOUS
 62
     0
 10
262.0
 20
141.050865
 30
0.0
 11
242.050865
 21
161.0
 31
0.0
  0
LINE
  8
0
  6
CONTINUOUS
 62
     0
 10
262.0
 20
145.293506
 30
0.0
 11
246.293506
 21
161.0
 31
0.0
  0
LINE
  8
0
  6
CONTINUOUS
 62
     0
 10
262.0
 20
149.536147
 30
0.0
 11
250.536147
 21
161.0
 31
0.0
  0
LINE
  8
0
  6
CONTINUOUS
 62
     0
 10
262.0
 20
153.778787
 30
0.0
 11
254.778787
 21
161.0
 31
0.0
  0
LINE
  8
0
  6
CONTINUOUS
 62
     0
 10
262.0
 20
158.021428
 30
0.0
 11
259.021428
 21
161.0
 31
0.0
  0
ENDBLK
  8
0
  0
BLOCK
  8
0
  2
*X19
 70
    65
 10
0.0
 20
0.0
 30
0.0
  3
*X
  0
LINE
  8
0
  6
CONTINUOUS
 62
     0
 10
552.546163
 20
-1119.054267
 30
0.0
 11
554.166544
 21
-1117.433887
 31
0.0
  0
LINE
  8
0
  6
CONTINUOUS
 62
     0
 10
552.5
 20
-1123.343071
 30
0.0
 11
559.800716
 21
-1116.042355
 31
0.0
  0
LINE
  8
0
  6
CONTINUOUS
 62
     0
 10
544.23989
 20
-1135.845822
 30
0.0
 11
548.085712
 21
-1132.0
 31
0.0
  0
LINE
  8
0
  6
CONTINUOUS
 62
     0
 10
552.5
 20
-1127.585712
 30
0.0
 11
563.845822
 21
-1116.23989
 31
0.0
  0
LINE
  8
0
  6
CONTINUOUS
 62
     0
 10
545.158959
 20
-1139.169394
 30
0.0
 11
567.169394
 21
-1117.158959
 31
0.0
  0
LINE
  8
0
  6
CONTINUOUS
 62
     0
 10
546.575182
 20
-1141.995812
 30
0.0
 11
569.995812
 21
-1118.575182
 31
0.0
  0
LINE
  8
0
  6
CONTINUOUS
 62
     0
 10
548.400646
 20
-1144.412988
 30
0.0
 11
572.412988
 21
-1120.400646
 31
0.0
  0
LINE
  8
0
  6
CONTINUOUS
 62
     0
 10
550.604849
 20
-1146.451425
 30
0.0
 11
574.451425
 21
-1122.604849
 31
0.0
  0
LINE
  8
0
  6
CONTINUOUS
 62
     0
 10
553.19601
 20
-1148.102905
 30
0.0
 11
576.102905
 21
-1125.19601
 31
0.0
  0
LINE
  8
0
  6
CONTINUOUS
 62
     0
 10
556.225726
 20
-1149.31583
 30
0.0
 11
577.31583
 21
-1128.225726
 31
0.0
  0
LINE
  8
0
  6
CONTINUOUS
 62
     0
 10
559.824862
 20
-1149.959335
 30
0.0
 11
577.959335
 21
-1131.824862
 31
0.0
  0
LINE
  8
0
  6
CONTINUOUS
 62
     0
 10
564.362746
 20
-1149.664091
 30
0.0
 11
577.664091
 21
-1136.362746
 31
0.0
  0
ENDBLK
  8
0
  0
BLOCK
  8
0
  2
*X20
 70
    65
 10
0.0
 20
0.0
 30
0.0
  3
*X
  0
LINE
  8
0
  6
CONTINUOUS
 62
     0
 10
526.291773
 20
-1035.0
 30
0.0
 11
537.291773
 21
-1024.0
 31
0.0
  0
LINE
  8
0
  6
CONTINUOUS
 62
     0
 10
522.049132
 20
-1035.0
 30
0.0
 11
533.049132
 21
-1024.0
 31
0.0
  0
LINE
  8
0
  6
CONTINUOUS
 62
     0
 10
518.492346
 20
-1034.314146
 30
0.0
 11
528.806491
 21
-1024.0
 31
0.0
  0
LINE
  8
0
  6
CONTINUOUS
 62
     0
 10
518.0
 20
-1030.563851
 30
0.0
 11
518.563851
 21
-1030.0
 31
0.0
  0
LINE
  8
0
  6
CONTINUOUS
 62
     0
 10
520.0
 20
-1028.563851
 30
0.0
 11
524.563851
 21
-1024.0
 31
0.0
  0
LINE
  8
0
  6
CONTINUOUS
 62
     0
 10
520.0
 20
-1024.32121
 30
0.0
 11
522.32121
 21
-1022.0
 31
0.0
  0
LINE
  8
0
  6
CONTINUOUS
 62
     0
 10
530.534414
 20
-1035.0
 30
0.0
 11
541.534414
 21
-1024.0
 31
0.0
  0
LINE
  8
0
  6
CONTINUOUS
 62
     0
 10
534.777054
 20
-1035.0
 30
0.0
 11
545.777054
 21
-1024.0
 31
0.0
  0
LINE
  8
0
  6
CONTINUOUS
 62
     0
 10
539.019695
 20
-1035.0
 30
0.0
 11
550.019695
 21
-1024.0
 31
0.0
  0
LINE
  8
0
  6
CONTINUOUS
 62
     0
 10
541.656749
 20
-1036.605587
 30
0.0
 11
554.262336
 21
-1024.0
 31
0.0
  0
LINE
  8
0
  6
CONTINUOUS
 62
     0
 10
543.738133
 20
-1038.766843
 30
0.0
 11
554.922475
 21
-1027.582501
 31
0.0
  0
LINE
  8
0
  6
CONTINUOUS
 62
     0
 10
551.747617
 20
-1035.0
 30
0.0
 11
554.922475
 21
-1031.825142
 31
0.0
  0
ENDBLK
  8
0
  0
BLOCK
  8
0
  2
*X21
 70
    65
 10
0.0
 20
0.0
 30
0.0
  3
*X
  0
LINE
  8
0
  6
CONTINUOUS
 62
     0
 10
534.071764
 20
-929.639273
 30
0.0
 11
567.769404
 21
-895.941633
 31
0.0
  0
LINE
  8
0
  6
CONTINUOUS
 62
     0
 10
535.881125
 20
-923.587271
 30
0.0
 11
569.239296
 21
-890.229101
 31
0.0
  0
LINE
  8
0
  6
CONTINUOUS
 62
     0
 10
537.690487
 20
-917.535269
 30
0.0
 11
570.709187
 21
-884.516569
 31
0.0
  0
LINE
  8
0
  6
CONTINUOUS
 62
     0
 10
539.499848
 20
-911.483267
 30
0.0
 11
576.019178
 21
-874.963937
 31
0.0
  0
LINE
  8
0
  6
CONTINUOUS
 62
     0
 10
541.309209
 20
-905.431265
 30
0.0
 11
577.900088
 21
-868.840386
 31
0.0
  0
LINE
  8
0
  6
CONTINUOUS
 62
     0
 10
543.118571
 20
-899.379263
 30
0.0
 11
577.83814
 21
-864.659693
 31
0.0
  0
LINE
  8
0
  6
CONTINUOUS
 62
     0
 10
544.927932
 20
-893.327261
 30
0.0
 11
576.999935
 21
-861.255258
 31
0.0
  0
LINE
  8
0
  6
CONTINUOUS
 62
     0
 10
546.737294
 20
-887.275258
 30
0.0
 11
575.645104
 21
-858.367449
 31
0.0
  0
LINE
  8
0
  6
CONTINUOUS
 62
     0
 10
548.546655
 20
-881.223256
 30
0.0
 11
573.873152
 21
-855.896759
 31
0.0
  0
LINE
  8
0
  6
CONTINUOUS
 62
     0
 10
550.356017
 20
-875.171254
 30
0.0
 11
571.7207
 21
-853.80657
 31
0.0
  0
LINE
  8
0
  6
CONTINUOUS
 62
     0
 10
552.165378
 20
-869.119252
 30
0.0
 11
569.18467
 21
-852.09996
 31
0.0
  0
LINE
  8
0
  6
CONTINUOUS
 62
     0
 10
549.041989
 20
-868.0
 30
0.0
 11
566.220551
 21
-850.821439
 31
0.0
  0
LINE
  8
0
  6
CONTINUOUS
 62
     0
 10
545.054993
 20
-867.744356
 30
0.0
 11
562.71284
 21
-850.086509
 31
0.0
  0
LINE
  8
0
  6
CONTINUOUS
 62
     0
 10
544.208022
 20
-864.348686
 30
0.0
 11
558.348686
 21
-850.208022
 31
0.0
  0
LINE
  8
0
  6
CONTINUOUS
 62
     0
 10
547.0969
 20
-857.217167
 30
0.0
 11
551.217167
 21
-853.0969
 31
0.0
  0
LINE
  8
0
  6
CONTINUOUS
 62
     0
 10
532.262402
 20
-935.691276
 30
0.0
 11
566.299513
 21
-901.654165
 31
0.0
  0
LINE
  8
0
  6
CONTINUOUS
 62
     0
 10
530.453041
 20
-941.743278
 30
0.0
 11
564.829622
 21
-907.366696
 31
0.0
  0
LINE
  8
0
  6
CONTINUOUS
 62
     0
 10
528.643679
 20
-947.79528
 30
0.0
 11
563.359731
 21
-913.079228
 31
0.0
  0
LINE
  8
0
  6
CONTINUOUS
 62
     0
 10
526.834318
 20
-953.847282
 30
0.0
 11
561.889839
 21
-918.79176
 31
0.0
  0
LINE
  8
0
  6
CONTINUOUS
 62
     0
 10
518.001493
 20
-966.922748
 30
0.0
 11
519.922748
 21
-965.001493
 31
0.0
  0
LINE
  8
0
  6
CONTINUOUS
 62
     0
 10
525.024956
 20
-959.899284
 30
0.0
 11
560.419948
 21
-924.504292
 31
0.0
  0
LINE
  8
0
  6
CONTINUOUS
 62
     0
 10
519.166881
 20
-970.0
 30
0.0
 11
558.950057
 21
-930.216824
 31
0.0
  0
LINE
  8
0
  6
CONTINUOUS
 62
     0
 10
520.0
 20
-973.409522
 30
0.0
 11
557.480166
 21
-935.929356
 31
0.0
  0
LINE
  8
0
  6
CONTINUOUS
 62
     0
 10
520.0
 20
-977.652163
 30
0.0
 11
556.010274
 21
-941.641888
 31
0.0
  0
LINE
  8
0
  6
CONTINUOUS
 62
     0
 10
525.894803
 20
-976.0
 30
0.0
 11
554.540383
 21
-947.35442
 31
0.0
  0
LINE
  8
0
  6
CONTINUOUS
 62
     0
 10
530.137444
 20
-976.0
 30
0.0
 11
553.070492
 21
-953.066952
 31
0.0
  0
LINE
  8
0
  6
CONTINUOUS
 62
     0
 10
534.380085
 20
-976.0
 30
0.0
 11
551.600601
 21
-958.779484
 31
0.0
  0
LINE
  8
0
  6
CONTINUOUS
 62
     0
 10
538.622725
 20
-976.0
 30
0.0
 11
550.130709
 21
-964.492016
 31
0.0
  0
LINE
  8
0
  6
CONTINUOUS
 62
     0
 10
542.865366
 20
-976.0
 30
0.0
 11
553.865366
 21
-965.0
 31
0.0
  0
LINE
  8
0
  6
CONTINUOUS
 62
     0
 10
547.108007
 20
-976.0
 30
0.0
 11
554.924752
 21
-968.183255
 31
0.0
  0
LINE
  8
0
  6
CONTINUOUS
 62
     0
 10
551.350647
 20
-976.0
 30
0.0
 11
554.924752
 21
-972.425896
 31
0.0
  0
ENDBLK
  8
0
  0
BLOCK
  8
0
  2
*X22
 70
    65
 10
0.0
 20
0.0
 30
0.0
  3
*X
  0
LINE
  8
0
  6
CONTINUOUS
 62
     0
 10
553.066884
 20
-1024.0
 30
0.0
 11
501.033442
 21
-971.966558
 31
0.0
  0
LINE
  8
0
  6
CONTINUOUS
 62
     0
 10
548.824243
 20
-1024.0
 30
0.0
 11
500.0
 21
-975.175757
 31
0.0
  0
LINE
  8
0
  6
CONTINUOUS
 62
     0
 10
544.581602
 20
-1024.0
 30
0.0
 11
520.833761
 21
-1000.252159
 31
0.0
  0
LINE
  8
0
  6
CONTINUOUS
 62
     0
 10
517.581602
 20
-997.0
 30
0.0
 11
500.0
 21
-979.418398
 31
0.0
  0
LINE
  8
0
  6
CONTINUOUS
 62
     0
 10
540.338962
 20
-1024.0
 30
0.0
 11
519.148063
 21
-1002.809102
 31
0.0
  0
LINE
  8
0
  6
CONTINUOUS
 62
     0
 10
513.338962
 20
-997.0
 30
0.0
 11
500.0
 21
-983.661038
 31
0.0
  0
LINE
  8
0
  6
CONTINUOUS
 62
     0
 10
536.096321
 20
-1024.0
 30
0.0
 11
515.096321
 21
-1003.0
 31
0.0
  0
LINE
  8
0
  6
CONTINUOUS
 62
     0
 10
509.096321
 20
-997.0
 30
0.0
 11
500.0
 21
-987.903679
 31
0.0
  0
LINE
  8
0
  6
CONTINUOUS
 62
     0
 10
531.85368
 20
-1024.0
 30
0.0
 11
510.85368
 21
-1003.0
 31
0.0
  0
LINE
  8
0
  6
CONTINUOUS
 62
     0
 10
504.85368
 20
-997.0
 30
0.0
 11
500.0
 21
-992.14632
 31
0.0
  0
LINE
  8
0
  6
CONTINUOUS
 62
     0
 10
527.61104
 20
-1024.0
 30
0.0
 11
506.61104
 21
-1003.0
 31
0.0
  0
LINE
  8
0
  6
CONTINUOUS
 62
     0
 10
523.368399
 20
-1024.0
 30
0.0
 11
522.5
 21
-1023.131601
 31
0.0
  0
LINE
  8
0
  6
CONTINUOUS
 62
     0
 10
521.368399
 20
-1022.0
 30
0.0
 11
502.368399
 21
-1003.0
 31
0.0
  0
LINE
  8
0
  6
CONTINUOUS
 62
     0
 10
520.0
 20
-1024.874242
 30
0.0
 11
500.0
 21
-1004.874242
 31
0.0
  0
LINE
  8
0
  6
CONTINUOUS
 62
     0
 10
520.0
 20
-1029.116882
 30
0.0
 11
500.0
 21
-1009.116882
 31
0.0
  0
LINE
  8
0
  6
CONTINUOUS
 62
     0
 10
515.640477
 20
-1029.0
 30
0.0
 11
500.0
 21
-1013.359523
 31
0.0
  0
LINE
  8
0
  6
CONTINUOUS
 62
     0
 10
511.397836
 20
-1029.0
 30
0.0
 11
500.0
 21
-1017.602164
 31
0.0
  0
LINE
  8
0
  6
CONTINUOUS
 62
     0
 10
507.155195
 20
-1029.0
 30
0.0
 11
500.0
 21
-1021.844805
 31
0.0
  0
LINE
  8
0
  6
CONTINUOUS
 62
     0
 10
502.912555
 20
-1029.0
 30
0.0
 11
500.0
 21
-1026.087445
 31
0.0
  0
LINE
  8
0
  6
CONTINUOUS
 62
     0
 10
552.5
 20
-1019.190476
 30
0.0
 11
504.309524
 21
-971.0
 31
0.0
  0
LINE
  8
0
  6
CONTINUOUS
 62
     0
 10
552.5
 20
-1014.947835
 30
0.0
 11
508.552165
 21
-971.0
 31
0.0
  0
LINE
  8
0
  6
CONTINUOUS
 62
     0
 10
552.5
 20
-1010.705194
 30
0.0
 11
512.794806
 21
-971.0
 31
0.0
  0
LINE
  8
0
  6
CONTINUOUS
 62
     0
 10
552.5
 20
-1006.462554
 30
0.0
 11
522.5
 21
-976.462554
 31
0.0
  0
LINE
  8
0
  6
CONTINUOUS
 62
     0
 10
520.0
 20
-973.962554
 30
0.0
 11
517.037446
 21
-971.0
 31
0.0
  0
LINE
  8
0
  6
CONTINUOUS
 62
     0
 10
552.5
 20
-1002.219913
 30
0.0
 11
526.280087
 21
-976.0
 31
0.0
  0
LINE
  8
0
  6
CONTINUOUS
 62
     0
 10
552.5
 20
-997.977272
 30
0.0
 11
530.522728
 21
-976.0
 31
0.0
  0
LINE
  8
0
  6
CONTINUOUS
 62
     0
 10
552.5
 20
-993.734631
 30
0.0
 11
534.765369
 21
-976.0
 31
0.0
  0
LINE
  8
0
  6
CONTINUOUS
 62
     0
 10
552.5
 20
-989.491991
 30
0.0
 11
539.008009
 21
-976.0
 31
0.0
  0
LINE
  8
0
  6
CONTINUOUS
 62
     0
 10
552.5
 20
-985.24935
 30
0.0
 11
543.25065
 21
-976.0
 31
0.0
  0
LINE
  8
0
  6
CONTINUOUS
 62
     0
 10
552.5
 20
-981.006709
 30
0.0
 11
547.493291
 21
-976.0
 31
0.0
  0
LINE
  8
0
  6
CONTINUOUS
 62
     0
 10
552.5
 20
-976.764069
 30
0.0
 11
551.735931
 21
-976.0
 31
0.0
  0
ENDBLK
  8
0
  0
BLOCK
  8
0
  2
*X23
 70
    65
 10
0.0
 20
0.0
 30
0.0
  3
*X
  0
LINE
  8
0
  6
CONTINUOUS
 62
     0
 10
235.192849
 20
455.810165
 30
0.0
 11
238.882684
 21
459.5
 31
0.0
  0
LINE
  8
0
  6
CONTINUOUS
 62
     0
 10
240.0
 20
460.617316
 30
0.0
 11
244.189835
 21
464.807151
 31
0.0
  0
LINE
  8
0
  6
CONTINUOUS
 62
     0
 10
236.554092
 20
452.928767
 30
0.0
 11
247.071233
 21
463.445908
 31
0.0
  0
LINE
  8
0
  6
CONTINUOUS
 62
     0
 10
238.828232
 20
450.960266
 30
0.0
 11
249.039734
 21
461.171768
 31
0.0
  0
LINE
  8
0
  6
CONTINUOUS
 62
     0
 10
242.120228
 20
450.009621
 30
0.0
 11
249.990379
 21
457.879772
 31
0.0
  0
ENDBLK
  8
0
  0
BLOCK
  8
0
  2
*X24
 70
    65
 10
0.0
 20
0.0
 30
0.0
  3
*X
  0
LINE
  8
0
  6
CONTINUOUS
 62
     0
 10
235.426978
 20
490.064579
 30
0.0
 11
213.491557
 21
512.0
 31
0.0
  0
LINE
  8
0
  6
CONTINUOUS
 62
     0
 10
231.184337
 20
490.064579
 30
0.0
 11
210.124458
 21
511.124458
 31
0.0
  0
LINE
  8
0
  6
CONTINUOUS
 62
     0
 10
226.941697
 20
490.064579
 30
0.0
 11
219.002092
 21
498.004184
 31
0.0
  0
LINE
  8
0
  6
CONTINUOUS
 62
     0
 10
215.006276
 20
502.0
 30
0.0
 11
210.0
 21
507.006276
 31
0.0
  0
LINE
  8
0
  6
CONTINUOUS
 62
     0
 10
222.5
 20
490.263635
 30
0.0
 11
214.763635
 21
498.0
 31
0.0
  0
LINE
  8
0
  6
CONTINUOUS
 62
     0
 10
221.520995
 20
487.0
 30
0.0
 11
221.022512
 21
487.498483
 31
0.0
  0
LINE
  8
0
  6
CONTINUOUS
 62
     0
 10
220.520995
 20
488.0
 30
0.0
 11
210.760497
 21
497.760497
 31
0.0
  0
LINE
  8
0
  6
CONTINUOUS
 62
     0
 10
216.278354
 20
488.0
 30
0.0
 11
210.0
 21
494.278354
 31
0.0
  0
LINE
  8
0
  6
CONTINUOUS
 62
     0
 10
212.035713
 20
488.0
 30
0.0
 11
210.0
 21
490.035713
 31
0.0
  0
LINE
  8
0
  6
CONTINUOUS
 62
     0
 10
239.669619
 20
490.064579
 30
0.0
 11
217.734198
 21
512.0
 31
0.0
  0
LINE
  8
0
  6
CONTINUOUS
 62
     0
 10
243.0
 20
490.976839
 30
0.0
 11
224.5
 21
509.476839
 31
0.0
  0
LINE
  8
0
  6
CONTINUOUS
 62
     0
 10
222.5
 20
511.476839
 30
0.0
 11
221.010428
 21
512.966411
 31
0.0
  0
LINE
  8
0
  6
CONTINUOUS
 62
     0
 10
243.0
 20
495.21948
 30
0.0
 11
228.318055
 21
509.901425
 31
0.0
  0
LINE
  8
0
  6
CONTINUOUS
 62
     0
 10
243.0
 20
499.46212
 30
0.0
 11
232.560696
 21
509.901425
 31
0.0
  0
LINE
  8
0
  6
CONTINUOUS
 62
     0
 10
243.0
 20
503.704761
 30
0.0
 11
236.803336
 21
509.901425
 31
0.0
  0
LINE
  8
0
  6
CONTINUOUS
 62
     0
 10
243.0
 20
507.947402
 30
0.0
 11
241.045977
 21
509.901425
 31
0.0
  0
ENDBLK
  8
0
  0
BLOCK
  8
0
  2
*X25
 70
    65
 10
0.0
 20
0.0
 30
0.0
  3
*X
  0
LINE
  8
0
  6
CONTINUOUS
 62
     0
 10
234.228355
 20
510.0
 30
0.0
 11
240.590548
 21
516.362193
 31
0.0
  0
LINE
  8
0
  6
CONTINUOUS
 62
     0
 10
229.985715
 20
510.0
 30
0.0
 11
242.004762
 21
522.019047
 31
0.0
  0
LINE
  8
0
  6
CONTINUOUS
 62
     0
 10
225.743074
 20
510.0
 30
0.0
 11
243.418975
 21
527.675901
 31
0.0
  0
LINE
  8
0
  6
CONTINUOUS
 62
     0
 10
222.5
 20
510.999567
 30
0.0
 11
227.500433
 21
516.0
 31
0.0
  0
LINE
  8
0
  6
CONTINUOUS
 62
     0
 10
230.56227
 20
519.061837
 30
0.0
 11
244.833189
 21
533.332756
 31
0.0
  0
LINE
  8
0
  6
CONTINUOUS
 62
     0
 10
221.0
 20
513.742207
 30
0.0
 11
223.257793
 21
516.0
 31
0.0
  0
LINE
  8
0
  6
CONTINUOUS
 62
     0
 10
232.816173
 20
525.55838
 30
0.0
 11
249.99621
 21
542.738417
 31
0.0
  0
LINE
  8
0
  6
CONTINUOUS
 62
     0
 10
235.070076
 20
532.054924
 30
0.0
 11
249.092083
 21
546.076931
 31
0.0
  0
LINE
  8
0
  6
CONTINUOUS
 62
     0
 10
237.323978
 20
538.551467
 30
0.0
 11
247.153923
 21
548.381412
 31
0.0
  0
LINE
  8
0
  6
CONTINUOUS
 62
     0
 10
235.34692
 20
540.817049
 30
0.0
 11
244.308548
 21
549.778678
 31
0.0
  0
LINE
  8
0
  6
CONTINUOUS
 62
     0
 10
235.512764
 20
545.225535
 30
0.0
 11
239.774465
 21
549.487236
 31
0.0
  0
LINE
  8
0
  6
CONTINUOUS
 62
     0
 10
238.470996
 20
510.0
 30
0.0
 11
244.470996
 21
516.0
 31
0.0
  0
LINE
  8
0
  6
CONTINUOUS
 62
     0
 10
242.713637
 20
510.0
 30
0.0
 11
244.5
 21
511.786363
 31
0.0
  0
ENDBLK
  8
0
  0
BLOCK
  8
0
  2
*X26
 70
    65
 10
0.0
 20
0.0
 30
0.0
  3
*X
  0
LINE
  8
0
  6
CONTINUOUS
 62
     0
 10
229.441559
 20
484.0
 30
0.0
 11
235.441559
 21
490.0
 31
0.0
  0
LINE
  8
0
  6
CONTINUOUS
 62
     0
 10
225.198918
 20
484.0
 30
0.0
 11
231.198918
 21
490.0
 31
0.0
  0
LINE
  8
0
  6
CONTINUOUS
 62
     0
 10
221.27137
 20
484.315093
 30
0.0
 11
226.956277
 21
490.0
 31
0.0
  0
LINE
  8
0
  6
CONTINUOUS
 62
     0
 10
222.5
 20
489.786363
 30
0.0
 11
223.713637
 21
491.0
 31
0.0
  0
LINE
  8
0
  6
CONTINUOUS
 62
     0
 10
233.684199
 20
484.0
 30
0.0
 11
239.684199
 21
490.0
 31
0.0
  0
LINE
  8
0
  6
CONTINUOUS
 62
     0
 10
237.004294
 20
483.077453
 30
0.0
 11
243.92684
 21
490.0
 31
0.0
  0
LINE
  8
0
  6
CONTINUOUS
 62
     0
 10
242.169481
 20
484.0
 30
0.0
 11
244.461659
 21
486.292178
 31
0.0
  0
ENDBLK
  8
0
  0
ENDSEC
  0
SECTION
  2
ENTITIES
  0
CIRCLE
  8
0
 10
100.0
 20
150.0
 30
0.0
 40
62.5
  0
ARC
  8
0
 10
100.0
 20
150.0
 30
0.0
 40
44.5
 50
109.471221
 51
190.528779
  0
CIRCLE
  8
0
 10
100.0
 20
150.0
 30
0.0
 40
17.0
  0
LINE
  8
0
 10
111.5
 20
164.491377
 30
0.0
 11
111.5
 21
189.59798
 31
0.0
  0
LINE
  8
0
 10
88.5
 20
164.491377
 30
0.0
 11
88.5
 21
189.59798
 31
0.0
  0
ARC
  8
0
 10
114.0
 20
189.59798
 30
0.0
 40
2.5
 50
70.528779
 51
180.0
  0
ARC
  8
0
 10
86.0
 20
189.59798
 30
0.0
 40
2.5
 50
0.0
 51
109.471221
  0
ARC
  8
0
 10
100.0
 20
166.779985
 30
0.0
 40
29.220015
 50
59.493048
 51
120.506952
  0
LINE
  8
0
 10
81.7001
 20
152.713604
 30
0.0
 11
59.957144
 21
140.160302
 31
0.0
  0
ARC
  8
0
 10
58.707144
 20
142.325366
 30
0.0
 40
2.5
 50
190.528779
 51
300.0
  0
ARC
  8
0
 10
72.707144
 20
118.076654
 30
0.0
 40
2.5
 50
120.0
 51
229.471221
  0
LINE
  8
0
 10
93.2001
 20
132.795019
 30
0.0
 11
71.457144
 21
120.241718
 31
0.0
  0
ARC
  8
0
 10
85.468107
 20
141.610007
 30
0.0
 40
29.220015
 50
179.493048
 51
240.506952
  0
LINE
  8
0
 10
106.7999
 20
132.795019
 30
0.0
 11
128.542856
 21
120.241718
 31
0.0
  0
ARC
  8
0
 10
127.292856
 20
118.076654
 30
0.0
 40
2.5
 50
310.528779
 51
60.0
  0
ARC
  8
0
 10
141.292856
 20
142.325366
 30
0.0
 40
2.5
 50
240.0
 51
349.471221
  0
LINE
  8
0
 10
118.2999
 20
152.713604
 30
0.0
 11
140.042856
 21
140.160302
 31
0.0
  0
ARC
  8
0
 10
114.531893
 20
141.610007
 30
0.0
 40
29.220015
 50
299.493048
 51
0.506952
  0
ARC
  8
0
 10
100.0
 20
150.0
 30
0.0
 40
44.5
 50
349.471221
 51
70.528779
  0
ARC
  8
0
 10
100.0
 20
150.0
 30
0.0
 40
44.5
 50
229.471221
 51
310.528779
  0
ARC
  8
0
 10
100.0
 20
150.0
 30
0.0
 40
18.5
 50
8.434651
 51
51.565349
  0
ARC
  8
0
 10
100.0
 20
150.0
 30
0.0
 40
18.5
 50
128.434651
 51
171.565349
  0
ARC
  8
0
 10
100.0
 20
150.0
 30
0.0
 40
18.5
 50
248.434651
 51
291.565349
  0
CIRCLE
  8
0
 10
100.0
 20
150.0
 30
0.0
 40
11.0
  0
LINE
  8
0
 10
89.0
 20
260.0
 30
0.0
 11
111.0
 21
260.0
 31
0.0
  0
LINE
  8
0
 10
112.0
 20
261.0
 30
0.0
 11
112.0
 21
272.0
 31
0.0
  0
LINE
  8
0
 10
88.0
 20
261.0
 30
0.0
 11
88.0
 21
272.0
 31
0.0
  0
LINE
  8
0
 10
84.5
 20
272.0
 30
0.0
 11
115.5
 21
272.0
 31
0.0
  0
LINE
  8
0
 10
153.5
 20
289.0
 30
0.0
 11
46.5
 21
289.0
 31
0.0
  0
LINE
  8
0
 10
112.0
 20
261.0
 30
0.0
 11
111.0
 21
260.0
 31
0.0
  0
LINE
  8
0
 10
89.0
 20
260.0
 30
0.0
 11
88.0
 21
261.0
 31
0.0
  0
LINE
  8
0
 10
117.0
 20
273.5
 30
0.0
 11
117.0
 21
280.657534
 31
0.0
  0
LINE
  8
0
 10
83.0
 20
273.5
 30
0.0
 11
83.0
 21
280.657534
 31
0.0
  0
LINE
  8
0
 10
105.0
 20
284.0
 30
0.0
 11
105.0
 21
289.0
 31
0.0
  0
LINE
  8
0
 10
95.0
 20
284.0
 30
0.0
 11
95.0
 21
289.0
 31
0.0
  0
ARC
  8
0
 10
101.066984
 20
259.667459
 30
0.0
 40
24.64835
 50
55.578835
 51
80.818346
  0
ARC
  8
0
 10
98.933016
 20
259.667459
 30
0.0
 40
24.64835
 50
99.181654
 51
124.421165
  0
LINE
  8
0
 10
153.5
 20
307.0
 30
0.0
 11
46.5
 21
307.0
 31
0.0
  0
LINE
  8
0
 10
142.375
 20
289.0
 30
0.0
 11
115.0
 21
280.0
 31
0.0
  0
LINE
  8
0
 10
105.0
 20
284.0
 30
0.0
 11
118.684211
 21
289.0
 31
0.0
  0
ARC
  8
0
 10
153.5
 20
298.0
 30
0.0
 40
9.0
 50
270.0
 51
90.0
  0
ARC
  8
0
 10
46.5
 20
298.0
 30
0.0
 40
9.0
 50
90.0
 51
270.0
  0
LINE
  8
0
 10
57.625
 20
289.0
 30
0.0
 11
85.0
 21
280.0
 31
0.0
  0
LINE
  8
0
 10
95.0
 20
284.0
 30
0.0
 11
81.315789
 21
289.0
 31
0.0
  0
ARC
  8
0
 10
115.5
 20
273.5
 30
0.0
 40
1.5
 50
270.0
 51
0.0
  0
ARC
  8
0
 10
84.5
 20
273.5
 30
0.0
 40
1.5
 50
180.0
 51
270.0
  0
LINE
  8
0
 10
257.0
 20
201.5
 30
0.0
 11
245.657534
 21
167.0
 31
0.0
  0
LINE
  8
0
 10
272.0
 20
96.5
 30
0.0
 11
272.0
 21
203.5
 31
0.0
  0
LINE
  8
0
 10
254.0
 20
202.5
 30
0.0
 11
254.0
 21
203.5
 31
0.0
  0
LINE
  8
0
 10
237.0
 20
165.5
 30
0.0
 11
237.0
 21
162.0
 31
0.0
  0
LINE
  8
0
 10
226.0
 20
138.0
 30
0.0
 11
225.0
 21
139.0
 31
0.0
  0
LINE
  8
0
 10
226.0
 20
162.0
 30
0.0
 11
237.0
 21
162.0
 31
0.0
  0
LINE
  8
0
 10
225.0
 20
161.0
 30
0.0
 11
226.0
 21
162.0
 31
0.0
  0
LINE
  8
0
 10
238.5
 20
167.0
 30
0.0
 11
245.657534
 21
167.0
 31
0.0
  0
ARC
  8
0
 10
238.5
 20
165.5
 30
0.0
 40
1.5
 50
90.0
 51
180.0
  0
LINE
  8
0
 10
226.0
 20
138.0
 30
0.0
 11
237.0
 21
138.0
 31
0.0
  0
LINE
  8
0
 10
238.5
 20
133.0
 30
0.0
 11
254.0
 21
133.0
 31
0.0
  0
ARC
  8
0
 10
238.5
 20
134.5
 30
0.0
 40
1.5
 50
180.0
 51
270.0
  0
ARC
  8
0
 10
263.0
 20
203.5
 30
0.0
 40
9.0
 50
296.310684
 51
180.0
  0
LINE
  8
0
 10
255.0
 20
201.5
 30
0.0
 11
257.0
 21
201.5
 31
0.0
  0
ARC
  8
0
 10
255.0
 20
202.5
 30
0.0
 40
1.0
 50
180.0
 51
270.0
  0
LINE
  8
0
 10
254.0
 20
96.5
 30
0.0
 11
254.0
 21
133.0
 31
0.0
  0
LINE
  8
0
 10
266.989145
 20
195.432366
 30
0.0
 11
260.5
 21
167.0
 31
0.0
  0
LINE
  8
0
  6
DASHDOTX2
 10
222.0
 20
150.0
 30
0.0
 11
275.0
 21
150.0
 31
0.0
  0
LINE
  8
0
  6
CONTINUOUS
 10
263.0
 20
133.0
 30
0.0
 11
263.0
 21
167.0
 31
0.0
  0
LINE
  8
0
  6
CONTINUOUS
 10
240.5
 20
161.0
 30
0.0
 11
263.0
 21
161.0
 31
0.0
  0
LINE
  8
0
  6
CONTINUOUS
 10
262.0
 20
161.0
 30
0.0
 11
262.0
 21
139.0
 31
0.0
  0
LINE
  8
0
  6
CONTINUOUS
 10
237.0
 20
162.5
 30
0.0
 11
238.5
 21
162.5
 31
0.0
  0
LINE
  8
0
  6
CONTINUOUS
 10
238.5
 20
162.5
 30
0.0
 11
238.5
 21
160.0
 31
0.0
  0
LINE
  8
0
  6
CONTINUOUS
 10
238.5
 20
160.0
 30
0.0
 11
240.5
 21
160.0
 31
0.0
  0
LINE
  8
0
  6
CONTINUOUS
 10
240.5
 20
160.0
 30
0.0
 11
240.5
 21
161.0
 31
0.0
  0
LINE
  8
0
 10
237.0
 20
138.0
 30
0.0
 11
237.0
 21
134.5
 31
0.0
  0
LINE
  8
0
 10
254.0
 20
192.375
 30
0.0
 11
254.0
 21
202.5
 31
0.0
  0
LINE
  8
0
 10
260.5
 20
167.0
 30
0.0
 11
263.0
 21
167.0
 31
0.0
  0
LINE
  8
0
  6
CONTINUOUS
 62
     0
 10
237.0
 20
164.875108
 30
0.0
 11
239.124892
 21
167.0
 31
0.0
  0
LINE
  8
0
  6
CONTINUOUS
 62
     0
 10
268.504345
 20
196.379453
 30
0.0
 11
270.120547
 21
197.995655
 31
0.0
  0
LINE
  8
0
  6
CONTINUOUS
 62
     0
 10
250.935224
 20
183.052973
 30
0.0
 11
271.98012
 21
204.097869
 31
0.0
  0
LINE
  8
0
  6
CONTINUOUS
 62
     0
 10
253.013252
 20
189.373642
 30
0.0
 11
271.08777
 21
207.44816
 31
0.0
  0
LINE
  8
0
  6
CONTINUOUS
 62
     0
 10
255.09128
 20
195.694311
 30
0.0
 11
269.312237
 21
209.915268
 31
0.0
  0
LINE
  8
0
  6
CONTINUOUS
 62
     0
 10
256.654329
 20
201.5
 30
0.0
 11
266.808702
 21
211.654373
 31
0.0
  0
LINE
  8
0
  6
CONTINUOUS
 62
     0
 10
254.0
 20
203.088312
 30
0.0
 11
263.402676
 21
212.490987
 31
0.0
  0
LINE
  8
0
  6
CONTINUOUS
 62
     0
 10
238.5
 20
162.132468
 30
0.0
 11
243.367532
 21
167.0
 31
0.0
  0
LINE
  8
0
  6
CONTINUOUS
 62
     0
 10
246.779168
 20
170.411635
 30
0.0
 11
265.566488
 21
189.198956
 31
0.0
  0
LINE
  8
0
  6
CONTINUOUS
 62
     0
 10
241.610173
 20
161.0
 30
0.0
 11
264.311836
 21
183.701663
 31
0.0
  0
LINE
  8
0
  6
CONTINUOUS
 62
     0
 10
245.852814
 20
161.0
 30
0.0
 11
263.057184
 21
178.20437
 31
0.0
  0
LINE
  8
0
  6
CONTINUOUS
 62
     0
 10
250.095454
 20
161.0
 30
0.0
 11
261.802531
 21
172.707077
 31
0.0
  0
LINE
  8
0
  6
CONTINUOUS
 62
     0
 10
254.338095
 20
161.0
 30
0.0
 11
260.547879
 21
167.209784
 31
0.0
  0
LINE
  8
0
  6
CONTINUOUS
 62
     0
 10
258.580736
 20
161.0
 30
0.0
 11
263.0
 21
165.419264
 31
0.0
  0
LINE
  8
0
  6
CONTINUOUS
 62
     0
 10
262.823376
 20
161.0
 30
0.0
 11
263.0
 21
161.176624
 31
0.0
  0
LINE
  8
0
  6
CONTINUOUS
 62
     0
 10
248.857196
 20
176.732304
 30
0.0
 11
266.82114
 21
194.696249
 31
0.0
  0
CIRCLE
  8
0
  6
CONTINUOUS
 10
430.0
 20
150.0
 30
0.0
 40
75.0
  0
ARC
  8
0
  6
CONTINUOUS
 10
430.0
 20
150.0
 30
0.0
 40
56.0
 50
346.841171
 51
73.158829
  0
CIRCLE
  8
0
  6
CONTINUOUS
 10
430.0
 20
150.0
 30
0.0
 40
20.0
  0
CIRCLE
  8
0
  6
CONTINUOUS
 10
430.0
 20
150.0
 30
0.0
 40
14.0
  0
LINE
  8
0
  6
CONTINUOUS
 10
443.0
 20
168.973666
 30
0.0
 11
443.0
 21
201.205468
 31
0.0
  0
LINE
  8
0
  6
CONTINUOUS
 10
417.0
 20
168.973666
 30
0.0
 11
417.0
 21
201.205468
 31
0.0
  0
LINE
  8
0
  6
CONTINUOUS
 10
407.068323
 20
151.771497
 30
0.0
 11
379.154764
 21
135.655596
 31
0.0
  0
LINE
  8
0
  6
CONTINUOUS
 10
420.068323
 20
129.254837
 30
0.0
 11
392.154764
 21
113.138936
 31
0.0
  0
LINE
  8
0
  6
CONTINUOUS
 10
439.931677
 20
129.254837
 30
0.0
 11
467.845236
 21
113.138936
 31
0.0
  0
LINE
  8
0
  6
CONTINUOUS
 10
452.931677
 20
151.771497
 30
0.0
 11
480.845236
 21
135.655596
 31
0.0
  0
ARC
  8
0
  6
CONTINUOUS
 10
430.0
 20
150.0
 30
0.0
 40
56.0
 50
106.841171
 51
193.158829
  0
ARC
  8
0
  6
CONTINUOUS
 10
430.0
 20
150.0
 30
0.0
 40
56.0
 50
226.841171
 51
313.158829
  0
ARC
  8
0
  6
CONTINUOUS
 10
482.095236
 20
137.82066
 30
0.0
 40
2.5
 50
240.0
 51
346.841171
  0
ARC
  8
0
  6
CONTINUOUS
 10
466.595236
 20
110.973872
 30
0.0
 40
2.5
 50
313.158829
 51
60.0
  0
ARC
  8
0
  6
CONTINUOUS
 10
393.404764
 20
110.973872
 30
0.0
 40
2.5
 50
120.0
 51
226.841171
  0
ARC
  8
0
  6
CONTINUOUS
 10
377.904764
 20
137.82066
 30
0.0
 40
2.5
 50
193.158829
 51
300.0
  0
ARC
  8
0
  6
CONTINUOUS
 10
445.5
 20
201.205468
 30
0.0
 40
2.5
 50
73.158829
 51
180.0
  0
ARC
  8
0
  6
CONTINUOUS
 10
414.5
 20
201.205468
 30
0.0
 40
2.5
 50
0.0
 51
106.841171
  0
ARC
  8
0
  6
CONTINUOUS
 10
430.0
 20
184.052098
 30
0.0
 40
25.402359
 50
50.3056
 51
129.6944
  0
ARC
  8
0
  6
CONTINUOUS
 10
400.510018
 20
132.973951
 30
0.0
 40
25.402359
 50
170.3056
 51
249.6944
  0
ARC
  8
0
  6
CONTINUOUS
 10
459.489982
 20
132.973951
 30
0.0
 40
25.402359
 50
290.3056
 51
9.6944
  0
ARC
  8
0
  6
CONTINUOUS
 10
405.818323
 20
153.936561
 30
0.0
 40
2.5
 50
300.0
 51
350.753867
  0
ARC
  8
0
  6
CONTINUOUS
 10
421.318323
 20
127.089773
 30
0.0
 40
2.5
 50
69.246133
 51
120.0
  0
ARC
  8
0
  6
CONTINUOUS
 10
438.681677
 20
127.089773
 30
0.0
 40
2.5
 50
60.0
 51
110.753867
  0
ARC
  8
0
  6
CONTINUOUS
 10
454.181677
 20
153.936561
 30
0.0
 40
2.5
 50
189.246133
 51
240.0
  0
ARC
  8
0
  6
CONTINUOUS
 10
445.5
 20
168.973666
 30
0.0
 40
2.5
 50
180.0
 51
230.753867
  0
ARC
  8
0
  6
CONTINUOUS
 10
430.0
 20
150.0
 30
0.0
 40
22.0
 50
129.246133
 51
170.753867
  0
ARC
  8
0
  6
CONTINUOUS
 10
414.5
 20
168.973666
 30
0.0
 40
2.5
 50
309.246133
 51
0.0
  0
ARC
  8
0
  6
CONTINUOUS
 10
430.0
 20
150.0
 30
0.0
 40
22.0
 50
9.246133
 51
50.753867
  0
ARC
  8
0
  6
CONTINUOUS
 10
430.0
 20
150.0
 30
0.0
 40
22.0
 50
249.246133
 51
290.753867
  0
LINE
  8
0
  6
CONTINUOUS
 10
450.0
 20
293.5
 30
0.0
 11
450.0
 21
300.108696
 31
0.0
  0
LINE
  8
0
  6
CONTINUOUS
 10
410.0
 20
293.5
 30
0.0
 11
410.0
 21
300.108696
 31
0.0
  0
LINE
  8
0
  6
CONTINUOUS
 10
415.5
 20
280.0
 30
0.0
 11
444.5
 21
280.0
 31
0.0
  0
LINE
  8
0
  6
CONTINUOUS
 10
446.0
 20
281.5
 30
0.0
 11
446.0
 21
292.0
 31
0.0
  0
LINE
  8
0
  6
CONTINUOUS
 10
414.0
 20
281.5
 30
0.0
 11
414.0
 21
292.0
 31
0.0
  0
LINE
  8
0
  6
CONTINUOUS
 10
448.5
 20
292.0
 30
0.0
 11
411.5
 21
292.0
 31
0.0
  0
LINE
  8
0
  6
CONTINUOUS
 10
444.5
 20
280.0
 30
0.0
 11
446.0
 21
281.5
 31
0.0
  0
LINE
  8
0
  6
CONTINUOUS
 10
415.5
 20
280.0
 30
0.0
 11
414.0
 21
281.5
 31
0.0
  0
ARC
  8
0
  6
CONTINUOUS
 10
448.5
 20
293.5
 30
0.0
 40
1.5
 50
270.0
 51
0.0
  0
ARC
  8
0
  6
CONTINUOUS
 10
411.5
 20
293.5
 30
0.0
 40
1.5
 50
180.0
 51
270.0
  0
ARC
  8
0
  6
CONTINUOUS
 10
411.5
 20
293.5
 30
0.0
 40
1.5
 50
180.0
 51
270.0
  0
LINE
  8
0
  6
CONTINUOUS
 10
495.0
 20
329.0
 30
0.0
 11
365.0
 21
329.0
 31
0.0
  0
LINE
  8
0
  6
CONTINUOUS
 10
495.0
 20
309.0
 30
0.0
 11
365.0
 21
309.0
 31
0.0
  0
ARC
  8
0
  6
CONTINUOUS
 10
495.0
 20
319.0
 30
0.0
 40
10.0
 50
270.0
 51
90.0
  0
ARC
  8
0
  6
CONTINUOUS
 10
365.0
 20
319.0
 30
0.0
 40
10.0
 50
90.0
 51
270.0
  0
LINE
  8
0
  6
CONTINUOUS
 10
436.0
 20
307.0
 30
0.0
 11
436.0
 21
309.0
 31
0.0
  0
ARC
  8
0
  6
CONTINUOUS
 10
430.294369
 20
287.592257
 30
0.0
 40
20.229056
 50
34.327923
 51
73.61733
  0
LINE
  8
0
  6
CONTINUOUS
 10
447.0
 20
299.0
 30
0.0
 11
474.058824
 21
309.0
 31
0.0
  0
LINE
  8
0
  6
CONTINUOUS
 10
413.0
 20
299.0
 30
0.0
 11
385.941176
 21
309.0
 31
0.0
  0
ARC
  8
0
  6
CONTINUOUS
 10
429.705631
 20
287.592257
 30
0.0
 40
20.229056
 50
106.38267
 51
145.672077
  0
LINE
  8
0
  6
CONTINUOUS
 10
424.0
 20
307.0
 30
0.0
 11
424.0
 21
309.0
 31
0.0
  0
LINE
  8
0
  6
CONTINUOUS
 10
639.0
 20
85.0
 30
0.0
 11
639.0
 21
215.0
 31
0.0
  0
LINE
  8
0
  6
CONTINUOUS
 10
619.0
 20
85.0
 30
0.0
 11
619.0
 21
128.063508
 31
0.0
  0
LINE
  8
0
  6
CONTINUOUS
 10
602.0
 20
131.5
 30
0.0
 11
602.0
 21
134.0
 31
0.0
  0
LINE
  8
0
  6
CONTINUOUS
 10
603.5
 20
170.0
 30
0.0
 11
609.0
 21
170.0
 31
0.0
  0
ARC
  8
0
  6
CONTINUOUS
 10
603.5
 20
168.5
 30
0.0
 40
1.5
 50
90.0
 51
180.0
  0
ARC
  8
0
  6
CONTINUOUS
 10
603.5
 20
168.5
 30
0.0
 40
1.5
 50
90.0
 51
180.0
  0
LINE
  8
0
  6
CONTINUOUS
 10
603.5
 20
130.0
 30
0.0
 11
616.5
 21
130.0
 31
0.0
  0
LINE
  8
0
  6
CONTINUOUS
 10
591.5
 20
166.0
 30
0.0
 11
602.0
 21
166.0
 31
0.0
  0
LINE
  8
0
  6
CONTINUOUS
 10
590.0
 20
164.5
 30
0.0
 11
591.5
 21
166.0
 31
0.0
  0
LINE
  8
0
  6
CONTINUOUS
 10
591.5
 20
134.0
 30
0.0
 11
602.0
 21
134.0
 31
0.0
  0
LINE
  8
0
  6
CONTINUOUS
 10
590.0
 20
135.5
 30
0.0
 11
591.5
 21
134.0
 31
0.0
  0
ARC
  8
0
  6
CONTINUOUS
 10
603.5
 20
131.5
 30
0.0
 40
1.5
 50
180.0
 51
270.0
  0
ARC
  8
0
  6
CONTINUOUS
 10
629.0
 20
215.0
 30
0.0
 40
10.0
 50
306.869898
 51
176.177446
  0
LINE
  8
0
  6
CONTINUOUS
 10
621.516685
 20
213.0
 30
0.0
 11
626.5
 21
213.0
 31
0.0
  0
LINE
  8
0
  6
CONTINUOUS
 10
609.0
 20
170.0
 30
0.0
 11
626.5
 21
213.0
 31
0.0
  0
LINE
  8
0
  6
DASHDOTX2
 10
587.0
 20
150.0
 30
0.0
 11
642.0
 21
150.0
 31
0.0
  0
ARC
  8
0
  6
CONTINUOUS
 10
621.516685
 20
215.5
 30
0.0
 40
2.5
 50
176.177446
 51
270.0
  0
LINE
  8
0
  6
CONTINUOUS
 10
628.0
 20
130.0
 30
0.0
 11
628.0
 21
170.0
 31
0.0
  0
LINE
  8
0
  6
CONTINUOUS
 10
607.0
 20
164.0
 30
0.0
 11
628.0
 21
164.0
 31
0.0
  0
LINE
  8
0
  6
CONTINUOUS
 10
627.0
 20
164.0
 30
0.0
 11
627.0
 21
136.0
 31
0.0
  0
LINE
  8
0
  6
CONTINUOUS
 10
619.0
 20
194.571429
 30
0.0
 11
619.0
 21
215.0
 31
0.0
  0
LINE
  8
0
  6
CONTINUOUS
 10
602.0
 20
166.5
 30
0.0
 11
603.5
 21
166.5
 31
0.0
  0
LINE
  8
0
  6
CONTINUOUS
 10
603.5
 20
166.5
 30
0.0
 11
603.5
 21
163.0
 31
0.0
  0
LINE
  8
0
  6
CONTINUOUS
 10
603.5
 20
163.0
 30
0.0
 11
607.0
 21
163.0
 31
0.0
  0
LINE
  8
0
  6
CONTINUOUS
 10
607.0
 20
163.0
 30
0.0
 11
607.0
 21
164.0
 31
0.0
  0
LINE
  8
0
  6
CONTINUOUS
 10
602.0
 20
166.0
 30
0.0
 11
602.0
 21
168.5
 31
0.0
  0
LINE
  8
0
  6
CONTINUOUS
 10
626.0
 20
170.0
 30
0.0
 11
635.0
 21
207.0
 31
0.0
  0
LINE
  8
0
  6
CONTINUOUS
 10
626.0
 20
170.0
 30
0.0
 11
628.0
 21
170.0
 31
0.0
  0
INSERT
  8
0
  6
CONTINUOUS
  2
*X0
 10
-50.0
 20
0.0
 30
0.0
1001
ACAD
1000
HATCH
1002
{
1070
    16
1000
_U
1040
3.0
1040
0.785398
1070
     0
1002
}
  0
CIRCLE
  8
0
  6
CONTINUOUS
 10
800.0
 20
150.0
 30
0.0
 40
87.5
  0
ARC
  8
0
  6
CONTINUOUS
 10
800.0
 20
150.0
 30
0.0
 40
66.0
 50
112.150036
 51
187.849964
  0
CIRCLE
  8
0
  6
CONTINUOUS
 10
800.0
 20
150.0
 30
0.0
 40
25.0
  0
CIRCLE
  8
0
  6
CONTINUOUS
 10
800.0
 20
150.0
 30
0.0
 40
17.0
  0
LINE
  8
0
  6
CONTINUOUS
 10
814.936304
 20
171.889651
 30
0.0
 11
813.872469
 21
203.450074
 31
0.0
  0
ARC
  8
0
  6
CONTINUOUS
 10
800.0
 20
150.0
 30
0.0
 40
26.5
 50
124.307495
 51
175.692505
  0
LINE
  8
0
  6
CONTINUOUS
 10
785.063696
 20
171.889651
 30
0.0
 11
786.127531
 21
203.450074
 31
0.0
  0
LINE
  8
0
  6
CONTINUOUS
 10
773.574854
 20
151.990393
 30
0.0
 11
746.774643
 21
135.288874
 31
0.0
  0
LINE
  8
0
  6
CONTINUOUS
 10
788.511158
 20
126.119956
 30
0.0
 11
760.647113
 21
111.261052
 31
0.0
  0
LINE
  8
0
  6
CONTINUOUS
 10
811.488842
 20
126.119956
 30
0.0
 11
839.352887
 21
111.261052
 31
0.0
  0
LINE
  8
0
  6
CONTINUOUS
 10
826.425146
 20
151.990393
 30
0.0
 11
853.225357
 21
135.288874
 31
0.0
  0
ARC
  8
0
  6
CONTINUOUS
 10
821.867928
 20
203.719584
 30
0.0
 40
8.0
 50
67.849964
 51
181.930587
  0
ARC
  8
0
  6
CONTINUOUS
 10
778.132072
 20
203.719584
 30
0.0
 40
8.0
 50
358.069413
 51
112.150036
  0
ARC
  8
0
  6
CONTINUOUS
 10
800.0
 20
150.0
 30
0.0
 40
66.0
 50
352.150036
 51
67.849964
  0
ARC
  8
0
  6
CONTINUOUS
 10
857.456489
 20
142.07839
 30
0.0
 40
8.0
 50
238.069413
 51
352.150036
  0
ARC
  8
0
  6
CONTINUOUS
 10
835.58856
 20
104.202026
 30
0.0
 40
8.0
 50
307.849964
 51
61.930587
  0
ARC
  8
0
  6
CONTINUOUS
 10
800.0
 20
150.0
 30
0.0
 40
26.5
 50
4.307495
 51
55.692505
  0
ARC
  8
0
  6
CONTINUOUS
 10
800.0
 20
150.0
 30
0.0
 40
66.0
 50
232.150036
 51
307.849964
  0
ARC
  8
0
  6
CONTINUOUS
 10
764.41144
 20
104.202026
 30
0.0
 40
8.0
 50
118.069413
 51
232.150036
  0
ARC
  8
0
  6
CONTINUOUS
 10
742.543511
 20
142.07839
 30
0.0
 40
8.0
 50
187.849964
 51
301.930587
  0
ARC
  8
0
  6
CONTINUOUS
 10
800.0
 20
150.0
 30
0.0
 40
26.5
 50
244.307495
 51
295.692505
  0
ARC
  8
0
  6
CONTINUOUS
 10
800.0
 20
170.348289
 30
0.0
 40
47.773469
 50
58.608772
 51
121.391228
  0
LINE
  8
0
  6
CONTINUOUS
 10
825.0
 20
316.0
 30
0.0
 11
825.0
 21
323.345794
 31
0.0
  0
LINE
  8
0
  6
CONTINUOUS
 10
775.5
 20
316.0
 30
0.0
 11
775.5
 21
323.17757
 31
0.0
  0
LINE
  8
0
  6
CONTINUOUS
 10
820.0
 20
301.5
 30
0.0
 11
820.0
 21
315.0
 31
0.0
  0
LINE
  8
0
  6
CONTINUOUS
 10
776.5
 20
315.0
 30
0.0
 11
824.0
 21
315.0
 31
0.0
  0
LINE
  8
0
  6
CONTINUOUS
 10
818.5
 20
300.0
 30
0.0
 11
781.5
 21
300.0
 31
0.0
  0
LINE
  8
0
  6
CONTINUOUS
 10
780.0
 20
301.5
 30
0.0
 11
780.0
 21
315.0
 31
0.0
  0
LINE
  8
0
  6
CONTINUOUS
 10
877.0
 20
356.0
 30
0.0
 11
723.0
 21
356.0
 31
0.0
  0
LINE
  8
0
  6
CONTINUOUS
 10
877.0
 20
335.0
 30
0.0
 11
723.0
 21
335.0
 31
0.0
  0
ARC
  8
0
  6
CONTINUOUS
 10
824.0
 20
316.0
 30
0.0
 40
1.0
 50
270.0
 51
0.0
  0
ARC
  8
0
  6
CONTINUOUS
 10
776.5
 20
316.0
 30
0.0
 40
1.0
 50
180.0
 51
270.0
  0
LINE
  8
0
  6
CONTINUOUS
 10
820.0
 20
301.5
 30
0.0
 11
818.5
 21
300.0
 31
0.0
  0
LINE
  8
0
  6
CONTINUOUS
 10
781.5
 20
300.0
 30
0.0
 11
780.0
 21
301.5
 31
0.0
  0
ARC
  8
0
  6
CONTINUOUS
 10
877.0
 20
345.5
 30
0.0
 40
10.5
 50
270.0
 51
90.0
  0
ARC
  8
0
  6
CONTINUOUS
 10
723.0
 20
345.5
 30
0.0
 40
10.5
 50
90.0
 51
270.0
  0
LINE
  8
0
  6
CONTINUOUS
 10
809.5
 20
332.0
 30
0.0
 11
790.5
 21
332.0
 31
0.0
  0
ARC
  8
0
  6
CONTINUOUS
 10
804.530423
 20
310.110544
 30
0.0
 40
20.312708
 50
35.825674
 51
68.424359
  0
LINE
  8
0
  6
CONTINUOUS
 10
812.0
 20
329.0
 30
0.0
 11
809.5
 21
332.0
 31
0.0
  0
LINE
  8
0
  6
CONTINUOUS
 10
859.638889
 20
335.0
 30
0.0
 11
821.0
 21
322.0
 31
0.0
  0
LINE
  8
0
  6
CONTINUOUS
 10
788.0
 20
329.0
 30
0.0
 11
790.5
 21
332.0
 31
0.0
  0
ARC
  8
0
  6
CONTINUOUS
 10
795.469577
 20
310.110544
 30
0.0
 40
20.312708
 50
111.575641
 51
144.174326
  0
LINE
  8
0
  6
CONTINUOUS
 10
740.361111
 20
335.0
 30
0.0
 11
779.0
 21
322.0
 31
0.0
  0
LINE
  8
0
  6
CONTINUOUS
 10
812.0
 20
329.0
 30
0.0
 11
830.428571
 21
335.0
 31
0.0
  0
LINE
  8
0
  6
CONTINUOUS
 10
788.0
 20
329.0
 30
0.0
 11
769.571429
 21
335.0
 31
0.0
  0
LINE
  8
0
  6
CONTINUOUS
 10
1005.0
 20
73.0
 30
0.0
 11
1005.0
 21
125.0
 31
0.0
  0
LINE
  8
0
  6
CONTINUOUS
 10
1026.0
 20
73.0
 30
0.0
 11
1026.0
 21
227.0
 31
0.0
  0
LINE
  8
0
  6
CONTINUOUS
 10
970.0
 20
131.5
 30
0.0
 11
970.0
 21
168.5
 31
0.0
  0
LINE
  8
0
  6
CONTINUOUS
 10
985.0
 20
173.5
 30
0.0
 11
985.0
 21
170.0
 31
0.0
  0
LINE
  8
0
  6
CONTINUOUS
 10
971.5
 20
170.0
 30
0.0
 11
985.0
 21
170.0
 31
0.0
  0
LINE
  8
0
  6
CONTINUOUS
 10
970.0
 20
168.5
 30
0.0
 11
971.5
 21
170.0
 31
0.0
  0
LINE
  8
0
  6
CONTINUOUS
 10
986.0
 20
174.5
 30
0.0
 11
992.0
 21
174.5
 31
0.0
  0
ARC
  8
0
  6
CONTINUOUS
 10
986.0
 20
173.5
 30
0.0
 40
1.0
 50
90.0
 51
180.0
  0
LINE
  8
0
  6
CONTINUOUS
 10
971.5
 20
130.0
 30
0.0
 11
985.0
 21
130.0
 31
0.0
  0
LINE
  8
0
  6
CONTINUOUS
 10
971.5
 20
130.0
 30
0.0
 11
970.0
 21
131.5
 31
0.0
  0
LINE
  8
0
  6
CONTINUOUS
 10
986.0
 20
125.0
 30
0.0
 11
1002.0
 21
125.0
 31
0.0
  0
ARC
  8
0
  6
CONTINUOUS
 10
986.0
 20
126.0
 30
0.0
 40
1.0
 50
180.0
 51
270.0
  0
ARC
  8
0
  6
CONTINUOUS
 10
1015.5
 20
227.0
 30
0.0
 40
10.5
 50
307.602424
 51
186.37937
  0
LINE
  8
0
  6
CONTINUOUS
 10
1006.555728
 20
224.5
 30
0.0
 11
1010.0
 21
224.5
 31
0.0
  0
LINE
  8
0
  6
CONTINUOUS
 10
1012.0
 20
125.0
 30
0.0
 11
1012.0
 21
174.5
 31
0.0
  0
LINE
  8
0
  6
CONTINUOUS
 10
1009.0
 20
174.5
 30
0.0
 11
1021.906876
 21
218.68123
 31
0.0
  0
ARC
  8
0
  6
CONTINUOUS
 10
1006.555728
 20
226.0
 30
0.0
 40
1.5
 50
186.37937
 51
270.0
  0
LINE
  8
0
  6
CONTINUOUS
 10
1009.0
 20
174.5
 30
0.0
 11
1012.0
 21
174.5
 31
0.0
  0
LINE
  8
0
  6
CONTINUOUS
 10
992.0
 20
174.5
 30
0.0
 11
1010.0
 21
224.5
 31
0.0
  0
LINE
  8
0
  6
DASHDOTX2
 10
967.0
 20
150.0
 30
0.0
 11
1029.0
 21
150.0
 31
0.0
  0
LINE
  8
0
  6
CONTINUOUS
 10
1005.0
 20
210.611111
 30
0.0
 11
1005.0
 21
227.0
 31
0.0
  0
LINE
  8
0
  6
CONTINUOUS
 10
989.5
 20
167.0
 30
0.0
 11
1012.0
 21
167.0
 31
0.0
  0
LINE
  8
0
  6
CONTINUOUS
 10
1010.0
 20
167.0
 30
0.0
 11
1010.0
 21
133.0
 31
0.0
  0
LINE
  8
0
  6
CONTINUOUS
 10
985.0
 20
171.0
 30
0.0
 11
987.0
 21
171.0
 31
0.0
  0
LINE
  8
0
  6
CONTINUOUS
 10
987.0
 20
171.0
 30
0.0
 11
987.0
 21
165.5
 31
0.0
  0
LINE
  8
0
  6
CONTINUOUS
 10
987.0
 20
165.5
 30
0.0
 11
989.5
 21
165.5
 31
0.0
  0
LINE
  8
0
  6
CONTINUOUS
 10
989.5
 20
165.5
 30
0.0
 11
989.5
 21
167.0
 31
0.0
  0
LINE
  8
0
  6
CONTINUOUS
 10
985.0
 20
130.0
 30
0.0
 11
985.0
 21
126.0
 31
0.0
  0
INSERT
  8
0
  6
CONTINUOUS
  2
*X1
 10
-70.0
 20
0.0
 30
0.0
1001
ACAD
1000
HATCH
1002
{
1070
    16
1000
_U
1040
3.0
1040
0.785398
1070
     0
1002
}
  0
ARC
  8
0
  6
CONTINUOUS
 10
1015.5
 20
73.0
 30
0.0
 40
10.5
 50
173.62063
 51
90.0
  0
LINE
  8
0
  6
CONTINUOUS
 10
1012.5
 20
75.5
 30
0.0
 11
1006.555728
 21
75.5
 31
0.0
  0
LINE
  8
0
  6
CONTINUOUS
 10
1014.0
 20
191.615385
 30
0.0
 11
1014.0
 21
138.5
 31
0.0
  0
ARC
  8
0
  6
CONTINUOUS
 10
1012.5
 20
77.0
 30
0.0
 40
1.5
 50
270.0
 51
0.0
  0
ARC
  8
0
  6
CONTINUOUS
 10
1015.5
 20
82.0
 30
0.0
 40
1.5
 50
90.0
 51
180.0
  0
ARC
  8
0
  6
CONTINUOUS
 10
1006.555728
 20
74.0
 30
0.0
 40
1.5
 50
90.0
 51
173.62063
  0
INSERT
  8
0
  6
CONTINUOUS
  2
*X2
 10
0.0
 20
0.0
 30
0.0
1001
ACAD
1000
HATCH
1002
{
1070
    16
1000
_U
1040
3.0
1040
0.785398
1070
     0
1002
}
  0
LINE
  8
0
  6
CONTINUOUS
 10
1011.976923
 20
109.5
 30
0.0
 11
1014.0
 21
98.5
 31
0.0
  0
LINE
  8
0
  6
CONTINUOUS
 10
1014.0
 20
98.5
 30
0.0
 11
1014.0
 21
77.0
 31
0.0
  0
LINE
  8
0
  6
CONTINUOUS
 10
989.5
 20
133.0
 30
0.0
 11
1012.0
 21
133.0
 31
0.0
  0
ARC
  8
0
  6
CONTINUOUS
 10
1003.5
 20
125.0
 30
0.0
 40
1.5
 50
180.0
 51
0.0
  0
LINE
  8
0
  6
CONTINUOUS
 10
1005.0
 20
125.0
 30
0.0
 11
1012.0
 21
125.0
 31
0.0
  0
LINE
  8
0
  6
CONTINUOUS
 10
989.5
 20
134.5
 30
0.0
 11
989.5
 21
133.0
 31
0.0
  0
LINE
  8
0
  6
CONTINUOUS
 10
987.0
 20
134.5
 30
0.0
 11
989.5
 21
134.5
 31
0.0
  0
LINE
  8
0
  6
CONTINUOUS
 10
987.0
 20
129.0
 30
0.0
 11
987.0
 21
134.5
 31
0.0
  0
LINE
  8
0
  6
CONTINUOUS
 10
985.0
 20
129.0
 30
0.0
 11
987.0
 21
129.0
 31
0.0
  0
INSERT
  8
0
  6
CONTINUOUS
  2
*X3
 10
0.0
 20
0.0
 30
0.0
1001
ACAD
1000
HATCH
1002
{
1070
    16
1000
_U
1040
3.0
1040
0.785398
1070
     0
1002
}
  0
LINE
  8
0
  6
CONTINUOUS
 10
971.0
 20
153.0
 30
0.0
 11
989.0
 21
153.0
 31
0.0
  0
LINE
  8
0
  6
CONTINUOUS
 10
989.033301
 20
152.983177
 30
0.0
 11
991.0
 21
150.0
 31
0.0
  0
LINE
  8
0
  6
CONTINUOUS
 10
970.0
 20
154.0
 30
0.0
 11
971.0
 21
153.0
 31
0.0
  0
LINE
  8
0
  6
CONTINUOUS
 10
970.0
 20
146.0
 30
0.0
 11
971.0
 21
147.0
 31
0.0
  0
LINE
  8
0
  6
CONTINUOUS
 10
971.0
 20
147.0
 30
0.0
 11
989.0
 21
147.0
 31
0.0
  0
LINE
  8
0
  6
CONTINUOUS
 10
989.033301
 20
147.016823
 30
0.0
 11
991.0
 21
150.0
 31
0.0
  0
LINE
  8
0
  6
CONTINUOUS
 10
989.0
 20
153.0
 30
0.0
 11
989.0
 21
147.0
 31
0.0
  0
LINE
  8
0
  6
CONTINUOUS
 10
971.0
 20
147.0
 30
0.0
 11
971.0
 21
153.0
 31
0.0
  0
INSERT
  8
0
  6
CONTINUOUS
  2
*X4
 10
0.0
 20
0.0
 30
0.0
1001
ACAD
1000
HATCH
1002
{
1070
    16
1000
_U
1040
3.0
1040
2.356194
1070
     0
1002
}
  0
LINE
  8
0
  6
CONTINUOUS
 10
970.0
 20
145.533815
 30
0.0
 11
986.553208
 21
129.0
 31
0.0
  0
CIRCLE
  8
0
  6
CONTINUOUS
 10
100.0
 20
-300.0
 30
0.0
 40
100.0
  0
ARC
  8
0
  6
CONTINUOUS
 10
100.0
 20
-300.0
 30
0.0
 40
76.0
 50
110.354995
 51
189.645005
  0
CIRCLE
  8
0
  6
CONTINUOUS
 10
100.0
 20
-300.0
 30
0.0
 40
25.0
  0
CIRCLE
  8
0
  6
CONTINUOUS
 10
100.0
 20
-300.0
 30
0.0
 40
17.0
  0
LINE
  8
0
  6
CONTINUOUS
 10
117.803701
 20
-279.106734
 30
0.0
 11
115.662979
 21
-236.649076
 31
0.0
  0
LINE
  8
0
  6
CONTINUOUS
 10
82.196299
 20
-279.106734
 30
0.0
 11
84.337021
 21
-236.649076
 31
0.0
  0
ARC
  8
0
  6
CONTINUOUS
 10
100.0
 20
-300.0
 30
0.0
 40
27.0
 50
132.629593
 51
167.370407
  0
LINE
  8
0
  6
CONTINUOUS
 10
73.00405
 20
-295.028176
 30
0.0
 11
37.305001
 21
-318.110925
 31
0.0
  0
LINE
  8
0
  6
CONTINUOUS
 10
90.807751
 20
-325.86509
 30
0.0
 11
52.96798
 21
-345.239999
 31
0.0
  0
LINE
  8
0
  6
CONTINUOUS
 10
109.192249
 20
-325.86509
 30
0.0
 11
147.03202
 21
-345.239999
 31
0.0
  0
LINE
  8
0
  6
CONTINUOUS
 10
126.99595
 20
-295.028176
 30
0.0
 11
162.694999
 21
-318.110925
 31
0.0
  0
ARC
  8
0
  6
CONTINUOUS
 10
100.0
 20
-300.0
 30
0.0
 40
76.0
 50
350.354995
 51
69.645005
  0
ARC
  8
0
  6
CONTINUOUS
 10
100.0
 20
-300.0
 30
0.0
 40
76.0
 50
230.354995
 51
309.645005
  0
ARC
  8
0
  6
CONTINUOUS
 10
100.0
 20
-300.0
 30
0.0
 40
27.0
 50
12.629593
 51
47.370407
  0
ARC
  8
0
  6
CONTINUOUS
 10
100.0
 20
-300.0
 30
0.0
 40
27.0
 50
252.629593
 51
287.370407
  0
ARC
  8
0
  6
CONTINUOUS
 10
119.301798
 20
-279.031199
 30
0.0
 40
1.5
 50
182.886419
 51
227.370407
  0
ARC
  8
0
  6
CONTINUOUS
 10
127.810413
 20
-293.768553
 30
0.0
 40
1.5
 50
192.629593
 51
237.113581
  0
ARC
  8
0
  6
CONTINUOUS
 10
108.508615
 20
-327.200248
 30
0.0
 40
1.5
 50
62.886419
 51
107.370407
  0
ARC
  8
0
  6
CONTINUOUS
 10
91.491385
 20
-327.200248
 30
0.0
 40
1.5
 50
72.629593
 51
117.113581
  0
ARC
  8
0
  6
CONTINUOUS
 10
72.189587
 20
-293.768553
 30
0.0
 40
1.5
 50
302.886419
 51
347.370407
  0
ARC
  8
0
  6
CONTINUOUS
 10
80.698202
 20
-279.031199
 30
0.0
 40
1.5
 50
312.629593
 51
357.113581
  0
ARC
  8
0
  6
CONTINUOUS
 10
123.652829
 20
-236.246226
 30
0.0
 40
8.0
 50
69.645005
 51
182.886419
  0
ARC
  8
0
  6
CONTINUOUS
 10
76.347171
 20
-236.246226
 30
0.0
 40
8.0
 50
357.113581
 51
110.354995
  0
ARC
  8
0
  6
CONTINUOUS
 10
32.961198
 20
-311.392936
 30
0.0
 40
8.0
 50
189.645005
 51
302.886419
  0
ARC
  8
0
  6
CONTINUOUS
 10
56.614027
 20
-352.360838
 30
0.0
 40
8.0
 50
117.113581
 51
230.354995
  0
ARC
  8
0
  6
CONTINUOUS
 10
143.385973
 20
-352.360838
 30
0.0
 40
8.0
 50
309.645005
 51
62.886419
  0
ARC
  8
0
  6
CONTINUOUS
 10
167.038802
 20
-311.392936
 30
0.0
 40
8.0
 50
237.113581
 51
350.354995
  0
ARC
  8
0
  6
CONTINUOUS
 10
100.0
 20
-266.052245
 30
0.0
 40
45.723174
 50
54.678455
 51
125.321545
  0
ARC
  8
0
  6
CONTINUOUS
 10
70.600382
 20
-316.973877
 30
0.0
 40
45.723174
 50
174.678455
 51
245.321545
  0
ARC
  8
0
  6
CONTINUOUS
 10
129.399618
 20
-316.973877
 30
0.0
 40
45.723174
 50
294.678455
 51
5.321545
  0
LINE
  8
0
  6
CONTINUOUS
 10
125.5
 20
-103.0
 30
0.0
 11
125.5
 21
-96.48855
 31
0.0
  0
LINE
  8
0
  6
CONTINUOUS
 10
75.0
 20
-103.0
 30
0.0
 11
75.0
 21
-96.656489
 31
0.0
  0
LINE
  8
0
  6
CONTINUOUS
 10
118.5
 20
-120.0
 30
0.0
 11
81.5
 21
-120.0
 31
0.0
  0
LINE
  8
0
  6
CONTINUOUS
 10
120.0
 20
-118.5
 30
0.0
 11
120.0
 21
-104.5
 31
0.0
  0
LINE
  8
0
  6
CONTINUOUS
 10
76.5
 20
-104.5
 30
0.0
 11
124.0
 21
-104.5
 31
0.0
  0
LINE
  8
0
  6
CONTINUOUS
 10
80.0
 20
-118.5
 30
0.0
 11
80.0
 21
-104.5
 31
0.0
  0
ARC
  8
0
  6
CONTINUOUS
 10
124.0
 20
-103.0
 30
0.0
 40
1.5
 50
270.0
 51
0.0
  0
ARC
  8
0
  6
CONTINUOUS
 10
76.5
 20
-103.0
 30
0.0
 40
1.5
 50
180.0
 51
270.0
  0
LINE
  8
0
  6
CONTINUOUS
 10
118.5
 20
-120.0
 30
0.0
 11
120.0
 21
-118.5
 31
0.0
  0
LINE
  8
0
  6
CONTINUOUS
 10
81.5
 20
-120.0
 30
0.0
 11
80.0
 21
-118.5
 31
0.0
  0
LINE
  8
0
  6
CONTINUOUS
 10
188.0
 20
-59.0
 30
0.0
 11
12.0
 21
-59.0
 31
0.0
  0
LINE
  8
0
  6
CONTINUOUS
 10
188.0
 20
-83.0
 30
0.0
 11
12.0
 21
-83.0
 31
0.0
  0
ARC
  8
0
  6
CONTINUOUS
 10
188.0
 20
-71.0
 30
0.0
 40
12.0
 50
270.0
 51
90.0
  0
LINE
  8
0
  6
CONTINUOUS
 10
106.5
 20
-86.5
 30
0.0
 11
93.5
 21
-86.5
 31
0.0
  0
ARC
  8
0
  6
CONTINUOUS
 10
12.0
 20
-71.0
 30
0.0
 40
12.0
 50
90.0
 51
270.0
  0
LINE
  8
0
  6
CONTINUOUS
 10
121.0
 20
-98.0
 30
0.0
 11
165.659091
 21
-83.0
 31
0.0
  0
LINE
  8
0
  6
CONTINUOUS
 10
106.5
 20
-86.5
 30
0.0
 11
107.5
 21
-88.0
 31
0.0
  0
ARC
  8
0
  6
CONTINUOUS
 10
90.954604
 20
-124.448784
 30
0.0
 40
40.02829
 50
41.357272
 51
65.585017
  0
LINE
  8
0
  6
CONTINUOUS
 10
79.0
 20
-98.0
 30
0.0
 11
34.340909
 21
-83.0
 31
0.0
  0
ARC
  8
0
  6
CONTINUOUS
 10
109.045396
 20
-124.448784
 30
0.0
 40
40.02829
 50
114.414983
 51
138.642728
  0
LINE
  8
0
  6
CONTINUOUS
 10
93.5
 20
-86.5
 30
0.0
 11
92.5
 21
-88.0
 31
0.0
  0
LINE
  8
0
  6
CONTINUOUS
 10
338.5
 20
-386.5
 30
0.0
 11
344.5
 21
-386.5
 31
0.0
  0
ARC
  8
0
  6
CONTINUOUS
 10
349.0
 20
-212.0
 30
0.0
 40
12.0
 50
310.740509
 51
180.0
  0
ARC
  8
0
  6
CONTINUOUS
 10
349.0
 20
-388.0
 30
0.0
 40
12.0
 50
180.0
 51
98.213211
  0
LINE
  8
0
  6
CONTINUOUS
 10
337.0
 20
-388.0
 30
0.0
 11
337.0
 21
-337.086207
 31
0.0
  0
LINE
  8
0
  6
CONTINUOUS
 10
301.5
 20
-280.0
 30
0.0
 11
317.0
 21
-280.0
 31
0.0
  0
LINE
  8
0
  6
CONTINUOUS
 10
301.5
 20
-320.0
 30
0.0
 11
317.0
 21
-320.0
 31
0.0
  0
LINE
  8
0
  6
CONTINUOUS
 10
300.0
 20
-318.5
 30
0.0
 11
300.0
 21
-281.5
 31
0.0
  0
LINE
  8
0
  6
CONTINUOUS
 10
300.0
 20
-281.5
 30
0.0
 11
301.5
 21
-280.0
 31
0.0
  0
LINE
  8
0
  6
CONTINUOUS
 10
300.0
 20
-318.5
 30
0.0
 11
301.5
 21
-320.0
 31
0.0
  0
LINE
  8
0
  6
CONTINUOUS
 10
315.5
 20
-276.5
 30
0.0
 11
315.5
 21
-280.0
 31
0.0
  0
LINE
  8
0
  6
CONTINUOUS
 10
317.0
 20
-275.0
 30
0.0
 11
322.0
 21
-275.0
 31
0.0
  0
ARC
  8
0
  6
CONTINUOUS
 10
317.0
 20
-276.5
 30
0.0
 40
1.5
 50
90.0
 51
180.0
  0
LINE
  8
0
  6
CONTINUOUS
 10
317.0
 20
-325.5
 30
0.0
 11
333.5
 21
-325.5
 31
0.0
  0
ARC
  8
0
  6
CONTINUOUS
 10
317.0
 20
-324.0
 30
0.0
 40
1.5
 50
180.0
 51
270.0
  0
LINE
  8
0
  6
CONTINUOUS
 10
361.0
 20
-388.0
 30
0.0
 11
361.0
 21
-212.0
 31
0.0
  0
LINE
  8
0
  6
CONTINUOUS
 10
106.5
 20
-86.5
 30
0.0
 11
119.333333
 21
-83.0
 31
0.0
  0
LINE
  8
0
  6
CONTINUOUS
 10
93.5
 20
-86.5
 30
0.0
 11
80.666667
 21
-83.0
 31
0.0
  0
LINE
  8
0
  6
CONTINUOUS
 10
338.5
 20
-213.5
 30
0.0
 11
344.0
 21
-213.5
 31
0.0
  0
LINE
  8
0
  6
CONTINUOUS
 10
344.0
 20
-213.5
 30
0.0
 11
322.0
 21
-275.0
 31
0.0
  0
LINE
  8
0
  6
CONTINUOUS
 10
346.0
 20
-259.177419
 30
0.0
 11
346.0
 21
-304.206022
 31
0.0
  0
ARC
  8
0
  6
CONTINUOUS
 10
344.5
 20
-385.0
 30
0.0
 40
1.5
 50
270.0
 51
0.0
  0
ARC
  8
0
  6
CONTINUOUS
 10
347.5
 20
-377.607695
 30
0.0
 40
1.5
 50
98.213211
 51
180.0
  0
ARC
  8
0
  6
CONTINUOUS
 10
338.5
 20
-388.0
 30
0.0
 40
1.5
 50
90.0
 51
180.0
  0
INSERT
  8
0
  6
CONTINUOUS
  2
*X5
 10
0.0
 20
0.0
 30
0.0
1001
ACAD
1000
HATCH
1002
{
1070
    16
1000
_U
1040
3.0
1040
0.785398
1070
     0
1002
}
  0
ARC
  8
0
  6
CONTINUOUS
 10
338.5
 20
-212.0
 30
0.0
 40
1.5
 50
180.0
 51
270.0
  0
LINE
  8
0
  6
CONTINUOUS
 10
345.5
 20
-276.0
 30
0.0
 11
345.5
 21
-324.5
 31
0.0
  0
ARC
  8
0
  6
CONTINUOUS
 10
344.5
 20
-276.0
 30
0.0
 40
1.0
 50
0.0
 51
90.0
  0
ARC
  8
0
  6
CONTINUOUS
 10
344.5
 20
-324.5
 30
0.0
 40
1.0
 50
270.0
 51
0.0
  0
LINE
  8
0
  6
CONTINUOUS
 10
341.5
 20
-275.0
 30
0.0
 11
356.831611
 21
-221.092077
 31
0.0
  0
LINE
  8
0
  6
CONTINUOUS
 10
315.5
 20
-320.0
 30
0.0
 11
315.5
 21
-324.0
 31
0.0
  0
LINE
  8
0
  6
CONTINUOUS
 10
337.0
 20
-233.068182
 30
0.0
 11
337.0
 21
-212.0
 31
0.0
  0
LINE
  8
0
  6
CONTINUOUS
 10
341.5
 20
-275.0
 30
0.0
 11
344.5
 21
-275.0
 31
0.0
  0
ARC
  8
0
  6
CONTINUOUS
 10
882.706287
 20
125.584064
 30
0.0
 40
134.058142
 50
348.344177
 51
3.599296
  0
ARC
  8
0
  6
CONTINUOUS
 10
289.271152
 20
-321.760069
 30
0.0
 40
67.598251
 50
327.056355
 51
1.915975
  0
LINE
  8
0
  6
CONTINUOUS
 10
356.831611
 20
-319.5
 30
0.0
 11
345.5
 21
-303.500034
 31
0.0
  0
LINE
  8
0
  6
CONTINUOUS
 10
346.0
 20
-358.520936
 30
0.0
 11
346.0
 21
-385.0
 31
0.0
  0
LINE
  8
0
  6
CONTINUOUS
 10
330.0
 20
-325.5
 30
0.0
 11
344.5
 21
-349.5
 31
0.0
  0
LINE
  8
0
  6
CONTINUOUS
 10
344.5
 20
-349.5
 30
0.0
 11
346.0
 21
-358.520936
 31
0.0
  0
LINE
  8
0
  6
DASHDOTX2
 10
297.0
 20
-300.0
 30
0.0
 11
364.0
 21
-300.0
 31
0.0
  0
LINE
  8
0
  6
CONTINUOUS
 10
319.033301
 20
-302.983177
 30
0.0
 11
321.0
 21
-300.0
 31
0.0
  0
LINE
  8
0
  6
CONTINUOUS
 10
319.033301
 20
-297.016823
 30
0.0
 11
321.0
 21
-300.0
 31
0.0
  0
LINE
  8
0
  6
CONTINUOUS
 10
319.0
 20
-297.0
 30
0.0
 11
319.0
 21
-303.0
 31
0.0
  0
LINE
  8
0
  6
CONTINUOUS
 10
301.0
 20
-297.0
 30
0.0
 11
319.0
 21
-297.0
 31
0.0
  0
LINE
  8
0
  6
CONTINUOUS
 10
301.0
 20
-303.0
 30
0.0
 11
319.0
 21
-303.0
 31
0.0
  0
LINE
  8
0
  6
CONTINUOUS
 10
301.0
 20
-303.0
 30
0.0
 11
301.0
 21
-297.0
 31
0.0
  0
LINE
  8
0
  6
CONTINUOUS
 10
300.0
 20
-304.0
 30
0.0
 11
301.0
 21
-303.0
 31
0.0
  0
LINE
  8
0
  6
CONTINUOUS
 10
300.0
 20
-296.0
 30
0.0
 11
301.0
 21
-297.0
 31
0.0
  0
LINE
  8
0
  6
CONTINUOUS
 10
319.0
 20
-317.0
 30
0.0
 11
345.5
 21
-317.0
 31
0.0
  0
LINE
  8
0
  6
CONTINUOUS
 10
344.5
 20
-283.0
 30
0.0
 11
344.5
 21
-317.0
 31
0.0
  0
LINE
  8
0
  6
CONTINUOUS
 10
317.0
 20
-320.0
 30
0.0
 11
317.0
 21
-316.0
 31
0.0
  0
LINE
  8
0
  6
CONTINUOUS
 10
317.0
 20
-316.0
 30
0.0
 11
319.0
 21
-316.0
 31
0.0
  0
LINE
  8
0
  6
CONTINUOUS
 10
319.0
 20
-316.0
 30
0.0
 11
319.0
 21
-317.0
 31
0.0
  0
LINE
  8
0
  6
CONTINUOUS
 10
319.0
 20
-284.0
 30
0.0
 11
319.0
 21
-283.0
 31
0.0
  0
LINE
  8
0
  6
CONTINUOUS
 10
317.0
 20
-284.0
 30
0.0
 11
319.0
 21
-284.0
 31
0.0
  0
LINE
  8
0
  6
CONTINUOUS
 10
317.0
 20
-280.0
 30
0.0
 11
317.0
 21
-284.0
 31
0.0
  0
LINE
  8
0
  6
CONTINUOUS
 10
319.0
 20
-283.0
 30
0.0
 11
345.5
 21
-283.0
 31
0.0
  0
INSERT
  8
0
  6
CONTINUOUS
  2
*X6
 10
0.0
 20
0.0
 30
0.0
1001
ACAD
1000
HATCH
1002
{
1070
    16
1000
_U
1040
3.0
1040
2.356194
1070
     0
1002
}
  0
INSERT
  8
0
  6
CONTINUOUS
  2
*X7
 10
0.0
 20
0.0
 30
0.0
1001
ACAD
1000
HATCH
1002
{
1070
    16
1000
_U
1040
3.0
1040
0.785398
1070
     0
1002
}
  0
CIRCLE
  8
0
  6
CONTINUOUS
 10
600.0
 20
-300.0
 30
0.0
 40
125.0
  0
ARC
  8
0
  6
CONTINUOUS
 10
600.0
 20
-300.0
 30
0.0
 40
97.0
 50
112.427435
 51
187.572565
  0
CIRCLE
  8
0
  6
CONTINUOUS
 10
600.0
 20
-300.0
 30
0.0
 40
30.0
  0
ARC
  8
0
  6
CONTINUOUS
 10
600.0
 20
-300.0
 30
0.0
 40
33.0
 50
132.838445
 51
167.161555
  0
ARC
  8
0
  6
CONTINUOUS
 10
336.5
 20
-323.333333
 30
0.0
 40
3.700601
 50
215.837653
 51
324.162347
  0
LINE
  8
0
  6
CONTINUOUS
 10
339.5
 20
-325.5
 30
0.0
 11
344.5
 21
-325.5
 31
0.0
  0
INSERT
  8
0
  6
CONTINUOUS
  2
*X8
 10
0.0
 20
0.0
 30
0.0
1001
ACAD
1000
HATCH
1002
{
1070
    16
1000
_U
1040
3.0
1040
0.785398
1070
     0
1002
}
  0
CIRCLE
  8
0
  6
CONTINUOUS
 10
600.0
 20
-300.0
 30
0.0
 40
20.0
  0
LINE
  8
0
  6
CONTINUOUS
 10
621.960047
 20
-274.785839
 30
0.0
 11
619.067391
 21
-223.079607
 31
0.0
  0
LINE
  8
0
  6
CONTINUOUS
 10
578.039953
 20
-274.785839
 30
0.0
 11
580.932609
 21
-223.079607
 31
0.0
  0
ARC
  8
0
  6
CONTINUOUS
 10
632.047095
 20
-222.353469
 30
0.0
 40
13.0
 50
67.572565
 51
183.202021
  0
ARC
  8
0
  6
CONTINUOUS
 10
567.952905
 20
-222.353469
 30
0.0
 40
13.0
 50
356.797979
 51
112.427435
  0
LINE
  8
0
  6
CONTINUOUS
 10
567.183873
 20
-293.589122
 30
0.0
 11
523.85129
 21
-321.947352
 31
0.0
  0
ARC
  8
0
  6
CONTINUOUS
 10
516.732585
 20
-311.069667
 30
0.0
 40
13.0
 50
187.572565
 51
303.202021
  0
ARC
  8
0
  6
CONTINUOUS
 10
548.779679
 20
-366.576864
 30
0.0
 40
13.0
 50
116.797979
 51
232.427435
  0
LINE
  8
0
  6
CONTINUOUS
 10
589.14392
 20
-331.625039
 30
0.0
 11
542.918681
 21
-354.973041
 31
0.0
  0
LINE
  8
0
  6
CONTINUOUS
 10
610.85608
 20
-331.625039
 30
0.0
 11
657.081319
 21
-354.973041
 31
0.0
  0
ARC
  8
0
  6
CONTINUOUS
 10
651.220321
 20
-366.576864
 30
0.0
 40
13.0
 50
307.572565
 51
63.202021
  0
ARC
  8
0
  6
CONTINUOUS
 10
683.267415
 20
-311.069667
 30
0.0
 40
13.0
 50
236.797979
 51
352.427435
  0
LINE
  8
0
  6
CONTINUOUS
 10
632.816127
 20
-293.589122
 30
0.0
 11
676.14871
 21
-321.947352
 31
0.0
  0
ARC
  8
0
  6
CONTINUOUS
 10
600.0
 20
-300.0
 30
0.0
 40
97.0
 50
352.427435
 51
67.572565
  0
ARC
  8
0
  6
CONTINUOUS
 10
600.0
 20
-300.0
 30
0.0
 40
97.0
 50
232.427435
 51
307.572565
  0
ARC
  8
0
  6
CONTINUOUS
 10
600.0
 20
-300.0
 30
0.0
 40
33.0
 50
12.838445
 51
47.161555
  0
ARC
  8
0
  6
CONTINUOUS
 10
600.0
 20
-300.0
 30
0.0
 40
33.0
 50
252.838445
 51
287.161555
  0
ARC
  8
0
  6
CONTINUOUS
 10
623.457705
 20
-274.702054
 30
0.0
 40
1.5
 50
183.202021
 51
227.161555
  0
ARC
  8
0
  6
CONTINUOUS
 10
576.542295
 20
-274.702054
 30
0.0
 40
1.5
 50
312.838445
 51
356.797979
  0
ARC
  8
0
  6
CONTINUOUS
 10
566.362484
 20
-292.334004
 30
0.0
 40
1.5
 50
303.202021
 51
347.161555
  0
ARC
  8
0
  6
CONTINUOUS
 10
589.820189
 20
-332.963942
 30
0.0
 40
1.5
 50
72.838445
 51
116.797979
  0
ARC
  8
0
  6
CONTINUOUS
 10
610.179811
 20
-332.963942
 30
0.0
 40
1.5
 50
63.202021
 51
107.161555
  0
ARC
  8
0
  6
CONTINUOUS
 10
633.637516
 20
-292.334004
 30
0.0
 40
1.5
 50
192.838445
 51
236.797979
  0
ARC
  8
0
  6
CONTINUOUS
 10
600.0
 20
-273.16523
 30
0.0
 40
72.917208
 50
59.501382
 51
120.498618
  0
ARC
  8
0
  6
CONTINUOUS
 10
576.760407
 20
-313.417385
 30
0.0
 40
72.917208
 50
179.501382
 51
240.498618
  0
ARC
  8
0
  6
CONTINUOUS
 10
623.239593
 20
-313.417385
 30
0.0
 40
72.917208
 50
299.501382
 51
0.498618
  0
LINE
  8
0
  6
CONTINUOUS
 10
630.0
 20
-65.5
 30
0.0
 11
630.0
 21
-54.411765
 31
0.0
  0
LINE
  8
0
  6
CONTINUOUS
 10
577.5
 20
-80.0
 30
0.0
 11
622.5
 21
-80.0
 31
0.0
  0
LINE
  8
0
  6
CONTINUOUS
 10
570.0
 20
-65.5
 30
0.0
 11
570.0
 21
-54.411765
 31
0.0
  0
LINE
  8
0
  6
CONTINUOUS
 10
624.0
 20
-78.5
 30
0.0
 11
624.0
 21
-67.0
 31
0.0
  0
LINE
  8
0
  6
CONTINUOUS
 10
624.0
 20
-67.0
 30
0.0
 11
624.0
 21
-73.0
 31
0.0
  0
LINE
  8
0
  6
CONTINUOUS
 10
576.0
 20
-78.5
 30
0.0
 11
576.0
 21
-67.0
 31
0.0
  0
LINE
  8
0
  6
CONTINUOUS
 10
571.5
 20
-67.0
 30
0.0
 11
628.5
 21
-67.0
 31
0.0
  0
LINE
  8
0
  6
CONTINUOUS
 10
622.5
 20
-80.0
 30
0.0
 11
624.0
 21
-78.5
 31
0.0
  0
LINE
  8
0
  6
CONTINUOUS
 10
577.5
 20
-80.0
 30
0.0
 11
576.0
 21
-78.5
 31
0.0
  0
ARC
  8
0
  6
CONTINUOUS
 10
628.5
 20
-65.5
 30
0.0
 40
1.5
 50
270.0
 51
0.0
  0
ARC
  8
0
  6
CONTINUOUS
 10
571.5
 20
-65.5
 30
0.0
 40
1.5
 50
180.0
 51
270.0
  0
LINE
  8
0
  6
CONTINUOUS
 10
711.0
 20
-8.0
 30
0.0
 11
489.0
 21
-8.0
 31
0.0
  0
LINE
  8
0
  6
CONTINUOUS
 10
711.0
 20
-36.0
 30
0.0
 11
489.0
 21
-36.0
 31
0.0
  0
ARC
  8
0
  6
CONTINUOUS
 10
711.0
 20
-22.0
 30
0.0
 40
14.0
 50
270.0
 51
90.0
  0
ARC
  8
0
  6
CONTINUOUS
 10
489.0
 20
-22.0
 30
0.0
 40
14.0
 50
90.0
 51
270.0
  0
LINE
  8
0
  6
CONTINUOUS
 10
942.0
 20
-411.0
 30
0.0
 11
942.0
 21
-189.0
 31
0.0
  0
LINE
  8
0
  6
CONTINUOUS
 10
914.0
 20
-411.0
 30
0.0
 11
914.0
 21
-341.564516
 31
0.0
  0
LINE
  8
0
  6
CONTINUOUS
 10
883.0
 20
-271.5
 30
0.0
 11
883.0
 21
-276.0
 31
0.0
  0
LINE
  8
0
  6
CONTINUOUS
 10
871.5
 20
-276.0
 30
0.0
 11
883.0
 21
-276.0
 31
0.0
  0
LINE
  8
0
  6
CONTINUOUS
 10
870.0
 20
-277.5
 30
0.0
 11
871.5
 21
-276.0
 31
0.0
  0
ARC
  8
0
  6
CONTINUOUS
 10
928.0
 20
-189.0
 30
0.0
 40
14.0
 50
297.664004
 51
182.292443
  0
LINE
  8
0
  6
CONTINUOUS
 10
884.5
 20
-270.0
 30
0.0
 11
894.0
 21
-270.0
 31
0.0
  0
ARC
  8
0
  6
CONTINUOUS
 10
884.5
 20
-271.5
 30
0.0
 40
1.5
 50
90.0
 51
180.0
  0
LINE
  8
0
  6
CONTINUOUS
 10
871.5
 20
-324.0
 30
0.0
 11
883.0
 21
-324.0
 31
0.0
  0
LINE
  8
0
  6
CONTINUOUS
 10
870.0
 20
-322.5
 30
0.0
 11
871.5
 21
-324.0
 31
0.0
  0
ARC
  8
0
  6
CONTINUOUS
 10
928.0
 20
-411.0
 30
0.0
 40
14.0
 50
177.707557
 51
92.292443
  0
LINE
  8
0
  6
CONTINUOUS
 10
884.5
 20
-330.0
 30
0.0
 11
905.0
 21
-330.0
 31
0.0
  0
LINE
  8
0
  6
CONTINUOUS
 10
883.0
 20
-324.0
 30
0.0
 11
877.0
 21
-324.0
 31
0.0
  0
ARC
  8
0
  6
CONTINUOUS
 10
884.5
 20
-328.5
 30
0.0
 40
1.5
 50
180.0
 51
270.0
  0
LINE
  8
0
  6
CONTINUOUS
 10
687.962963
 20
-36.0
 30
0.0
 11
625.0
 21
-56.0
 31
0.0
  0
LINE
  8
0
  6
CONTINUOUS
 10
590.0
 20
-45.0
 30
0.0
 11
610.0
 21
-45.0
 31
0.0
  0
ARC
  8
0
  6
CONTINUOUS
 10
589.018745
 20
-89.338075
 30
0.0
 40
49.051788
 50
42.816342
 51
64.675983
  0
LINE
  8
0
  6
CONTINUOUS
 10
610.0
 20
-45.0
 30
0.0
 11
637.150083
 21
-36.0
 31
0.0
  0
LINE
  8
0
  6
CONTINUOUS
 10
590.0
 20
-39.0
 30
0.0
 11
610.0
 21
-39.0
 31
0.0
  0
LINE
  8
0
  6
CONTINUOUS
 10
610.0
 20
-39.0
 30
0.0
 11
619.050028
 21
-36.0
 31
0.0
  0
LINE
  8
0
  6
CONTINUOUS
 10
512.037037
 20
-36.0
 30
0.0
 11
575.0
 21
-56.0
 31
0.0
  0
ARC
  8
0
  6
CONTINUOUS
 10
610.981255
 20
-89.338075
 30
0.0
 40
49.051788
 50
115.324017
 51
137.183658
  0
LINE
  8
0
  6
CONTINUOUS
 10
590.0
 20
-45.0
 30
0.0
 11
562.849917
 21
-36.0
 31
0.0
  0
LINE
  8
0
  6
CONTINUOUS
 10
590.0
 20
-39.0
 30
0.0
 11
580.949972
 21
-36.0
 31
0.0
  0
LINE
  8
0
  6
CONTINUOUS
 10
894.0
 20
-270.0
 30
0.0
 11
921.0
 21
-191.0
 31
0.0
  0
LINE
  8
0
  6
CONTINUOUS
 10
926.0
 20
-231.302337
 30
0.0
 11
926.0
 21
-317.61747
 31
0.0
  0
LINE
  8
0
  6
CONTINUOUS
 10
924.5
 20
-409.0
 30
0.0
 11
915.510004
 21
-409.0
 31
0.0
  0
ARC
  8
0
  6
CONTINUOUS
 10
924.5
 20
-407.5
 30
0.0
 40
1.5
 50
270.0
 51
0.0
  0
ARC
  8
0
  6
CONTINUOUS
 10
915.510004
 20
-410.5
 30
0.0
 40
1.5
 50
90.0
 51
177.707557
  0
ARC
  8
0
  6
CONTINUOUS
 10
927.5
 20
-398.510004
 30
0.0
 40
1.5
 50
92.292443
 51
180.0
  0
LINE
  8
0
  6
CONTINUOUS
 10
921.0
 20
-191.0
 30
0.0
 11
915.510004
 21
-191.0
 31
0.0
  0
ARC
  8
0
  6
CONTINUOUS
 10
915.510004
 20
-189.5
 30
0.0
 40
1.5
 50
182.292443
 51
270.0
  0
LINE
  8
0
  6
CONTINUOUS
 10
887.0
 20
-280.0
 30
0.0
 11
920.0
 21
-280.0
 31
0.0
  0
LINE
  8
0
  6
CONTINUOUS
 10
887.0
 20
-320.0
 30
0.0
 11
920.0
 21
-320.0
 31
0.0
  0
LINE
  8
0
  6
CONTINUOUS
 10
920.0
 20
-270.0
 30
0.0
 11
920.0
 21
-330.0
 31
0.0
  0
LINE
  8
0
  6
CONTINUOUS
 10
918.5
 20
-280.0
 30
0.0
 11
918.5
 21
-320.0
 31
0.0
  0
INSERT
  8
0
  6
CONTINUOUS
  2
*X9
 10
0.0
 20
0.0
 30
0.0
1001
ACAD
1000
HATCH
1002
{
1070
    16
1000
_U
1040
3.0
1040
0.785398
1070
     0
1002
}
  0
ARC
  8
0
  6
CONTINUOUS
 10
744.544149
 20
-320.589853
 30
0.0
 40
189.986458
 50
342.765255
 51
358.971519
  0
LINE
  8
0
  6
CONTINUOUS
 10
920.0
 20
-313.112155
 30
0.0
 11
934.5
 21
-324.0
 31
0.0
  0
ARC
  8
0
  6
CONTINUOUS
 10
908.0
 20
-330.0
 30
0.0
 40
3.0
 50
180.0
 51
0.0
  0
LINE
  8
0
  6
CONTINUOUS
 10
911.0
 20
-330.0
 30
0.0
 11
920.0
 21
-330.0
 31
0.0
  0
LINE
  8
0
  6
CONTINUOUS
 10
908.825235
 20
-332.884265
 30
0.0
 11
923.5
 21
-357.5
 31
0.0
  0
LINE
  8
0
  6
CONTINUOUS
 10
923.5
 20
-357.5
 30
0.0
 11
926.0
 21
-376.880426
 31
0.0
  0
LINE
  8
0
  6
CONTINUOUS
 10
926.0
 20
-376.880426
 30
0.0
 11
926.0
 21
-407.5
 31
0.0
  0
LINE
  8
0
  6
CONTINUOUS
 10
915.0
 20
-270.0
 30
0.0
 11
934.5
 21
-201.399597
 31
0.0
  0
LINE
  8
0
  6
CONTINUOUS
 10
914.0
 20
-211.481481
 30
0.0
 11
914.0
 21
-189.0
 31
0.0
  0
LINE
  8
0
  6
CONTINUOUS
 10
883.0
 20
-275.0
 30
0.0
 11
885.0
 21
-275.0
 31
0.0
  0
LINE
  8
0
  6
CONTINUOUS
 10
885.0
 20
-275.0
 30
0.0
 11
885.0
 21
-281.5
 31
0.0
  0
LINE
  8
0
  6
CONTINUOUS
 10
885.0
 20
-281.5
 30
0.0
 11
887.0
 21
-281.5
 31
0.0
  0
LINE
  8
0
  6
CONTINUOUS
 10
887.0
 20
-281.5
 30
0.0
 11
887.0
 21
-280.0
 31
0.0
  0
LINE
  8
0
  6
CONTINUOUS
 10
883.0
 20
-325.0
 30
0.0
 11
885.0
 21
-325.0
 31
0.0
  0
LINE
  8
0
  6
CONTINUOUS
 10
885.0
 20
-325.0
 30
0.0
 11
885.0
 21
-318.5
 31
0.0
  0
LINE
  8
0
  6
CONTINUOUS
 10
885.0
 20
-318.5
 30
0.0
 11
887.0
 21
-318.5
 31
0.0
  0
LINE
  8
0
  6
CONTINUOUS
 10
887.0
 20
-318.5
 30
0.0
 11
887.0
 21
-320.0
 31
0.0
  0
LINE
  8
0
  6
CONTINUOUS
 10
883.0
 20
-324.0
 30
0.0
 11
883.0
 21
-328.5
 31
0.0
  0
LINE
  8
0
  6
DASHDOTX2
 10
867.0
 20
-300.0
 30
0.0
 11
945.0
 21
-300.0
 31
0.0
  0
LINE
  8
0
  6
CONTINUOUS
 10
889.033301
 20
-302.983177
 30
0.0
 11
891.0
 21
-300.0
 31
0.0
  0
LINE
  8
0
  6
CONTINUOUS
 10
889.033301
 20
-297.016823
 30
0.0
 11
891.0
 21
-300.0
 31
0.0
  0
LINE
  8
0
  6
CONTINUOUS
 10
889.0
 20
-297.0
 30
0.0
 11
889.0
 21
-303.0
 31
0.0
  0
LINE
  8
0
  6
CONTINUOUS
 10
871.0
 20
-297.0
 30
0.0
 11
889.0
 21
-297.0
 31
0.0
  0
LINE
  8
0
  6
CONTINUOUS
 10
871.0
 20
-303.0
 30
0.0
 11
889.0
 21
-303.0
 31
0.0
  0
LINE
  8
0
  6
CONTINUOUS
 10
871.0
 20
-303.0
 30
0.0
 11
871.0
 21
-297.0
 31
0.0
  0
LINE
  8
0
  6
CONTINUOUS
 10
870.0
 20
-304.0
 30
0.0
 11
871.0
 21
-303.0
 31
0.0
  0
LINE
  8
0
  6
CONTINUOUS
 10
870.0
 20
-296.0
 30
0.0
 11
871.0
 21
-297.0
 31
0.0
  0
LINE
  8
0
  6
CONTINUOUS
 10
870.0
 20
-277.5
 30
0.0
 11
870.0
 21
-322.5
 31
0.0
  0
LINE
  8
0
  6
CONTINUOUS
 10
915.0
 20
-270.0
 30
0.0
 11
920.0
 21
-270.0
 31
0.0
  0
INSERT
  8
0
  6
CONTINUOUS
  2
*X10
 10
0.0
 20
0.0
 30
0.0
1001
ACAD
1000
HATCH
1002
{
1070
    16
1000
_U
1040
3.0
1040
0.785398
1070
     0
1002
}
  0
INSERT
  8
0
  6
CONTINUOUS
  2
*X11
 10
0.0
 20
0.0
 30
0.0
1001
ACAD
1000
HATCH
1002
{
1070
    16
1000
_U
1040
3.0
1040
0.785398
1070
     0
1002
}
  0
INSERT
  8
0
  6
CONTINUOUS
  2
*X12
 10
0.0
 20
0.0
 30
0.0
1001
ACAD
1000
HATCH
1002
{
1070
    16
1000
_U
1040
3.0
1040
2.356194
1070
     0
1002
}
  0
LINE
  8
0
  6
CONTINUOUS
 10
1006.831935
 20
125.0
 30
0.0
 11
1011.976923
 21
109.5
 31
0.0
  0
LINE
  8
0
  6
CONTINUOUS
 10
1012.0
 20
142.1
 30
0.0
 11
1016.5
 21
134.0
 31
0.0
  0
ARC
  8
0
  6
CONTINUOUS
 10
629.0
 20
85.0
 30
0.0
 40
10.0
 50
180.0
 51
100.164249
  0
LINE
  8
0
  6
CONTINUOUS
 10
626.0
 20
109.150221
 30
0.0
 11
626.0
 21
88.0
 31
0.0
  0
LINE
  8
0
  6
CONTINUOUS
 10
624.5
 20
86.5
 30
0.0
 11
620.5
 21
86.5
 31
0.0
  0
ARC
  8
0
  6
CONTINUOUS
 10
624.5
 20
88.0
 30
0.0
 40
1.5
 50
270.0
 51
0.0
  0
ARC
  8
0
  6
CONTINUOUS
 10
627.5
 20
93.3666
 30
0.0
 40
1.5
 50
100.164249
 51
180.0
  0
ARC
  8
0
  6
CONTINUOUS
 10
620.5
 20
85.0
 30
0.0
 40
1.5
 50
90.0
 51
180.0
  0
INSERT
  8
0
  6
CONTINUOUS
  2
*X13
 10
0.0
 20
0.0
 30
0.0
1001
ACAD
1000
HATCH
1002
{
1070
    16
1000
_U
1040
3.0
1040
0.785398
1070
     0
1002
}
  0
ARC
  8
0
  6
CONTINUOUS
 10
618.5
 20
130.0
 30
0.0
 40
2.0
 50
180.0
 51
0.0
  0
LINE
  8
0
  6
CONTINUOUS
 10
628.0
 20
149.5
 30
0.0
 11
635.0
 21
135.5
 31
0.0
  0
ARC
  8
0
  6
CONTINUOUS
 10
595.981993
 20
134.115041
 30
0.0
 40
39.042579
 50
320.251007
 51
2.032882
  0
LINE
  8
0
  6
CONTINUOUS
 10
626.0
 20
109.150221
 30
0.0
 11
625.5
 21
113.0
 31
0.0
  0
LINE
  8
0
  6
CONTINUOUS
 10
625.5
 20
113.0
 30
0.0
 11
619.097601
 21
128.091369
 31
0.0
  0
LINE
  8
0
  6
CONTINUOUS
 10
620.5
 20
130.0
 30
0.0
 11
628.0
 21
130.0
 31
0.0
  0
LINE
  8
0
  6
CONTINUOUS
 10
609.0
 20
153.0
 30
0.0
 11
609.0
 21
147.0
 31
0.0
  0
LINE
  8
0
  6
CONTINUOUS
 10
609.033301
 20
152.983177
 30
0.0
 11
611.0
 21
150.0
 31
0.0
  0
LINE
  8
0
  6
CONTINUOUS
 10
609.033301
 20
147.016823
 30
0.0
 11
611.0
 21
150.0
 31
0.0
  0
LINE
  8
0
  6
CONTINUOUS
 10
591.0
 20
147.0
 30
0.0
 11
609.0
 21
147.0
 31
0.0
  0
LINE
  8
0
  6
CONTINUOUS
 10
591.0
 20
153.0
 30
0.0
 11
609.0
 21
153.0
 31
0.0
  0
LINE
  8
0
  6
CONTINUOUS
 10
590.0
 20
154.0
 30
0.0
 11
591.0
 21
153.0
 31
0.0
  0
LINE
  8
0
  6
CONTINUOUS
 10
591.0
 20
147.0
 30
0.0
 11
591.0
 21
153.0
 31
0.0
  0
LINE
  8
0
  6
CONTINUOUS
 10
590.0
 20
146.0
 30
0.0
 11
591.0
 21
147.0
 31
0.0
  0
LINE
  8
0
  6
CONTINUOUS
 10
590.0
 20
164.5
 30
0.0
 11
590.0
 21
135.5
 31
0.0
  0
LINE
  8
0
  6
CONTINUOUS
 10
607.0
 20
136.0
 30
0.0
 11
628.0
 21
136.0
 31
0.0
  0
LINE
  8
0
  6
CONTINUOUS
 10
607.0
 20
137.0
 30
0.0
 11
607.0
 21
136.0
 31
0.0
  0
LINE
  8
0
  6
CONTINUOUS
 10
603.5
 20
137.0
 30
0.0
 11
607.0
 21
137.0
 31
0.0
  0
LINE
  8
0
  6
CONTINUOUS
 10
603.5
 20
133.5
 30
0.0
 11
603.5
 21
137.0
 31
0.0
  0
LINE
  8
0
  6
CONTINUOUS
 10
602.0
 20
133.5
 30
0.0
 11
603.5
 21
133.5
 31
0.0
  0
INSERT
  8
0
  6
CONTINUOUS
  2
*X14
 10
0.0
 20
0.0
 30
0.0
1001
ACAD
1000
HATCH
1002
{
1070
    16
1000
_U
1040
3.0
1040
0.785398
1070
     0
1002
}
  0
INSERT
  8
0
  6
CONTINUOUS
  2
*X15
 10
0.0
 20
0.0
 30
0.0
1001
ACAD
1000
HATCH
1002
{
1070
    16
1000
_U
1040
3.0
1040
2.356194
1070
     0
1002
}
  0
ARC
  8
0
  6
CONTINUOUS
 10
263.0
 20
96.5
 30
0.0
 40
9.0
 50
168.463041
 51
97.662256
  0
LINE
  8
0
  6
CONTINUOUS
 10
260.5
 20
116.176455
 30
0.0
 11
260.5
 21
101.0
 31
0.0
  0
LINE
  8
0
  6
CONTINUOUS
 10
259.0
 20
99.5
 30
0.0
 11
255.651531
 21
99.5
 31
0.0
  0
ARC
  8
0
  6
CONTINUOUS
 10
259.0
 20
101.0
 30
0.0
 40
1.5
 50
270.0
 51
0.0
  0
ARC
  8
0
  6
CONTINUOUS
 10
262.0
 20
103.933034
 30
0.0
 40
1.5
 50
97.662256
 51
180.0
  0
ARC
  8
0
  6
CONTINUOUS
 10
255.651531
 20
98.0
 30
0.0
 40
1.5
 50
90.0
 51
168.463041
  0
INSERT
  8
0
  6
CONTINUOUS
  2
*X16
 10
0.0
 20
0.0
 30
0.0
1001
ACAD
1000
HATCH
1002
{
1070
    16
1000
_U
1040
3.0
1040
0.785398
1070
     0
1002
}
  0
ARC
  8
0
  6
CONTINUOUS
 10
256.0
 20
133.583333
 30
0.0
 40
2.083333
 50
196.260205
 51
343.739795
  0
LINE
  8
0
 10
258.0
 20
133.0
 30
0.0
 11
263.0
 21
133.0
 31
0.0
  0
LINE
  8
0
  6
CONTINUOUS
 10
263.0
 20
147.991636
 30
0.0
 11
266.989145
 21
140.0
 31
0.0
  0
ARC
  8
0
  6
CONTINUOUS
 10
224.244785
 20
138.866804
 30
0.0
 40
42.77023
 50
327.959584
 51
1.518227
  0
LINE
  8
0
  6
CONTINUOUS
 10
256.408179
 20
131.540378
 30
0.0
 11
260.0
 21
120.5
 31
0.0
  0
LINE
  8
0
  6
CONTINUOUS
 10
260.0
 20
120.5
 30
0.0
 11
260.5
 21
116.176455
 31
0.0
  0
LINE
  8
0
  6
CONTINUOUS
 10
240.5
 20
139.0
 30
0.0
 11
263.0
 21
139.0
 31
0.0
  0
LINE
  8
0
  6
CONTINUOUS
 10
240.5
 20
140.0
 30
0.0
 11
240.5
 21
139.0
 31
0.0
  0
LINE
  8
0
  6
CONTINUOUS
 10
238.5
 20
140.0
 30
0.0
 11
240.5
 21
140.0
 31
0.0
  0
LINE
  8
0
  6
CONTINUOUS
 10
238.5
 20
137.5
 30
0.0
 11
238.5
 21
140.0
 31
0.0
  0
LINE
  8
0
  6
CONTINUOUS
 10
237.0
 20
137.5
 30
0.0
 11
238.5
 21
137.5
 31
0.0
  0
INSERT
  8
0
  6
CONTINUOUS
  2
*X17
 10
0.0
 20
0.0
 30
0.0
1001
ACAD
1000
HATCH
1002
{
1070
    16
1000
_U
1040
3.0
1040
0.785398
1070
     0
1002
}
  0
LINE
  8
0
  6
CONTINUOUS
 10
244.033301
 20
147.016823
 30
0.0
 11
246.0
 21
150.0
 31
0.0
  0
LINE
  8
0
  6
CONTINUOUS
 10
244.033301
 20
152.983177
 30
0.0
 11
246.0
 21
150.0
 31
0.0
  0
LINE
  8
0
  6
CONTINUOUS
 10
244.0
 20
153.0
 30
0.0
 11
244.0
 21
147.0
 31
0.0
  0
LINE
  8
0
  6
CONTINUOUS
 10
226.0
 20
153.0
 30
0.0
 11
244.0
 21
153.0
 31
0.0
  0
LINE
  8
0
  6
CONTINUOUS
 10
226.0
 20
147.0
 30
0.0
 11
244.0
 21
147.0
 31
0.0
  0
LINE
  8
0
  6
CONTINUOUS
 10
225.0
 20
146.0
 30
0.0
 11
226.0
 21
147.0
 31
0.0
  0
LINE
  8
0
  6
CONTINUOUS
 10
226.0
 20
147.0
 30
0.0
 11
226.0
 21
153.0
 31
0.0
  0
LINE
  8
0
  6
CONTINUOUS
 10
225.0
 20
154.0
 30
0.0
 11
226.0
 21
153.0
 31
0.0
  0
LINE
  8
0
 10
225.0
 20
161.0
 30
0.0
 11
225.0
 21
139.0
 31
0.0
  0
INSERT
  8
0
  6
CONTINUOUS
  2
*X18
 10
0.0
 20
0.0
 30
0.0
1001
ACAD
1000
HATCH
1002
{
1070
    16
1000
_U
1040
3.0
1040
2.356194
1070
     0
1002
}
  0
CIRCLE
  8
0
  6
CONTINUOUS
 10
100.0
 20
-850.0
 30
0.0
 40
150.0
  0
ARC
  8
0
  6
CONTINUOUS
 10
100.0
 20
-850.0
 30
0.0
 40
115.0
 50
108.567561
 51
191.432439
  0
CIRCLE
  8
0
  6
CONTINUOUS
 10
100.0
 20
-850.0
 30
0.0
 40
35.0
  0
ARC
  8
0
  6
CONTINUOUS
 10
100.0
 20
-850.0
 30
0.0
 40
39.0
 50
128.938604
 51
171.061396
  0
CIRCLE
  8
0
  6
CONTINUOUS
 10
100.0
 20
-850.0
 30
0.0
 40
24.0
  0
LINE
  8
0
  6
CONTINUOUS
 10
123.955452
 20
-818.570069
 30
0.0
 11
120.81128
 21
-752.935461
 31
0.0
  0
LINE
  8
0
  6
CONTINUOUS
 10
76.044548
 20
-818.570069
 30
0.0
 11
79.18872
 21
-752.935461
 31
0.0
  0
LINE
  8
0
  6
CONTINUOUS
 10
60.803155
 20
-844.968935
 30
0.0
 11
5.534004
 21
-880.509173
 31
0.0
  0
LINE
  8
0
  6
CONTINUOUS
 10
84.758608
 20
-886.460996
 30
0.0
 11
26.345283
 21
-916.555366
 31
0.0
  0
LINE
  8
0
  6
CONTINUOUS
 10
115.241392
 20
-886.460996
 30
0.0
 11
173.654717
 21
-916.555366
 31
0.0
  0
LINE
  8
0
  6
CONTINUOUS
 10
139.196845
 20
-844.968935
 30
0.0
 11
194.465996
 21
-880.509173
 31
0.0
  0
ARC
  8
0
  6
CONTINUOUS
 10
100.0
 20
-850.0
 30
0.0
 40
115.0
 50
348.567561
 51
71.432439
  0
ARC
  8
0
  6
CONTINUOUS
 10
100.0
 20
-850.0
 30
0.0
 40
115.0
 50
228.567561
 51
311.432439
  0
ARC
  8
0
  6
CONTINUOUS
 10
132.797534
 20
-752.361269
 30
0.0
 40
12.0
 50
71.432439
 51
182.742611
  0
ARC
  8
0
  6
CONTINUOUS
 10
67.202466
 20
-752.361269
 30
0.0
 40
12.0
 50
357.257389
 51
108.567561
  0
ARC
  8
0
  6
CONTINUOUS
 10
200.956388
 20
-870.415867
 30
0.0
 40
12.0
 50
237.257389
 51
348.567561
  0
ARC
  8
0
  6
CONTINUOUS
 10
168.158854
 20
-927.222863
 30
0.0
 40
12.0
 50
311.432439
 51
62.742611
  0
ARC
  8
0
  6
CONTINUOUS
 10
31.841146
 20
-927.222863
 30
0.0
 40
12.0
 50
117.257389
 51
228.567561
  0
ARC
  8
0
  6
CONTINUOUS
 10
-0.956388
 20
-870.415867
 30
0.0
 40
12.0
 50
191.432439
 51
302.742611
  0
ARC
  8
0
  6
CONTINUOUS
 10
100.0
 20
-814.015289
 30
0.0
 40
81.695878
 50
63.369771
 51
116.630229
  0
ARC
  8
0
  6
CONTINUOUS
 10
68.836326
 20
-867.992355
 30
0.0
 40
81.695878
 50
183.369771
 51
236.630229
  0
ARC
  8
0
  6
CONTINUOUS
 10
131.163674
 20
-867.992355
 30
0.0
 40
81.695878
 50
303.369771
 51
356.630229
  0
ARC
  8
0
  6
CONTINUOUS
 10
100.0
 20
-850.0
 30
0.0
 40
39.0
 50
8.938604
 51
51.061396
  0
ARC
  8
0
  6
CONTINUOUS
 10
100.0
 20
-850.0
 30
0.0
 40
39.0
 50
248.938604
 51
291.061396
  0
ARC
  8
0
  6
CONTINUOUS
 10
140.008144
 20
-843.707272
 30
0.0
 40
1.5
 50
188.938604
 51
237.257389
  0
ARC
  8
0
  6
CONTINUOUS
 10
125.453734
 20
-818.498295
 30
0.0
 40
1.5
 50
182.742611
 51
231.061396
  0
ARC
  8
0
  6
CONTINUOUS
 10
74.546266
 20
-818.498295
 30
0.0
 40
1.5
 50
308.938604
 51
357.257389
  0
ARC
  8
0
  6
CONTINUOUS
 10
59.991856
 20
-843.707272
 30
0.0
 40
1.5
 50
302.742611
 51
351.061396
  0
ARC
  8
0
  6
CONTINUOUS
 10
85.44559
 20
-887.794433
 30
0.0
 40
1.5
 50
68.938604
 51
117.257389
  0
ARC
  8
0
  6
CONTINUOUS
 10
114.55441
 20
-887.794433
 30
0.0
 40
1.5
 50
62.742611
 51
111.061396
  0
LINE
  8
0
  6
CONTINUOUS
 10
135.0
 20
-580.0
 30
0.0
 11
135.0
 21
-574.81068
 31
0.0
  0
LINE
  8
0
  6
CONTINUOUS
 10
65.0
 20
-580.0
 30
0.0
 11
65.0
 21
-574.81068
 31
0.0
  0
LINE
  8
0
  6
CONTINUOUS
 10
73.0
 20
-600.0
 30
0.0
 11
127.0
 21
-600.0
 31
0.0
  0
LINE
  8
0
  6
CONTINUOUS
 10
129.0
 20
-598.0
 30
0.0
 11
129.0
 21
-582.0
 31
0.0
  0
LINE
  8
0
  6
CONTINUOUS
 10
71.0
 20
-598.0
 30
0.0
 11
71.0
 21
-582.0
 31
0.0
  0
LINE
  8
0
  6
CONTINUOUS
 10
67.0
 20
-582.0
 30
0.0
 11
133.0
 21
-582.0
 31
0.0
  0
LINE
  8
0
  6
CONTINUOUS
 10
73.0
 20
-600.0
 30
0.0
 11
71.0
 21
-598.0
 31
0.0
  0
LINE
  8
0
  6
CONTINUOUS
 10
127.0
 20
-600.0
 30
0.0
 11
129.0
 21
-598.0
 31
0.0
  0
ARC
  8
0
  6
CONTINUOUS
 10
67.0
 20
-580.0
 30
0.0
 40
2.0
 50
180.0
 51
270.0
  0
ARC
  8
0
  6
CONTINUOUS
 10
133.0
 20
-580.0
 30
0.0
 40
2.0
 50
270.0
 51
0.0
  0
LINE
  8
0
  6
CONTINUOUS
 10
-33.0
 20
-522.0
 30
0.0
 11
233.0
 21
-522.0
 31
0.0
  0
LINE
  8
0
  6
CONTINUOUS
 10
-33.0
 20
-556.0
 30
0.0
 11
233.0
 21
-556.0
 31
0.0
  0
LINE
  8
0
  6
CONTINUOUS
 10
414.0
 20
-717.0
 30
0.0
 11
414.0
 21
-746.431034
 31
0.0
  0
LINE
  8
0
  6
CONTINUOUS
 10
448.0
 20
-717.0
 30
0.0
 11
448.0
 21
-983.0
 31
0.0
  0
LINE
  8
0
  6
CONTINUOUS
 10
388.0
 20
-817.0
 30
0.0
 11
388.0
 21
-821.0
 31
0.0
  0
LINE
  8
0
  6
CONTINUOUS
 10
370.0
 20
-823.0
 30
0.0
 11
372.0
 21
-821.0
 31
0.0
  0
LINE
  8
0
  6
CONTINUOUS
 10
372.0
 20
-821.0
 30
0.0
 11
388.0
 21
-821.0
 31
0.0
  0
LINE
  8
0
  6
CONTINUOUS
 10
390.0
 20
-815.0
 30
0.0
 11
393.5
 21
-815.0
 31
0.0
  0
ARC
  8
0
  6
CONTINUOUS
 10
390.0
 20
-817.0
 30
0.0
 40
2.0
 50
90.0
 51
180.0
  0
LINE
  8
0
  6
CONTINUOUS
 10
372.0
 20
-879.0
 30
0.0
 11
388.0
 21
-879.0
 31
0.0
  0
LINE
  8
0
  6
CONTINUOUS
 10
370.0
 20
-877.0
 30
0.0
 11
372.0
 21
-879.0
 31
0.0
  0
LINE
  8
0
  6
CONTINUOUS
 10
390.0
 20
-885.0
 30
0.0
 11
411.5
 21
-885.0
 31
0.0
  0
ARC
  8
0
  6
CONTINUOUS
 10
390.0
 20
-883.0
 30
0.0
 40
2.0
 50
180.0
 51
270.0
  0
LINE
  8
0
  6
CONTINUOUS
 10
416.03337
 20
-982.0
 30
0.0
 11
420.5
 21
-982.0
 31
0.0
  0
LINE
  8
0
  6
CONTINUOUS
 10
422.5
 20
-980.0
 30
0.0
 11
422.5
 21
-935.0
 31
0.0
  0
LINE
  8
0
  6
CONTINUOUS
 10
201.810345
 20
-556.0
 30
0.0
 11
129.0
 21
-576.5
 31
0.0
  0
LINE
  8
0
  6
CONTINUOUS
 10
112.0
 20
-558.5
 30
0.0
 11
112.0
 21
-556.0
 31
0.0
  0
LINE
  8
0
  6
CONTINUOUS
 10
112.0
 20
-558.5
 30
0.0
 11
88.0
 21
-558.5
 31
0.0
  0
ARC
  8
0
  6
CONTINUOUS
 10
95.440449
 20
-592.056048
 30
0.0
 40
36.989648
 50
24.869404
 51
61.659187
  0
LINE
  8
0
  6
CONTINUOUS
 10
113.0
 20
-559.5
 30
0.0
 11
112.0
 21
-558.5
 31
0.0
  0
LINE
  8
0
  6
CONTINUOUS
 10
113.0
 20
-559.5
 30
0.0
 11
126.222222
 21
-556.0
 31
0.0
  0
LINE
  8
0
  6
CONTINUOUS
 10
-1.810345
 20
-556.0
 30
0.0
 11
71.0
 21
-576.5
 31
0.0
  0
ARC
  8
0
  6
CONTINUOUS
 10
104.559551
 20
-592.056048
 30
0.0
 40
36.989648
 50
118.340813
 51
155.130596
  0
LINE
  8
0
  6
CONTINUOUS
 10
87.0
 20
-559.5
 30
0.0
 11
73.777778
 21
-556.0
 31
0.0
  0
LINE
  8
0
  6
CONTINUOUS
 10
87.0
 20
-559.5
 30
0.0
 11
88.0
 21
-558.5
 31
0.0
  0
LINE
  8
0
  6
CONTINUOUS
 10
88.0
 20
-558.5
 30
0.0
 11
88.0
 21
-556.0
 31
0.0
  0
ARC
  8
0
  6
CONTINUOUS
 10
233.0
 20
-539.0
 30
0.0
 40
17.0
 50
270.0
 51
90.0
  0
ARC
  8
0
  6
CONTINUOUS
 10
-33.0
 20
-539.0
 30
0.0
 40
17.0
 50
90.0
 51
270.0
  0
LINE
  8
0
  6
CONTINUOUS
 10
416.03337
 20
-718.0
 30
0.0
 11
422.5
 21
-718.0
 31
0.0
  0
LINE
  8
0
  6
CONTINUOUS
 10
422.5
 20
-718.0
 30
0.0
 11
393.5
 21
-815.0
 31
0.0
  0
ARC
  8
0
  6
CONTINUOUS
 10
431.0
 20
-717.0
 30
0.0
 40
17.0
 50
309.654129
 51
176.177446
  0
ARC
  8
0
  6
CONTINUOUS
 10
431.0
 20
-983.0
 30
0.0
 40
17.0
 50
183.822554
 51
115.679289
  0
ARC
  8
0
  6
CONTINUOUS
 10
420.5
 20
-980.0
 30
0.0
 40
2.0
 50
270.0
 51
0.0
  0
ARC
  8
0
  6
CONTINUOUS
 10
424.5
 20
-969.481494
 30
0.0
 40
2.0
 50
115.679289
 51
180.0
  0
ARC
  8
0
  6
CONTINUOUS
 10
416.03337
 20
-984.0
 30
0.0
 40
2.0
 50
90.0
 51
183.822554
  0
INSERT
  8
0
  6
CONTINUOUS
  2
*X19
 10
-130.0
 20
150.0
 30
0.0
1001
ACAD
1000
HATCH
1002
{
1070
    16
1000
_U
1040
3.0
1040
0.785398
1070
     0
1002
}
  0
LINE
  8
0
  6
CONTINUOUS
 10
425.0
 20
-815.0
 30
0.0
 11
425.0
 21
-885.0
 31
0.0
  0
LINE
  8
0
  6
CONTINUOUS
 10
414.0
 20
-888.855448
 30
0.0
 11
414.0
 21
-984.122951
 31
0.0
  0
LINE
  8
0
  6
CONTINUOUS
 10
420.0
 20
-815.0
 30
0.0
 11
441.848578
 21
-730.088482
 31
0.0
  0
LINE
  8
0
  6
CONTINUOUS
 10
420.0
 20
-815.0
 30
0.0
 11
425.0
 21
-815.0
 31
0.0
  0
ARC
  8
0
  6
CONTINUOUS
 10
416.03337
 20
-716.0
 30
0.0
 40
2.0
 50
176.177446
 51
270.0
  0
LINE
  8
0
  6
DASHDOTX2
 10
367.0
 20
-850.0
 30
0.0
 11
451.0
 21
-850.0
 31
0.0
  0
LINE
  8
0
  6
CONTINUOUS
 10
392.5
 20
-826.0
 30
0.0
 11
425.0
 21
-826.0
 31
0.0
  0
LINE
  8
0
  6
CONTINUOUS
 10
392.5
 20
-874.0
 30
0.0
 11
425.0
 21
-874.0
 31
0.0
  0
LINE
  8
0
  6
CONTINUOUS
 10
425.0
 20
-853.581794
 30
0.0
 11
441.848578
 21
-882.5
 31
0.0
  0
ARC
  8
0
  6
CONTINUOUS
 10
369.297248
 20
-885.577023
 30
0.0
 40
72.616551
 50
317.109289
 51
2.428554
  0
ARC
  8
0
  6
CONTINUOUS
 10
415.0
 20
-885.46875
 30
0.0
 40
3.53125
 50
172.37185
 51
7.62815
  0
LINE
  8
0
  6
CONTINUOUS
 10
415.500569
 20
-888.964341
 30
0.0
 11
421.5
 21
-918.5
 31
0.0
  0
LINE
  8
0
  6
CONTINUOUS
 10
421.5
 20
-918.5
 30
0.0
 11
422.5
 21
-935.0
 31
0.0
  0
LINE
  8
0
  6
CONTINUOUS
 10
418.5
 20
-885.0
 30
0.0
 11
425.0
 21
-885.0
 31
0.0
  0
LINE
  8
0
  6
CONTINUOUS
 10
388.0
 20
-879.0
 30
0.0
 11
388.0
 21
-883.0
 31
0.0
  0
LINE
  8
0
  6
CONTINUOUS
 10
388.0
 20
-820.0
 30
0.0
 11
390.0
 21
-820.0
 31
0.0
  0
LINE
  8
0
  6
CONTINUOUS
 10
390.0
 20
-820.0
 30
0.0
 11
390.0
 21
-828.0
 31
0.0
  0
LINE
  8
0
  6
CONTINUOUS
 10
390.0
 20
-828.0
 30
0.0
 11
392.5
 21
-828.0
 31
0.0
  0
LINE
  8
0
  6
CONTINUOUS
 10
392.5
 20
-828.0
 30
0.0
 11
392.5
 21
-826.0
 31
0.0
  0
LINE
  8
0
  6
CONTINUOUS
 10
392.5
 20
-872.0
 30
0.0
 11
392.5
 21
-874.0
 31
0.0
  0
LINE
  8
0
  6
CONTINUOUS
 10
390.0
 20
-872.0
 30
0.0
 11
392.5
 21
-872.0
 31
0.0
  0
LINE
  8
0
  6
CONTINUOUS
 10
390.0
 20
-880.0
 30
0.0
 11
390.0
 21
-872.0
 31
0.0
  0
LINE
  8
0
  6
CONTINUOUS
 10
388.0
 20
-880.0
 30
0.0
 11
390.0
 21
-880.0
 31
0.0
  0
LINE
  8
0
  6
CONTINUOUS
 10
422.5
 20
-826.0
 30
0.0
 11
422.5
 21
-874.0
 31
0.0
  0
LINE
  8
0
  6
CONTINUOUS
 10
370.0
 20
-846.0
 30
0.0
 11
371.0
 21
-847.0
 31
0.0
  0
LINE
  8
0
  6
CONTINUOUS
 10
371.0
 20
-853.0
 30
0.0
 11
371.0
 21
-847.0
 31
0.0
  0
LINE
  8
0
  6
CONTINUOUS
 10
370.0
 20
-854.0
 30
0.0
 11
371.0
 21
-853.0
 31
0.0
  0
LINE
  8
0
  6
CONTINUOUS
 10
371.0
 20
-853.0
 30
0.0
 11
389.0
 21
-853.0
 31
0.0
  0
LINE
  8
0
  6
CONTINUOUS
 10
371.0
 20
-847.0
 30
0.0
 11
389.0
 21
-847.0
 31
0.0
  0
LINE
  8
0
  6
CONTINUOUS
 10
389.0
 20
-847.0
 30
0.0
 11
389.0
 21
-853.0
 31
0.0
  0
LINE
  8
0
  6
CONTINUOUS
 10
389.033301
 20
-847.016823
 30
0.0
 11
391.0
 21
-850.0
 31
0.0
  0
LINE
  8
0
  6
CONTINUOUS
 10
389.033301
 20
-852.983177
 30
0.0
 11
391.0
 21
-850.0
 31
0.0
  0
LINE
  8
0
  6
CONTINUOUS
 10
370.0
 20
-823.0
 30
0.0
 11
370.0
 21
-877.0
 31
0.0
  0
INSERT
  8
0
  6
CONTINUOUS
  2
*X20
 10
-130.0
 20
150.0
 30
0.0
1001
ACAD
1000
HATCH
1002
{
1070
    16
1000
_U
1040
3.0
1040
0.785398
1070
     0
1002
}
  0
INSERT
  8
0
  6
CONTINUOUS
  2
*X21
 10
-130.0
 20
150.0
 30
0.0
1001
ACAD
1000
HATCH
1002
{
1070
    16
1000
_U
1040
3.0
1040
0.785398
1070
     0
1002
}
  0
INSERT
  8
0
  6
CONTINUOUS
  2
*X22
 10
-130.0
 20
150.0
 30
0.0
1001
ACAD
1000
HATCH
1002
{
1070
    16
1000
_U
1040
3.0
1040
2.356194
1070
     0
1002
}
  0
CIRCLE
  8
0
  6
CONTINUOUS
 10
100.0
 20
500.0
 30
0.0
 40
50.0
  0
ARC
  8
0
  6
CONTINUOUS
 10
100.0
 20
500.0
 30
0.0
 40
35.0
 50
116.109719
 51
183.890281
  0
CIRCLE
  8
0
  6
CONTINUOUS
 10
100.0
 20
500.0
 30
0.0
 40
16.0
  0
ARC
  8
0
  6
CONTINUOUS
 10
100.0
 20
500.0
 30
0.0
 40
17.0
 50
246.005595
 51
293.994405
  0
LINE
  8
0
  6
CONTINUOUS
 10
109.993692
 20
513.752313
 30
0.0
 11
109.644086
 21
527.736572
 31
0.0
  0
LINE
  8
0
  6
CONTINUOUS
 10
90.006308
 20
513.752313
 30
0.0
 11
90.355914
 21
527.736572
 31
0.0
  0
ARC
  8
0
  6
CONTINUOUS
 10
113.642836
 20
527.836541
 30
0.0
 40
4.0
 50
63.890281
 51
181.432096
  0
ARC
  8
0
  6
CONTINUOUS
 10
86.357164
 20
527.836541
 30
0.0
 40
4.0
 50
358.567904
 51
116.109719
  0
ARC
  8
0
  6
CONTINUOUS
 10
69.07143
 20
497.896772
 30
0.0
 40
4.0
 50
183.890281
 51
301.432096
  0
LINE
  8
0
  6
CONTINUOUS
 10
83.093301
 20
501.778635
 30
0.0
 11
71.157381
 21
494.483737
 31
0.0
  0
LINE
  8
0
  6
CONTINUOUS
 10
93.086994
 20
484.469052
 30
0.0
 11
80.801467
 21
477.779691
 31
0.0
  0
ARC
  8
0
  6
CONTINUOUS
 10
82.714266
 20
474.266687
 30
0.0
 40
4.0
 50
118.567904
 51
236.109719
  0
ARC
  8
0
  6
CONTINUOUS
 10
117.285734
 20
474.266687
 30
0.0
 40
4.0
 50
303.890281
 51
61.432096
  0
LINE
  8
0
  6
CONTINUOUS
 10
106.913006
 20
484.469052
 30
0.0
 11
119.198533
 21
477.779691
 31
0.0
  0
LINE
  8
0
  6
CONTINUOUS
 10
116.906699
 20
501.778635
 30
0.0
 11
128.842619
 21
494.483737
 31
0.0
  0
ARC
  8
0
  6
CONTINUOUS
 10
130.92857
 20
497.896772
 30
0.0
 40
4.0
 50
238.567904
 51
356.109719
  0
ARC
  8
0
  6
CONTINUOUS
 10
100.0
 20
500.0
 30
0.0
 40
35.0
 50
356.109719
 51
63.890281
  0
ARC
  8
0
  6
CONTINUOUS
 10
100.0
 20
500.0
 30
0.0
 40
35.0
 50
236.109719
 51
303.890281
  0
ARC
  8
0
  6
CONTINUOUS
 10
100.0
 20
500.0
 30
0.0
 40
17.0
 50
126.005595
 51
173.994405
  0
ARC
  8
0
  6
CONTINUOUS
 10
100.0
 20
500.0
 30
0.0
 40
17.0
 50
6.005595
 51
53.994405
  0
CIRCLE
  8
0
  6
CONTINUOUS
 10
100.0
 20
500.0
 30
0.0
 40
10.0
  0
ARC
  8
0
  6
CONTINUOUS
 10
100.0
 20
502.912824
 30
0.0
 40
32.409783
 50
61.623461
 51
118.376539
  0
ARC
  8
0
  6
CONTINUOUS
 10
97.477421
 20
498.543588
 30
0.0
 40
32.409783
 50
181.623461
 51
238.376539
  0
ARC
  8
0
  6
CONTINUOUS
 10
102.522579
 20
498.543588
 30
0.0
 40
32.409783
 50
301.623461
 51
358.376539
  0
LINE
  8
0
  6
CONTINUOUS
 10
84.0
 20
632.0
 30
0.0
 11
84.0
 21
640.645455
 31
0.0
  0
LINE
  8
0
  6
CONTINUOUS
 10
116.0
 20
632.0
 30
0.0
 11
116.0
 21
640.645455
 31
0.0
  0
LINE
  8
0
  6
CONTINUOUS
 10
89.0
 20
620.0
 30
0.0
 11
111.0
 21
620.0
 31
0.0
  0
LINE
  8
0
  6
CONTINUOUS
 10
112.0
 20
621.0
 30
0.0
 11
112.0
 21
631.0
 31
0.0
  0
LINE
  8
0
  6
CONTINUOUS
 10
88.0
 20
621.0
 30
0.0
 11
88.0
 21
631.0
 31
0.0
  0
LINE
  8
0
  6
CONTINUOUS
 10
85.0
 20
631.0
 30
0.0
 11
115.0
 21
631.0
 31
0.0
  0
LINE
  8
0
  6
CONTINUOUS
 10
111.0
 20
620.0
 30
0.0
 11
112.0
 21
621.0
 31
0.0
  0
LINE
  8
0
  6
CONTINUOUS
 10
89.0
 20
620.0
 30
0.0
 11
88.0
 21
621.0
 31
0.0
  0
LINE
  8
0
  6
CONTINUOUS
 10
57.5
 20
660.0
 30
0.0
 11
142.5
 21
660.0
 31
0.0
  0
LINE
  8
0
  6
CONTINUOUS
 10
142.5
 20
645.0
 30
0.0
 11
57.5
 21
645.0
 31
0.0
  0
ARC
  8
0
  6
CONTINUOUS
 10
115.0
 20
632.0
 30
0.0
 40
1.0
 50
270.0
 51
0.0
  0
ARC
  8
0
  6
CONTINUOUS
 10
85.0
 20
632.0
 30
0.0
 40
1.0
 50
180.0
 51
270.0
  0
LINE
  8
0
  6
CONTINUOUS
 10
210.0
 20
511.0
 30
0.0
 11
211.0
 21
512.0
 31
0.0
  0
LINE
  8
0
  6
CONTINUOUS
 10
221.0
 20
515.0
 30
0.0
 11
221.0
 21
512.0
 31
0.0
  0
LINE
  8
0
  6
CONTINUOUS
 10
250.0
 20
542.5
 30
0.0
 11
250.0
 21
457.5
 31
0.0
  0
LINE
  8
0
  6
CONTINUOUS
 10
235.0
 20
457.5
 30
0.0
 11
235.0
 21
484.0
 31
0.0
  0
ARC
  8
0
  6
CONTINUOUS
 10
222.0
 20
515.0
 30
0.0
 40
1.0
 50
90.0
 51
180.0
  0
LINE
  8
0
  6
CONTINUOUS
 10
211.0
 20
512.0
 30
0.0
 11
221.0
 21
512.0
 31
0.0
  0
LINE
  8
0
  6
CONTINUOUS
 10
222.0
 20
516.0
 30
0.0
 11
229.5
 21
516.0
 31
0.0
  0
LINE
  8
0
  6
CONTINUOUS
 10
210.0
 20
489.0
 30
0.0
 11
211.0
 21
488.0
 31
0.0
  0
ARC
  8
0
  6
CONTINUOUS
 10
222.0
 20
485.0
 30
0.0
 40
1.0
 50
180.0
 51
270.0
  0
LINE
  8
0
  6
CONTINUOUS
 10
222.0
 20
484.0
 30
0.0
 11
236.0
 21
484.0
 31
0.0
  0
LINE
  8
0
  6
CONTINUOUS
 10
211.0
 20
488.0
 30
0.0
 11
221.0
 21
488.0
 31
0.0
  0
LINE
  8
0
  6
CONTINUOUS
 10
236.077384
 20
459.5
 30
0.0
 11
239.0
 21
459.5
 31
0.0
  0
LINE
  8
0
  6
CONTINUOUS
 10
127.404762
 20
645.0
 30
0.0
 11
113.0
 21
639.5
 31
0.0
  0
ARC
  8
0
  6
CONTINUOUS
 10
100.165905
 20
633.672374
 30
0.0
 40
14.095219
 50
24.421553
 51
53.480098
  0
LINE
  8
0
  6
CONTINUOUS
 10
72.595238
 20
645.0
 30
0.0
 11
87.0
 21
639.5
 31
0.0
  0
ARC
  8
0
  6
CONTINUOUS
 10
99.834095
 20
633.672374
 30
0.0
 40
14.095219
 50
126.519902
 51
155.578447
  0
ARC
  8
0
  6
CONTINUOUS
 10
142.5
 20
652.5
 30
0.0
 40
7.5
 50
270.0
 51
90.0
  0
ARC
  8
0
  6
CONTINUOUS
 10
57.5
 20
652.5
 30
0.0
 40
7.5
 50
90.0
 51
270.0
  0
CIRCLE
  8
0
  6
CONTINUOUS
 10
486.5
 20
1042.5
 30
0.0
 40
7.5
  0
ARC
  8
0
  6
CONTINUOUS
 10
242.5
 20
542.5
 30
0.0
 40
7.5
 50
292.708747
 51
188.849883
  0
ARC
  8
0
  6
CONTINUOUS
 10
242.5
 20
457.5
 30
0.0
 40
7.5
 50
171.150117
 51
103.342364
  0
LINE
  8
0
  6
CONTINUOUS
 10
236.077384
 20
540.5
 30
0.0
 11
238.0
 21
540.5
 31
0.0
  0
LINE
  8
0
  6
CONTINUOUS
 10
238.0
 20
540.5
 30
0.0
 11
229.5
 21
516.0
 31
0.0
  0
LINE
  8
0
  6
CONTINUOUS
 10
240.0
 20
460.5
 30
0.0
 11
240.0
 21
471.0
 31
0.0
  0
ARC
  8
0
  6
CONTINUOUS
 10
239.0
 20
460.5
 30
0.0
 40
1.0
 50
270.0
 51
0.0
  0
ARC
  8
0
  6
CONTINUOUS
 10
241.0
 20
463.824555
 30
0.0
 40
1.0
 50
103.342364
 51
180.0
  0
ARC
  8
0
  6
CONTINUOUS
 10
236.077384
 20
458.5
 30
0.0
 40
1.0
 50
90.0
 51
171.150117
  0
INSERT
  8
0
  6
CONTINUOUS
  2
*X23
 10
0.0
 20
0.0
 30
0.0
1001
ACAD
1000
HATCH
1002
{
1070
    16
1000
_U
1040
3.0
1040
0.785398
1070
     0
1002
}
  0
LINE
  8
0
  6
CONTINUOUS
 10
244.5
 20
516.0
 30
0.0
 11
244.5
 21
484.0
 31
0.0
  0
LINE
  8
0
  6
CONTINUOUS
 10
240.5
 20
516.0
 30
0.0
 11
245.395352
 21
535.581406
 31
0.0
  0
ARC
  8
0
  6
CONTINUOUS
 10
236.077384
 20
541.5
 30
0.0
 40
1.0
 50
188.849883
 51
270.0
  0
LINE
  8
0
  6
CONTINUOUS
 10
235.0
 20
531.852941
 30
0.0
 11
235.0
 21
542.5
 31
0.0
  0
LINE
  8
0
  6
CONTINUOUS
 10
221.0
 20
488.0
 30
0.0
 11
221.0
 21
485.0
 31
0.0
  0
LINE
  8
0
  6
CONTINUOUS
 10
224.5
 20
510.0
 30
0.0
 11
244.5
 21
510.0
 31
0.0
  0
LINE
  8
0
  6
CONTINUOUS
 10
224.5
 20
490.0
 30
0.0
 11
244.5
 21
490.0
 31
0.0
  0
LINE
  8
0
  6
CONTINUOUS
 10
221.0
 20
513.0
 30
0.0
 11
222.5
 21
513.0
 31
0.0
  0
LINE
  8
0
  6
CONTINUOUS
 10
222.5
 20
513.0
 30
0.0
 11
222.5
 21
509.0
 31
0.0
  0
LINE
  8
0
  6
CONTINUOUS
 10
222.5
 20
509.0
 30
0.0
 11
224.5
 21
509.0
 31
0.0
  0
LINE
  8
0
  6
CONTINUOUS
 10
224.5
 20
509.0
 30
0.0
 11
224.5
 21
510.0
 31
0.0
  0
LINE
  8
0
  6
CONTINUOUS
 10
222.5
 20
491.0
 30
0.0
 11
224.5
 21
491.0
 31
0.0
  0
LINE
  8
0
  6
CONTINUOUS
 10
222.5
 20
487.0
 30
0.0
 11
222.5
 21
491.0
 31
0.0
  0
LINE
  8
0
  6
CONTINUOUS
 10
224.5
 20
491.0
 30
0.0
 11
224.5
 21
490.0
 31
0.0
  0
LINE
  8
0
  6
CONTINUOUS
 10
221.0
 20
487.0
 30
0.0
 11
222.5
 21
487.0
 31
0.0
  0
LINE
  8
0
  6
DASHDOTX2
 10
207.0
 20
500.0
 30
0.0
 11
253.0
 21
500.0
 31
0.0
  0
LINE
  8
0
  6
CONTINUOUS
 10
211.0
 20
502.0
 30
0.0
 11
219.0
 21
502.0
 31
0.0
  0
LINE
  8
0
  6
CONTINUOUS
 10
219.0
 20
502.0
 30
0.0
 11
220.0
 21
500.0
 31
0.0
  0
LINE
  8
0
  6
CONTINUOUS
 10
220.0
 20
500.0
 30
0.0
 11
219.0
 21
498.0
 31
0.0
  0
LINE
  8
0
  6
CONTINUOUS
 10
219.0
 20
498.0
 30
0.0
 11
211.0
 21
498.0
 31
0.0
  0
LINE
  8
0
  6
CONTINUOUS
 10
219.0
 20
498.0
 30
0.0
 11
219.0
 21
502.0
 31
0.0
  0
LINE
  8
0
  6
CONTINUOUS
 10
210.0
 20
503.0
 30
0.0
 11
211.0
 21
502.0
 31
0.0
  0
LINE
  8
0
  6
CONTINUOUS
 10
211.0
 20
502.0
 30
0.0
 11
211.0
 21
498.0
 31
0.0
  0
LINE
  8
0
  6
CONTINUOUS
 10
211.0
 20
498.0
 30
0.0
 11
210.0
 21
497.0
 31
0.0
  0
LINE
  8
0
  6
CONTINUOUS
 10
210.0
 20
511.0
 30
0.0
 11
210.0
 21
489.0
 31
0.0
  0
LINE
  8
0
  6
CONTINUOUS
 10
240.5
 20
516.0
 30
0.0
 11
244.5
 21
516.0
 31
0.0
  0
LINE
  8
0
  6
CONTINUOUS
 10
243.0
 20
510.0
 30
0.0
 11
243.0
 21
490.0
 31
0.0
  0
INSERT
  8
0
  6
CONTINUOUS
  2
*X24
 10
0.0
 20
0.0
 30
0.0
1001
ACAD
1000
HATCH
1002
{
1070
    16
1000
_U
1040
3.0
1040
2.356194
1070
     0
1002
}
  0
INSERT
  8
0
  6
CONTINUOUS
  2
*X25
 10
0.0
 20
0.0
 30
0.0
1001
ACAD
1000
HATCH
1002
{
1070
    16
1000
_U
1040
3.0
1040
0.785398
1070
     0
1002
}
  0
ARC
  8
0
  6
CONTINUOUS
 10
237.5
 20
484.625
 30
0.0
 40
1.625
 50
202.619865
 51
337.380135
  0
LINE
  8
0
  6
CONTINUOUS
 10
239.0
 20
484.0
 30
0.0
 11
244.5
 21
484.0
 31
0.0
  0
LINE
  8
0
  6
CONTINUOUS
 10
244.5
 20
495.463187
 30
0.0
 11
245.395352
 21
494.0
 31
0.0
  0
ARC
  8
0
  6
CONTINUOUS
 10
199.423251
 20
492.651336
 30
0.0
 40
45.991879
 50
331.916077
 51
1.68038
  0
LINE
  8
0
  6
CONTINUOUS
 10
237.844262
 20
483.036885
 30
0.0
 11
239.5
 21
476.0
 31
0.0
  0
LINE
  8
0
  6
CONTINUOUS
 10
239.5
 20
476.0
 30
0.0
 11
240.0
 21
471.0
 31
0.0
  0
INSERT
  8
0
  6
CONTINUOUS
  2
*X26
 10
0.0
 20
0.0
 30
0.0
1001
ACAD
1000
HATCH
1002
{
1070
    16
1000
_U
1040
3.0
1040
0.785398
1070
     0
1002
}
  0
ENDSEC
  0
EOF
