  0
SECTION
  2
HEADER
  9
$ACADVER
  1
AC1009
  9
$INSBASE
 10
0.0
 20
0.0
 30
0.0
  9
$EXTMIN
 10
97.0
 20
41.0
 30
0.0
  9
$EXTMAX
 10
169.0
 20
113.0
 30
0.0
  9
$LIMMIN
 10
0.0
 20
0.0
  9
$LIMMAX
 10
420.0
 20
297.0
  9
$ORTHOMODE
 70
     0
  9
$REGENMODE
 70
     1
  9
$FILLMODE
 70
     1
  9
$QTEXTMODE
 70
     0
  9
$MIRRTEXT
 70
     1
  9
$DRAGMODE
 70
     2
  9
$LTSCALE
 40
0.25
  9
$OSMODE
 70
     0
  9
$ATTMODE
 70
     1
  9
$TEXTSIZE
 40
2.5
  9
$TRACEWID
 40
1.0
  9
$TEXTSTYLE
  7
STANDARD
  9
$CLAYER
  8
0
  9
$CELTYPE
  6
BYLAYER
  9
$CECOLOR
 62
   256
  9
$DIMSCALE
 40
1.0
  9
$DIMASZ
 40
2.5
  9
$DIMEXO
 40
0.625
  9
$DIMDLI
 40
3.75
  9
$DIMRND
 40
0.0
  9
$DIMDLE
 40
0.0
  9
$DIMEXE
 40
1.25
  9
$DIMTP
 40
0.0
  9
$DIMTM
 40
0.0
  9
$DIMTXT
 40
2.5
  9
$DIMCEN
 40
2.5
  9
$DIMTSZ
 40
0.0
  9
$DIMTOL
 70
     0
  9
$DIMLIM
 70
     0
  9
$DIMTIH
 70
     0
  9
$DIMTOH
 70
     0
  9
$DIMSE1
 70
     0
  9
$DIMSE2
 70
     0
  9
$DIMTAD
 70
     1
  9
$DIMZIN
 70
     8
  9
$DIMBLK
  1

  9
$DIMASO
 70
     1
  9
$DIMSHO
 70
     1
  9
$DIMPOST
  1

  9
$DIMAPOST
  1

  9
$DIMALT
 70
     0
  9
$DIMALTD
 70
     4
  9
$DIMALTF
 40
0.0394
  9
$DIMLFAC
 40
1.0
  9
$DIMTOFL
 70
     1
  9
$DIMTVP
 40
0.0
  9
$DIMTIX
 70
     0
  9
$DIMSOXD
 70
     0
  9
$DIMSAH
 70
     0
  9
$DIMBLK1
  1

  9
$DIMBLK2
  1

  9
$DIMSTYLE
  2
STANDARD
  9
$DIMCLRD
 70
     0
  9
$DIMCLRE
 70
     0
  9
$DIMCLRT
 70
     0
  9
$DIMTFAC
 40
1.0
  9
$DIMGAP
 40
0.625
  9
$LUNITS
 70
     2
  9
$LUPREC
 70
     4
  9
$SKETCHINC
 40
1.0
  9
$FILLETRAD
 40
4.0
  9
$AUNITS
 70
     0
  9
$AUPREC
 70
     0
  9
$MENU
  1
acad
  9
$ELEVATION
 40
0.0
  9
$PELEVATION
 40
0.0
  9
$THICKNESS
 40
0.0
  9
$LIMCHECK
 70
     0
  9
$BLIPMODE
 70
     0
  9
$CHAMFERA
 40
10.0
  9
$CHAMFERB
 40
10.0
  9
$SKPOLY
 70
     0
  9
$TDCREATE
 40
2450990.566194
  9
$TDUPDATE
 40
2450991.405814
  9
$TDINDWG
 40
0.112712
  9
$TDUSRTIMER
 40
0.112712
  9
$USRTIMER
 70
     1
  9
$ANGBASE
 50
0.0
  9
$ANGDIR
 70
     0
  9
$PDMODE
 70
     0
  9
$PDSIZE
 40
0.0
  9
$PLINEWID
 40
0.0
  9
$COORDS
 70
     1
  9
$SPLFRAME
 70
     0
  9
$SPLINETYPE
 70
     6
  9
$SPLINESEGS
 70
     8
  9
$ATTDIA
 70
     0
  9
$ATTREQ
 70
     1
  9
$HANDLING
 70
     1
  9
$HANDSEED
  5
105
  9
$SURFTAB1
 70
     6
  9
$SURFTAB2
 70
     6
  9
$SURFTYPE
 70
     6
  9
$SURFU
 70
     6
  9
$SURFV
 70
     6
  9
$UCSNAME
  2

  9
$UCSORG
 10
0.0
 20
0.0
 30
0.0
  9
$UCSXDIR
 10
1.0
 20
0.0
 30
0.0
  9
$UCSYDIR
 10
0.0
 20
1.0
 30
0.0
  9
$PUCSNAME
  2

  9
$PUCSORG
 10
0.0
 20
0.0
 30
0.0
  9
$PUCSXDIR
 10
1.0
 20
0.0
 30
0.0
  9
$PUCSYDIR
 10
0.0
 20
1.0
 30
0.0
  9
$USERI1
 70
     0
  9
$USERI2
 70
     0
  9
$USERI3
 70
     0
  9
$USERI4
 70
     0
  9
$USERI5
 70
     0
  9
$USERR1
 40
0.0
  9
$USERR2
 40
0.0
  9
$USERR3
 40
0.0
  9
$USERR4
 40
0.0
  9
$USERR5
 40
0.0
  9
$WORLDVIEW
 70
     1
  9
$SHADEDGE
 70
     3
  9
$SHADEDIF
 70
    70
  9
$TILEMODE
 70
     1
  9
$MAXACTVP
 70
    48
  9
$PLIMCHECK
 70
     0
  9
$PEXTMIN
 10
1.000000E+020
 20
1.000000E+020
 30
1.000000E+020
  9
$PEXTMAX
 10
-1.000000E+020
 20
-1.000000E+020
 30
-1.000000E+020
  9
$PLIMMIN
 10
0.0
 20
0.0
  9
$PLIMMAX
 10
420.0
 20
297.0
  9
$UNITMODE
 70
     0
  9
$VISRETAIN
 70
     1
  9
$PLINEGEN
 70
     0
  9
$PSLTSCALE
 70
     1
  0
ENDSEC
  0
SECTION
  2
TABLES
  0
TABLE
  2
VPORT
 70
     2
  0
VPORT
  2
*ACTIVE
 70
     0
 10
0.0
 20
0.0
 11
1.0
 21
1.0
 12
133.25
 22
76.75
 13
0.0
 23
0.0
 14
0.25
 24
0.25
 15
10.0
 25
10.0
 16
0.0
 26
0.0
 36
1.0
 17
0.0
 27
0.0
 37
0.0
 40
77.0
 41
1.884409
 42
50.0
 43
0.0
 44
0.0
 50
0.0
 51
0.0
 71
     0
 72
   100
 73
     1
 74
     1
 75
     1
 76
     0
 77
     0
 78
     0
  0
ENDTAB
  0
TABLE
  2
LTYPE
 70
     2
  0
LTYPE
  2
CONTINUOUS
 70
     0
  3
Solid line
 72
    65
 73
     0
 40
0.0
  0
LTYPE
  2
CENTER2
 70
     0
  3
Center (.5x) ___ _ ___ _ ___ _ ___ _ ___ _ ___
 72
    65
 73
     4
 40
28.575
 49
19.05
 49
-3.175
 49
3.175
 49
-3.175
  0
ENDTAB
  0
TABLE
  2
LAYER
 70
     1
  0
LAYER
  2
0
 70
     0
 62
     7
  6
CONTINUOUS
  0
ENDTAB
  0
TABLE
  2
STYLE
 70
     2
  0
STYLE
  2
STANDARD
 70
     0
 40
0.0
 41
1.0
 50
0.0
 71
     0
 42
2.5
  3
txt
  4

  0
STYLE
  2

 70
     1
 40
0.0
 41
1.0
 50
0.0
 71
     0
 42
2.5
  3
ltypeshp.shx
  4

  0
ENDTAB
  0
TABLE
  2
VIEW
 70
     0
  0
ENDTAB
  0
TABLE
  2
UCS
 70
     0
  0
ENDTAB
  0
TABLE
  2
APPID
 70
     3
  0
APPID
  2
ACAD
 70
     0
  0
APPID
  2
CONTENTTABDATA
 70
     0
  0
APPID
  2
CONTENTCURRENTTAB
 70
     0
  0
ENDTAB
  0
TABLE
  2
DIMSTYLE
 70
     1
  0
DIMSTYLE
  2
STANDARD
 70
     0
  3

  4

  5

  6

  7

 40
1.0
 41
0.18
 42
0.0625
 43
0.38
 44
0.18
 45
0.0
 46
0.0
 47
0.0
 48
0.0
140
0.18
141
0.09
142
0.0
143
25.4
144
1.0
145
0.0
146
1.0
147
0.09
 71
     0
 72
     0
 73
     1
 74
     1
 75
     0
 76
     0
 77
     0
 78
     0
170
     0
171
     2
172
     0
173
     0
174
     0
175
     0
176
     0
177
     0
178
     0
  0
ENDTAB
  0
ENDSEC
  0
SECTION
  2
BLOCKS
  0
BLOCK
  8
0
  2
$MODEL_SPACE
 70
     0
 10
0.0
 20
0.0
 30
0.0
  3
$MODEL_SPACE
  1

  0
ENDBLK
  5
1A
  8
0
  0
BLOCK
 67
     1
  8
0
  2
$PAPER_SPACE
 70
     0
 10
0.0
 20
0.0
 30
0.0
  3
$PAPER_SPACE
  1

  0
ENDBLK
  5
17
 67
     1
  8
0
  0
BLOCK
  8
0
  2
*X0
 70
     1
 10
0.0
 20
0.0
 30
0.0
  3
*X0
  1

  0
LINE
  5
DB
  8
0
 62
     0
 10
111.0
 20
102.281083
 30
0.0
 11
110.782016
 21
102.499066
 31
0.0
  0
LINE
  5
DC
  8
0
 62
     0
 10
111.0
 20
100.036019
 30
0.0
 11
108.645194
 21
102.390825
 31
0.0
  0
LINE
  5
DD
  8
0
 62
     0
 10
111.0
 20
97.790955
 30
0.0
 11
106.663185
 21
102.12777
 31
0.0
  0
LINE
  5
DE
  8
0
 62
     0
 10
111.0
 20
95.545891
 30
0.0
 11
104.81011
 21
101.735781
 31
0.0
  0
LINE
  5
DF
  8
0
 62
     0
 10
110.167738
 20
94.133088
 30
0.0
 11
103.068362
 21
101.232465
 31
0.0
  0
LINE
  5
E0
  8
0
 62
     0
 10
108.756672
 20
93.299091
 30
0.0
 11
101.42546
 21
100.630303
 31
0.0
  0
LINE
  5
E1
  8
0
 62
     0
 10
102.530765
 20
97.279933
 30
0.0
 11
100.073331
 21
99.737367
 31
0.0
  0
LINE
  5
E2
  8
0
 62
     0
 10
108.5
 20
91.310699
 30
0.0
 11
105.75
 21
94.060699
 31
0.0
  0
LINE
  5
E3
  8
0
 62
     0
 10
108.5
 20
89.065635
 30
0.0
 11
105.75
 21
91.815635
 31
0.0
  0
LINE
  5
E4
  8
0
 62
     0
 10
108.5
 20
86.820571
 30
0.0
 11
105.75
 21
89.570571
 31
0.0
  0
LINE
  5
E5
  8
0
 62
     0
 10
107.075507
 20
86.0
 30
0.0
 11
105.75
 21
87.325507
 31
0.0
  0
LINE
  5
E6
  8
0
 62
     0
 10
108.45064
 20
86.0
 30
0.0
 11
108.5
 21
86.04936
 31
0.0
  0
LINE
  5
E7
  8
0
 62
     0
 10
106.308376
 20
86.1028
 30
0.0
 11
108.5
 21
88.294424
 31
0.0
  0
LINE
  5
E8
  8
0
 62
     0
 10
105.75
 20
87.789488
 30
0.0
 11
108.5
 21
90.539488
 31
0.0
  0
LINE
  5
E9
  8
0
 62
     0
 10
109.659946
 20
93.944497
 30
0.0
 11
111.0
 21
95.284552
 31
0.0
  0
LINE
  5
EA
  8
0
 62
     0
 10
105.75
 20
90.034552
 30
0.0
 11
108.5
 21
92.784552
 31
0.0
  0
LINE
  5
EB
  8
0
 62
     0
 10
105.75
 20
92.279616
 30
0.0
 11
111.0
 21
97.529616
 31
0.0
  0
LINE
  5
EC
  8
0
 62
     0
 10
105.738403
 20
94.513082
 30
0.0
 11
111.0
 21
99.77468
 31
0.0
  0
LINE
  5
ED
  8
0
 62
     0
 10
105.097614
 20
96.117358
 30
0.0
 11
111.0
 21
102.019744
 31
0.0
  0
LINE
  5
EE
  8
0
 62
     0
 10
103.796351
 20
97.061159
 30
0.0
 11
109.16926
 21
102.434068
 31
0.0
  0
LINE
  5
EF
  8
0
 62
     0
 10
101.830918
 20
97.34079
 30
0.0
 11
106.608354
 21
102.118226
 31
0.0
  0
LINE
  5
F0
  8
0
 62
     0
 10
100.144341
 20
97.899277
 30
0.0
 11
103.665191
 21
101.420127
 31
0.0
  0
ENDBLK
  5
F2
  8
0
  0
BLOCK
  8
0
  2
*X1
 70
     1
 10
0.0
 20
0.0
 30
0.0
  3
*X1
  1

  0
LINE
  5
F4
  8
0
 62
     0
 10
150.0
 20
105.937299
 30
0.0
 11
146.134716
 21
109.802583
 31
0.0
  0
LINE
  5
F5
  8
0
 62
     0
 10
150.0
 20
101.447171
 30
0.0
 11
142.208124
 21
109.239047
 31
0.0
  0
LINE
  5
F6
  8
0
 62
     0
 10
150.0
 20
96.957043
 30
0.0
 11
138.57742
 21
108.379624
 31
0.0
  0
LINE
  5
F7
  8
0
 62
     0
 10
139.122554
 20
103.344362
 30
0.0
 11
135.197965
 21
107.268951
 31
0.0
  0
LINE
  5
F8
  8
0
 62
     0
 10
146.935621
 20
95.531294
 30
0.0
 11
142.448167
 21
100.018748
 31
0.0
  0
LINE
  5
F9
  8
0
 62
     0
 10
146.5
 20
91.476787
 30
0.0
 11
142.5
 21
95.476787
 31
0.0
  0
LINE
  5
FA
  8
0
 62
     0
 10
146.5
 20
86.986659
 30
0.0
 11
142.5
 21
90.986659
 31
0.0
  0
LINE
  5
FB
  8
0
 62
     0
 10
144.371665
 20
86.0
 30
0.0
 11
146.5
 21
88.128335
 31
0.0
  0
LINE
  5
FC
  8
0
 62
     0
 10
142.5
 20
88.618463
 30
0.0
 11
146.5
 21
92.618463
 31
0.0
  0
LINE
  5
FD
  8
0
 62
     0
 10
142.5
 20
93.108591
 30
0.0
 11
150.0
 21
100.608591
 31
0.0
  0
LINE
  5
FE
  8
0
 62
     0
 10
142.5
 20
97.598719
 30
0.0
 11
150.0
 21
105.098719
 31
0.0
  0
LINE
  5
FF
  8
0
 62
     0
 10
141.898154
 20
101.487001
 30
0.0
 11
150.0
 21
109.588847
 31
0.0
  0
LINE
  5
100
  8
0
 62
     0
 10
139.23682
 20
103.315795
 30
0.0
 11
145.676939
 21
109.755915
 31
0.0
  0
LINE
  5
101
  8
0
 62
     0
 10
135.644717
 20
104.213821
 30
0.0
 11
140.247337
 21
108.816441
 31
0.0
  0
ENDBLK
  5
103
  8
0
  0
ENDSEC
  0
SECTION
  2
ENTITIES
  0
LINE
  5
3C
  8
0
 10
111.0
 20
100.0
 30
0.0
 11
121.769612
 21
100.0
 31
0.0
  0
ARC
  5
3F
  8
0
 10
111.0
 20
77.05
 30
0.0
 40
25.45
 50
65.858097
 51
114.141903
1001
ACAD
1000
ASC_BOUNDS
1002
{
1070
    19
1005
99
1002
}
  0
LINE
  5
40
  8
0
 10
111.0
 20
97.5
 30
0.0
 11
121.399307
 21
97.5
 31
0.0
  0
LINE
  5
41
  8
0
 10
100.0
 20
99.361488
 30
0.0
 11
100.0
 21
98.416817
 31
0.0
1001
ACAD
1000
ASC_BOUNDS
1002
{
1070
    19
1005
99
1002
}
  0
LINE
  5
42
  8
0
 10
122.0
 20
99.361488
 30
0.0
 11
122.0
 21
98.416817
 31
0.0
  0
LINE
  5
43
  8
0
 10
106.75
 20
86.0
 30
0.0
 11
115.25
 21
86.0
 31
0.0
1001
ACAD
1000
ASC_BOUNDS
1002
{
1070
    19
1005
99
1002
}
  0
LINE
  5
44
  8
0
  6
CENTER2
 10
111.0
 20
105.5
 30
0.0
 11
111.0
 21
83.0
 31
0.0
1001
ACAD
1000
ASC_BOUNDS
1002
{
1070
    19
1005
99
1002
}
  0
LINE
  5
45
  8
0
 10
116.25
 20
87.0
 30
0.0
 11
116.25
 21
94.249549
 31
0.0
  0
LINE
  5
46
  8
0
 10
105.75
 20
87.0
 30
0.0
 11
105.75
 21
94.249549
 31
0.0
1001
ACAD
1000
ASC_BOUNDS
1002
{
1070
    19
1005
99
1002
}
  0
LINE
  5
48
  8
0
 10
118.990111
 20
97.238271
 30
0.0
 11
121.08663
 21
97.420576
 31
0.0
  0
LINE
  5
49
  8
0
 10
103.009889
 20
97.238271
 30
0.0
 11
100.91337
 21
97.420576
 31
0.0
1001
ACAD
1000
ASC_BOUNDS
1002
{
1070
    19
1005
99
1002
}
  0
ARC
  5
4A
  8
0
 10
102.75
 20
94.249549
 30
0.0
 40
3.0
 50
0.0
 51
85.030259
1001
ACAD
1000
ASC_BOUNDS
1002
{
1070
    19
1005
99
1002
}
  0
ARC
  5
4B
  8
0
 10
119.25
 20
94.249549
 30
0.0
 40
3.0
 50
94.969741
 51
180.0
  0
ARC
  5
4D
  8
0
 10
121.0
 20
98.416817
 30
0.0
 40
1.0
 50
274.969741
 51
0.0
  0
ARC
  5
4E
  8
0
 10
121.0
 20
99.361488
 30
0.0
 40
1.0
 50
0.0
 51
65.858097
  0
ARC
  5
4F
  8
0
 10
101.0
 20
98.416817
 30
0.0
 40
1.0
 50
180.0
 51
265.030259
1001
ACAD
1000
ASC_BOUNDS
1002
{
1070
    19
1005
99
1002
}
  0
ARC
  5
50
  8
0
 10
101.0
 20
99.361488
 30
0.0
 40
1.0
 50
114.141903
 51
180.0
1001
ACAD
1000
ASC_BOUNDS
1002
{
1070
    19
1005
99
1002
}
  0
ARC
  5
51
  8
0
 10
106.75
 20
87.0
 30
0.0
 40
1.0
 50
180.0
 51
270.0
1001
ACAD
1000
ASC_BOUNDS
1002
{
1070
    19
1005
99
1002
}
  0
ARC
  5
52
  8
0
 10
115.25
 20
87.0
 30
0.0
 40
1.0
 50
270.0
 51
0.0
  0
LINE
  5
58
  8
0
 10
143.5
 20
86.0
 30
0.0
 11
156.5
 21
86.0
 31
0.0
1001
ACAD
1000
ASC_BOUNDS
1002
{
1070
    19
1005
D4
1002
}
  0
LINE
  5
5A
  8
0
  6
CENTER2
 10
150.0
 20
83.0
 30
0.0
 11
150.0
 21
113.0
 31
0.0
1001
ACAD
1000
ASC_BOUNDS
1002
{
1070
    19
1005
D4
1002
}
  0
LINE
  5
5B
  8
0
 10
166.0
 20
105.292015
 30
0.0
 11
166.0
 21
106.314161
 31
0.0
  0
LINE
  5
5C
  8
0
 10
134.5
 20
105.280776
 30
0.0
 11
134.5
 21
106.314161
 31
0.0
1001
ACAD
1000
ASC_BOUNDS
1002
{
1070
    19
1005
D4
1002
}
  0
LINE
  5
5D
  8
0
 10
150.0
 20
107.0
 30
0.0
 11
165.727753
 21
107.0
 31
0.0
  0
ARC
  5
5E
  8
0
 10
150.25
 20
67.166667
 30
0.0
 40
42.834063
 50
69.354585
 51
110.645415
1001
ACAD
1000
ASC_BOUNDS
1002
{
1070
    19
1005
D4
1002
}
  0
LINE
  5
5F
  8
0
 10
165.610502
 20
104.5
 30
0.0
 11
150.0
 21
104.5
 31
0.0
  0
LINE
  5
60
  8
0
 10
157.5
 20
87.0
 30
0.0
 11
157.5
 21
99.331941
 31
0.0
  0
LINE
  5
61
  8
0
 10
142.5
 20
87.0
 30
0.0
 11
142.5
 21
99.376894
 31
0.0
1001
ACAD
1000
ASC_BOUNDS
1002
{
1070
    19
1005
D4
1002
}
  0
LINE
  5
64
  8
0
 10
135.257464
 20
104.310634
 30
0.0
 11
139.470143
 21
103.257464
 31
0.0
1001
ACAD
1000
ASC_BOUNDS
1002
{
1070
    19
1005
D4
1002
}
  0
LINE
  5
65
  8
0
 10
165.229039
 20
104.318597
 30
0.0
 11
160.583843
 21
103.22561
 31
0.0
  0
ARC
  5
66
  8
0
 10
143.5
 20
87.0
 30
0.0
 40
1.0
 50
180.0
 51
270.0
1001
ACAD
1000
ASC_BOUNDS
1002
{
1070
    19
1005
D4
1002
}
  0
ARC
  5
67
  8
0
 10
156.5
 20
87.0
 30
0.0
 40
1.0
 50
270.0
 51
0.0
  0
ARC
  5
68
  8
0
 10
165.0
 20
106.314161
 30
0.0
 40
1.0
 50
360.0
 51
69.354585
  0
ARC
  5
69
  8
0
 10
165.0
 20
105.292015
 30
0.0
 40
1.0
 50
283.24052
 51
0.0
  0
ARC
  5
6A
  8
0
 10
135.5
 20
106.314161
 30
0.0
 40
1.0
 50
110.645415
 51
180.0
1001
ACAD
1000
ASC_BOUNDS
1002
{
1070
    19
1005
D4
1002
}
  0
ARC
  5
6B
  8
0
 10
135.5
 20
105.280776
 30
0.0
 40
1.0
 50
180.0
 51
255.963757
1001
ACAD
1000
ASC_BOUNDS
1002
{
1070
    19
1005
D4
1002
}
  0
ARC
  5
6C
  8
0
 10
138.5
 20
99.376894
 30
0.0
 40
4.0
 50
0.0
 51
75.963757
1001
ACAD
1000
ASC_BOUNDS
1002
{
1070
    19
1005
D4
1002
}
  0
ARC
  5
6D
  8
0
 10
161.5
 20
99.331941
 30
0.0
 40
4.0
 50
103.24052
 51
180.0
  0
LINE
  5
6F
  8
0
  6
CENTER2
 10
111.0
 20
74.0
 30
0.0
 11
111.0
 21
46.0
 31
0.0
  0
CIRCLE
  5
70
  8
0
 10
111.0
 20
60.0
 30
0.0
 40
11.0
  0
CIRCLE
  5
72
  8
0
 10
111.0
 20
60.0
 30
0.0
 40
10.75
  0
LINE
  5
78
  8
0
  6
CENTER2
 10
97.0
 20
60.0
 30
0.0
 11
125.0
 21
60.0
 31
0.0
  0
CIRCLE
  5
79
  8
0
 10
150.0
 20
60.0
 30
0.0
 40
16.0
  0
CIRCLE
  5
7B
  8
0
 10
150.0
 20
60.0
 30
0.0
 40
15.75
  0
LINE
  5
82
  8
0
 10
109.0
 20
86.0
 30
0.0
 11
109.0
 21
92.0
 31
0.0
  0
LINE
  5
83
  8
0
 10
109.25
 20
86.0
 30
0.0
 11
109.25
 21
92.75
 31
0.0
  0
LINE
  5
84
  8
0
 10
109.25
 20
92.75
 30
0.0
 11
111.0
 21
92.75
 31
0.0
  0
LINE
  5
85
  8
0
 10
109.0
 20
92.0
 30
0.0
 11
111.0
 21
92.0
 31
0.0
  0
LINE
  5
86
  8
0
 10
108.5
 20
86.0
 30
0.0
 11
108.5
 21
93.0
 31
0.0
1001
ACAD
1000
ASC_BOUNDS
1002
{
1070
    19
1005
99
1002
}
  0
LINE
  5
87
  8
0
 10
109.25
 20
92.75
 30
0.0
 11
111.0
 21
93.5
 31
0.0
  0
ARC
  5
89
  8
0
 10
111.0
 20
91.114246
 30
0.0
 40
3.131464
 50
90.0
 51
142.972698
1001
ACAD
1000
ASC_BOUNDS
1002
{
1070
    19
1005
99
1002
}
  0
INSERT
  5
99
  8
0
  6
CONTINUOUS
  2
*X0
 10
0.0
 20
0.0
 30
0.0
1001
ACAD
1000
HATCH
1002
{
1070
    19
1000
ANSI37
1040
0.5
1040
0.0
1000
ASC_BOUNDS
1070
     1
1070
     1
1070
    12
1005
44
1005
89
1005
86
1005
43
1005
51
1005
46
1005
4A
1005
49
1005
4F
1005
41
1005
50
1005
3F
1000
ASC_SEEDPOINT
1011
108.25
1021
0.0
1031
0.0
1021
98.25
1031
0.0
1000
R14_HATCH_DATA
1000
99
1011
1.0
1021
0.0
1031
0.0
1021
0.0
1031
0.0
1011
0.0
1021
0.0
1031
0.0
1021
1.0
1031
0.0
1011
0.0
1021
0.0
1031
0.0
1021
0.0
1031
1.0
1040
0.0
1010
0.0
1020
0.0
1030
1.0
1000
ANSI37
1070
     0
1070
     1
1071
        1
1071
        7
1070
     1
1070
     1
1071
       12
1040
111.0
1040
102.5
1040
0.10573
1040
100.591002
1040
100.274023
1040
0.29554
1040
100.0
1040
99.361488
1040
0.0
1040
100.0
1040
98.416817
1040
0.389031
1040
100.91337
1040
97.420576
1040
0.0
1040
103.009889
1040
97.238271
1040
-0.389031
1040
105.75
1040
94.249549
1040
0.0
1040
105.75
1040
87.0
1040
0.414214
1040
106.75
1040
86.0
1040
0.0
1040
108.5
1040
86.0
1040
0.0
1040
108.5
1040
93.0
1040
-0.235343
1040
111.0
1040
94.24571
1040
0.0
1071
       12
1005
3F
1005
50
1005
41
1005
4F
1005
49
1005
4A
1005
46
1005
51
1005
43
1005
86
1005
89
1005
44
1070
     0
1070
     1
1040
0.0
1040
0.5
1070
     0
1070
     2
1040
0.785398
1040
0.0
1040
0.0
1040
-1.122532
1040
1.122532
1070
     0
1040
2.356194
1040
0.0
1040
0.0
1040
-1.122532
1040
-1.122532
1070
     0
1040
0.058981
1071
        1
1040
108.25
1040
98.25
1040
0.0
1002
}
  0
LINE
  5
9B
  8
0
 10
147.0
 20
94.0
 30
0.0
 11
150.0
 21
94.0
 31
0.0
  0
LINE
  5
9D
  8
0
 10
147.25
 20
94.5
 30
0.0
 11
150.0
 21
95.75
 31
0.0
  0
LINE
  5
9E
  8
0
 10
147.25
 20
94.5
 30
0.0
 11
150.0
 21
94.5
 31
0.0
  0
LINE
  5
9F
  8
0
 10
147.0
 20
86.0
 30
0.0
 11
147.0
 21
94.0
 31
0.0
  0
LINE
  5
B9
  8
0
  6
CENTER2
 10
131.0
 20
60.0
 30
0.0
 11
169.0
 21
60.0
 31
0.0
  0
LINE
  5
BB
  8
0
  6
CENTER2
 10
150.0
 20
41.0
 30
0.0
 11
150.0
 21
79.0
 31
0.0
  0
LINE
  5
C4
  8
0
 10
147.25
 20
86.0
 30
0.0
 11
147.25
 21
94.5
 31
0.0
  0
LINE
  5
C5
  8
0
 10
146.5
 20
86.0
 30
0.0
 11
146.5
 21
95.0
 31
0.0
1001
ACAD
1000
ASC_BOUNDS
1002
{
1070
    19
1005
D4
1002
}
  0
ARC
  5
C7
  8
0
 10
150.0
 20
92.574498
 30
0.0
 40
4.258293
 50
90.0
 51
145.278023
1001
ACAD
1000
ASC_BOUNDS
1002
{
1070
    19
1005
D4
1002
}
  0
INSERT
  5
D4
  8
0
  6
CONTINUOUS
  2
*X1
 10
0.0
 20
0.0
 30
0.0
1001
ACAD
1000
HATCH
1002
{
1070
    19
1000
ANSI37
1040
1.0
1040
0.0
1000
ASC_BOUNDS
1070
     1
1070
     1
1070
    12
1005
5A
1005
C7
1005
C5
1005
58
1005
66
1005
61
1005
6C
1005
64
1005
6B
1005
5C
1005
6A
1005
5E
1000
ASC_SEEDPOINT
1011
146.0
1021
0.0
1031
0.0
1021
104.0
1031
0.0
1000
R14_HATCH_DATA
1000
D4
1011
1.0
1021
0.0
1031
0.0
1021
0.0
1031
0.0
1011
0.0
1021
0.0
1031
0.0
1021
1.0
1031
0.0
1011
0.0
1021
0.0
1031
0.0
1021
0.0
1031
1.0
1040
0.0
1010
0.0
1020
0.0
1030
1.0
1000
ANSI37
1070
     0
1070
     1
1071
        1
1071
        7
1070
     1
1070
     1
1071
       12
1040
150.0
1040
110.0
1040
0.088856
1040
135.147417
1040
107.249941
1040
0.312205
1040
134.5
1040
106.314161
1040
0.0
1040
134.5
1040
105.280776
1040
0.344151
1040
135.257464
1040
104.310634
1040
0.0
1040
139.470143
1040
103.257464
1040
-0.344151
1040
142.5
1040
99.376894
1040
0.0
1040
142.5
1040
87.0
1040
0.414214
1040
143.5
1040
86.0
1040
0.0
1040
146.5
1040
86.0
1040
0.0
1040
146.5
1040
95.0
1040
-0.245985
1040
150.0
1040
96.832791
1040
0.0
1071
       12
1005
5E
1005
6A
1005
5C
1005
6B
1005
64
1005
6C
1005
61
1005
66
1005
58
1005
C5
1005
C7
1005
5A
1070
     0
1070
     1
1040
0.0
1040
1.0
1070
     0
1070
     2
1040
0.785398
1040
0.0
1040
0.0
1040
-2.245064
1040
2.245064
1070
     0
1040
2.356194
1040
0.0
1040
0.0
1040
-2.245064
1040
-2.245064
1070
     0
1040
0.080429
1071
        1
1040
146.0
1040
104.0
1040
0.0
1002
}
  0
ENDSEC
  0
EOF
