  0
SECTION
  2
HEADER
  9
$ACADVER
  1
AC1009
  9
$INSBASE
 10
0.0
 20
0.0
 30
0.0
  9
$EXTMIN
 10
-84.339342
 20
-470.142718
 30
0.0
  9
$EXTMAX
 10
169.65589
 20
-61.88963
 30
0.0
  9
$LIMMIN
 10
0.0
 20
0.0
  9
$LIMMAX
 10
12.0
 20
9.0
  9
$ORTHOMODE
 70
     1
  9
$REGENMODE
 70
     1
  9
$FILLMODE
 70
     1
  9
$QTEXTMODE
 70
     0
  9
$MIRRTEXT
 70
     1
  9
$DRAGMODE
 70
     2
  9
$LTSCALE
 40
7.0
  9
$OSMODE
 70
     0
  9
$ATTMODE
 70
     1
  9
$TEXTSIZE
 40
0.2
  9
$TRACEWID
 40
0.05
  9
$TEXTSTYLE
  7
STANDARD
  9
$CLAYER
  8
0
  9
$CELTYPE
  6
BYLAYER
  9
$CECOLOR
 62
   256
  9
$DIMSCALE
 40
1.0
  9
$DIMASZ
 40
2.5
  9
$DIMEXO
 40
0.0
  9
$DIMDLI
 40
5.0
  9
$DIMRND
 40
0.0
  9
$DIMDLE
 40
0.0
  9
$DIMEXE
 40
1.0
  9
$DIMTP
 40
0.0
  9
$DIMTM
 40
0.0
  9
$DIMTXT
 40
2.5
  9
$DIMCEN
 40
0.09
  9
$DIMTSZ
 40
0.0
  9
$DIMTOL
 70
     0
  9
$DIMLIM
 70
     0
  9
$DIMTIH
 70
     0
  9
$DIMTOH
 70
     0
  9
$DIMSE1
 70
     0
  9
$DIMSE2
 70
     0
  9
$DIMTAD
 70
     1
  9
$DIMZIN
 70
     0
  9
$DIMBLK
  1

  9
$DIMASO
 70
     0
  9
$DIMSHO
 70
     0
  9
$DIMPOST
  1

  9
$DIMAPOST
  1

  9
$DIMALT
 70
     0
  9
$DIMALTD
 70
     2
  9
$DIMALTF
 40
25.4
  9
$DIMLFAC
 40
1.0
  9
$DIMTOFL
 70
     1
  9
$DIMTVP
 40
0.0
  9
$DIMTIX
 70
     0
  9
$DIMSOXD
 70
     0
  9
$DIMSAH
 70
     0
  9
$DIMBLK1
  1

  9
$DIMBLK2
  1

  9
$DIMSTYLE
  2
*UNNAMED
  9
$DIMCLRD
 70
     0
  9
$DIMCLRE
 70
     0
  9
$DIMCLRT
 70
     0
  9
$DIMTFAC
 40
1.0
  9
$DIMGAP
 40
0.09
  9
$LUNITS
 70
     2
  9
$LUPREC
 70
     4
  9
$SKETCHINC
 40
0.1
  9
$FILLETRAD
 40
5.0
  9
$AUNITS
 70
     0
  9
$AUPREC
 70
     0
  9
$MENU
  1
wiberger
  9
$ELEVATION
 40
0.0
  9
$PELEVATION
 40
0.0
  9
$THICKNESS
 40
0.0
  9
$LIMCHECK
 70
     0
  9
$BLIPMODE
 70
     1
  9
$CHAMFERA
 40
0.0
  9
$CHAMFERB
 40
0.0
  9
$SKPOLY
 70
     0
  9
$TDCREATE
 40
2450190.604093287
  9
$TDUPDATE
 40
2450218.530438426
  9
$TDINDWG
 40
0.0088974537
  9
$TDUSRTIMER
 40
0.0088974537
  9
$USRTIMER
 70
     1
  9
$ANGBASE
 50
0.0
  9
$ANGDIR
 70
     0
  9
$PDMODE
 70
     0
  9
$PDSIZE
 40
0.0
  9
$PLINEWID
 40
0.0
  9
$COORDS
 70
     0
  9
$SPLFRAME
 70
     0
  9
$SPLINETYPE
 70
     6
  9
$SPLINESEGS
 70
     8
  9
$ATTDIA
 70
     0
  9
$ATTREQ
 70
     1
  9
$HANDLING
 70
     0
  9
$HANDSEED
  5
0
  9
$SURFTAB1
 70
     6
  9
$SURFTAB2
 70
     6
  9
$SURFTYPE
 70
     6
  9
$SURFU
 70
     6
  9
$SURFV
 70
     6
  9
$UCSNAME
  2

  9
$UCSORG
 10
0.0
 20
0.0
 30
0.0
  9
$UCSXDIR
 10
1.0
 20
0.0
 30
0.0
  9
$UCSYDIR
 10
0.0
 20
1.0
 30
0.0
  9
$PUCSNAME
  2

  9
$PUCSORG
 10
0.0
 20
0.0
 30
0.0
  9
$PUCSXDIR
 10
1.0
 20
0.0
 30
0.0
  9
$PUCSYDIR
 10
0.0
 20
1.0
 30
0.0
  9
$USERI1
 70
     0
  9
$USERI2
 70
     0
  9
$USERI3
 70
     0
  9
$USERI4
 70
     0
  9
$USERI5
 70
     0
  9
$USERR1
 40
0.0
  9
$USERR2
 40
0.0
  9
$USERR3
 40
0.0
  9
$USERR4
 40
0.0
  9
$USERR5
 40
0.0
  9
$WORLDVIEW
 70
     1
  9
$SHADEDGE
 70
     3
  9
$SHADEDIF
 70
    70
  9
$TILEMODE
 70
     1
  9
$MAXACTVP
 70
    16
  9
$PINSBASE
 10
0.0
 20
0.0
 30
0.0
  9
$PLIMCHECK
 70
     0
  9
$PEXTMIN
 10
1.000000E+20
 20
1.000000E+20
 30
1.000000E+20
  9
$PEXTMAX
 10
-1.000000E+20
 20
-1.000000E+20
 30
-1.000000E+20
  9
$PLIMMIN
 10
0.0
 20
0.0
  9
$PLIMMAX
 10
12.0
 20
9.0
  9
$UNITMODE
 70
     0
  9
$VISRETAIN
 70
     0
  9
$PLINEGEN
 70
     0
  9
$PSLTSCALE
 70
     0
  9
$TREEDEPTH
 70
  3020
  9
$DWGCODEPAGE
  3
undefined
  0
ENDSEC
  0
SECTION
  2
TABLES
  0
TABLE
  2
VPORT
 70
     2
  0
VPORT
  2
*ACTIVE
 70
     0
 10
0.0
 20
0.0
 11
1.0
 21
1.0
 12
127.550089
 22
-268.181386
 13
0.0
 23
0.0
 14
1.0
 24
1.0
 15
0.0
 25
0.0
 16
0.0
 26
0.0
 36
1.0
 17
0.0
 27
0.0
 37
0.0
 40
446.871954
 41
1.767507
 42
50.0
 43
0.0
 44
0.0
 50
0.0
 51
0.0
 71
     0
 72
   100
 73
     1
 74
     0
 75
     0
 76
     0
 77
     0
 78
     0
  0
ENDTAB
  0
TABLE
  2
LTYPE
 70
     3
  0
LTYPE
  2
CONTINUOUS
 70
    64
  3
Solid line
 72
    65
 73
     0
 40
0.0
  0
LTYPE
  2
CENTER
 70
    64
  3
____ _ ____ _ ____ _ ____ _ ____ _ ____ _ ____
 72
    65
 73
     4
 40
2.0
 49
1.25
 49
-0.25
 49
0.25
 49
-0.25
  0
LTYPE
  2
DASHED
 70
     0
  3
__ __ __ __ __ __ __ __ __ __ __ __ __ __ __
 72
    65
 73
     2
 40
0.75
 49
0.5
 49
-0.25
  0
ENDTAB
  0
TABLE
  2
LAYER
 70
     1
  0
LAYER
  2
0
 70
    64
 62
     7
  6
CONTINUOUS
  0
ENDTAB
  0
TABLE
  2
STYLE
 70
     1
  0
STYLE
  2
STANDARD
 70
     0
 40
0.0
 41
1.0
 50
0.0
 71
     0
 42
0.2
  3
txt
  4

  0
ENDTAB
  0
TABLE
  2
VIEW
 70
     0
  0
ENDTAB
  0
TABLE
  2
UCS
 70
     0
  0
ENDTAB
  0
TABLE
  2
APPID
 70
     1
  0
APPID
  2
ACAD
 70
    64
  0
ENDTAB
  0
TABLE
  2
DIMSTYLE
 70
     0
  0
ENDTAB
  0
ENDSEC
  0
SECTION
  2
BLOCKS
  0
BLOCK
  8
0
  2
*X0
 70
    65
 10
0.0
 20
0.0
 30
0.0
  3
*X
  0
LINE
  8
0
 62
     0
 10
-55.57585
 20
-122.615059
 30
0.0
 11
-69.535147
 21
-108.655762
 31
0.0
  0
LINE
  8
0
 62
     0
 10
-58.563112
 20
-123.870437
 30
0.0
 11
-71.843882
 21
-110.589668
 31
0.0
  0
LINE
  8
0
 62
     0
 10
-60.124899
 20
-126.551291
 30
0.0
 11
-73.775305
 21
-112.900885
 31
0.0
  0
LINE
  8
0
 62
     0
 10
-60.820829
 20
-130.098002
 30
0.0
 11
-75.310316
 21
-115.608515
 31
0.0
  0
LINE
  8
0
 62
     0
 10
-61.516028
 20
-133.645444
 30
0.0
 11
-76.383057
 21
-118.778415
 31
0.0
  0
LINE
  8
0
 62
     0
 10
-62.211227
 20
-137.192885
 30
0.0
 11
-77.231585
 21
-122.172527
 31
0.0
  0
LINE
  8
0
 62
     0
 10
-62.906426
 20
-140.740327
 30
0.0
 11
-78.080113
 21
-125.56664
 31
0.0
  0
LINE
  8
0
 62
     0
 10
-63.601625
 20
-144.287769
 30
0.0
 11
-69.839342
 21
-138.050052
 31
0.0
  0
LINE
  8
0
 62
     0
 10
-71.285838
 20
-136.603556
 30
0.0
 11
-78.928641
 21
-128.960752
 31
0.0
  0
LINE
  8
0
 62
     0
 10
-64.296824
 20
-147.83521
 30
0.0
 11
-69.839342
 21
-142.292692
 31
0.0
  0
LINE
  8
0
 62
     0
 10
-75.528479
 20
-136.603556
 30
0.0
 11
-79.777169
 21
-132.354865
 31
0.0
  0
LINE
  8
0
 62
     0
 10
-65.771119
 20
-150.603556
 30
0.0
 11
-69.839342
 21
-146.535333
 31
0.0
  0
LINE
  8
0
 62
     0
 10
-77.839342
 20
-138.535333
 30
0.0
 11
-80.625698
 21
-135.748977
 31
0.0
  0
LINE
  8
0
 62
     0
 10
-77.839342
 20
-142.777974
 30
0.0
 11
-81.474226
 21
-139.14309
 31
0.0
  0
LINE
  8
0
 62
     0
 10
-77.839342
 20
-147.020614
 30
0.0
 11
-82.322754
 21
-142.537203
 31
0.0
  0
LINE
  8
0
 62
     0
 10
-78.499042
 20
-150.603556
 30
0.0
 11
-83.171282
 21
-145.931315
 31
0.0
  0
LINE
  8
0
 62
     0
 10
-82.741682
 20
-150.603556
 30
0.0
 11
-84.01981
 21
-149.325428
 31
0.0
  0
LINE
  8
0
 62
     0
 10
-51.344713
 20
-122.603556
 30
0.0
 11
-66.83026
 21
-107.118008
 31
0.0
  0
LINE
  8
0
 62
     0
 10
-47.102072
 20
-122.603556
 30
0.0
 11
-63.661465
 21
-106.044162
 31
0.0
  0
LINE
  8
0
 62
     0
 10
-42.859431
 20
-122.603556
 30
0.0
 11
-59.859376
 21
-105.603611
 31
0.0
  0
LINE
  8
0
 62
     0
 10
-38.616791
 20
-122.603556
 30
0.0
 11
-55.616791
 21
-105.603556
 31
0.0
  0
LINE
  8
0
 62
     0
 10
-34.37415
 20
-122.603556
 30
0.0
 11
-51.37415
 21
-105.603556
 31
0.0
  0
LINE
  8
0
 62
     0
 10
-30.131509
 20
-122.603556
 30
0.0
 11
-47.131509
 21
-105.603556
 31
0.0
  0
LINE
  8
0
 62
     0
 10
-25.888868
 20
-122.603556
 30
0.0
 11
-42.888868
 21
-105.603556
 31
0.0
  0
LINE
  8
0
 62
     0
 10
-21.646228
 20
-122.603556
 30
0.0
 11
-38.646228
 21
-105.603556
 31
0.0
  0
LINE
  8
0
 62
     0
 10
-18.839342
 20
-121.167801
 30
0.0
 11
-34.403587
 21
-105.603556
 31
0.0
  0
LINE
  8
0
 62
     0
 10
-18.839342
 20
-116.92516
 30
0.0
 11
-30.160946
 21
-105.603556
 31
0.0
  0
LINE
  8
0
 62
     0
 10
-18.839342
 20
-112.682519
 30
0.0
 11
-25.918306
 21
-105.603556
 31
0.0
  0
LINE
  8
0
 62
     0
 10
-18.839342
 20
-108.439879
 30
0.0
 11
-21.675665
 21
-105.603556
 31
0.0
  0
LINE
  8
0
 62
     0
 10
-69.839342
 20
-146.206874
 30
0.0
 11
-62.549017
 21
-138.916549
 31
0.0
  0
LINE
  8
0
 62
     0
 10
-46.236023
 20
-122.603556
 30
0.0
 11
-29.236023
 21
-105.603556
 31
0.0
  0
LINE
  8
0
 62
     0
 10
-69.839342
 20
-150.449515
 30
0.0
 11
-63.583108
 21
-144.193281
 31
0.0
  0
LINE
  8
0
 62
     0
 10
-41.993382
 20
-122.603556
 30
0.0
 11
-24.993382
 21
-105.603556
 31
0.0
  0
LINE
  8
0
 62
     0
 10
-65.750742
 20
-150.603556
 30
0.0
 11
-64.6172
 21
-149.470013
 31
0.0
  0
LINE
  8
0
 62
     0
 10
-37.750742
 20
-122.603556
 30
0.0
 11
-20.750742
 21
-105.603556
 31
0.0
  0
LINE
  8
0
 62
     0
 10
-33.508101
 20
-122.603556
 30
0.0
 11
-18.839342
 21
-107.934797
 31
0.0
  0
LINE
  8
0
 62
     0
 10
-29.26546
 20
-122.603556
 30
0.0
 11
-18.839342
 21
-112.177437
 31
0.0
  0
LINE
  8
0
 62
     0
 10
-25.02282
 20
-122.603556
 30
0.0
 11
-18.839342
 21
-116.420078
 31
0.0
  0
LINE
  8
0
 62
     0
 10
-20.780179
 20
-122.603556
 30
0.0
 11
-18.839342
 21
-120.662719
 31
0.0
  0
LINE
  8
0
 62
     0
 10
-78.478664
 20
-150.603556
 30
0.0
 11
-77.839342
 21
-149.964234
 31
0.0
  0
LINE
  8
0
 62
     0
 10
-50.478664
 20
-122.603556
 30
0.0
 11
-33.478664
 21
-105.603556
 31
0.0
  0
LINE
  8
0
 62
     0
 10
-69.839342
 20
-141.964234
 30
0.0
 11
-61.514925
 21
-133.639817
 31
0.0
  0
LINE
  8
0
 62
     0
 10
-82.721305
 20
-150.603556
 30
0.0
 11
-77.839342
 21
-145.721593
 31
0.0
  0
LINE
  8
0
 62
     0
 10
-54.721305
 20
-122.603556
 30
0.0
 11
-37.721305
 21
-105.603556
 31
0.0
  0
LINE
  8
0
 62
     0
 10
-69.839342
 20
-137.721593
 30
0.0
 11
-60.480833
 21
-128.363084
 31
0.0
  0
LINE
  8
0
 62
     0
 10
-83.464474
 20
-147.104085
 30
0.0
 11
-77.839342
 21
-141.478952
 31
0.0
  0
LINE
  8
0
 62
     0
 10
-72.963945
 20
-136.603556
 30
0.0
 11
-41.963945
 21
-105.603556
 31
0.0
  0
LINE
  8
0
 62
     0
 10
-82.050261
 20
-141.44723
 30
0.0
 11
-77.839342
 21
-137.236312
 31
0.0
  0
LINE
  8
0
 62
     0
 10
-77.206586
 20
-136.603556
 30
0.0
 11
-46.206586
 21
-105.603556
 31
0.0
  0
LINE
  8
0
 62
     0
 10
-80.636047
 20
-135.790376
 30
0.0
 11
-50.449227
 21
-105.603556
 31
0.0
  0
LINE
  8
0
 62
     0
 10
-79.221834
 20
-130.133522
 30
0.0
 11
-54.691867
 21
-105.603556
 31
0.0
  0
LINE
  8
0
 62
     0
 10
-77.80762
 20
-124.476668
 30
0.0
 11
-58.934508
 21
-105.603556
 31
0.0
  0
LINE
  8
0
 62
     0
 10
-76.393407
 20
-118.819813
 30
0.0
 11
-63.604669
 21
-106.031076
 31
0.0
  0
ENDBLK
  8
0
  0
BLOCK
  8
0
  2
*X1
 70
    65
 10
0.0
 20
0.0
 30
0.0
  3
*X
  0
LINE
  8
0
 62
     0
 10
-54.831725
 20
-0.322604
 30
0.0
 11
-70.786661
 21
15.632332
 31
0.0
  0
LINE
  8
0
 62
     0
 10
-59.074365
 20
-0.322604
 30
0.0
 11
-73.096955
 21
13.699985
 31
0.0
  0
LINE
  8
0
 62
     0
 10
-62.654185
 20
-0.985425
 30
0.0
 11
-75.029938
 21
11.390327
 31
0.0
  0
LINE
  8
0
 62
     0
 10
-64.366657
 20
-3.515594
 30
0.0
 11
-76.566672
 21
8.684421
 31
0.0
  0
LINE
  8
0
 62
     0
 10
-64.541043
 20
-7.583848
 30
0.0
 11
-77.669117
 21
5.544226
 31
0.0
  0
LINE
  8
0
 62
     0
 10
-64.655709
 20
-11.711823
 30
0.0
 11
-78.654781
 21
2.287249
 31
0.0
  0
LINE
  8
0
 62
     0
 10
-64.770375
 20
-15.839798
 30
0.0
 11
-79.640445
 21
-0.969728
 31
0.0
  0
LINE
  8
0
 62
     0
 10
-64.885041
 20
-19.967773
 30
0.0
 11
-80.626109
 21
-4.226704
 31
0.0
  0
LINE
  8
0
 62
     0
 10
-64.999707
 20
-24.095747
 30
0.0
 11
-68.839342
 21
-20.256112
 31
0.0
  0
LINE
  8
0
 62
     0
 10
-72.77285
 20
-16.322604
 30
0.0
 11
-81.611773
 21
-7.483681
 31
0.0
  0
LINE
  8
0
 62
     0
 10
-65.114373
 20
-28.223722
 30
0.0
 11
-68.839342
 21
-24.498753
 31
0.0
  0
LINE
  8
0
 62
     0
 10
-77.015491
 20
-16.322604
 30
0.0
 11
-82.597437
 21
-10.740658
 31
0.0
  0
LINE
  8
0
 62
     0
 10
-65.229039
 20
-32.351697
 30
0.0
 11
-68.839342
 21
-28.741394
 31
0.0
  0
LINE
  8
0
 62
     0
 10
-78.839342
 20
-18.741394
 30
0.0
 11
-83.583101
 21
-13.997635
 31
0.0
  0
LINE
  8
0
 62
     0
 10
-65.500772
 20
-36.322604
 30
0.0
 11
-68.839342
 21
-32.984034
 31
0.0
  0
LINE
  8
0
 62
     0
 10
-78.839342
 20
-22.984034
 30
0.0
 11
-84.568765
 21
-17.254611
 31
0.0
  0
LINE
  8
0
 62
     0
 10
-78.839342
 20
-27.226675
 30
0.0
 11
-85.554429
 21
-20.511588
 31
0.0
  0
LINE
  8
0
 62
     0
 10
-78.839342
 20
-31.469316
 30
0.0
 11
-86.540093
 21
-23.768565
 31
0.0
  0
LINE
  8
0
 62
     0
 10
-78.839342
 20
-35.711956
 30
0.0
 11
-87.525757
 21
-27.025541
 31
0.0
  0
LINE
  8
0
 62
     0
 10
-82.471335
 20
-36.322604
 30
0.0
 11
-88.511421
 21
-30.282518
 31
0.0
  0
LINE
  8
0
 62
     0
 10
-86.713976
 20
-36.322604
 30
0.0
 11
-89.497085
 21
-33.539495
 31
0.0
  0
LINE
  8
0
 62
     0
 10
-50.589084
 20
-0.322604
 30
0.0
 11
-68.080052
 21
17.168363
 31
0.0
  0
LINE
  8
0
 62
     0
 10
-46.346443
 20
-0.322604
 30
0.0
 11
-64.90911
 21
18.240063
 31
0.0
  0
LINE
  8
0
 62
     0
 10
-42.103803
 20
-0.322604
 30
0.0
 11
-61.103783
 21
18.677376
 31
0.0
  0
LINE
  8
0
 62
     0
 10
-37.861162
 20
-0.322604
 30
0.0
 11
-56.861162
 21
18.677396
 31
0.0
  0
LINE
  8
0
 62
     0
 10
-33.618521
 20
-0.322604
 30
0.0
 11
-52.618521
 21
18.677396
 31
0.0
  0
LINE
  8
0
 62
     0
 10
-29.375881
 20
-0.322604
 30
0.0
 11
-48.375881
 21
18.677396
 31
0.0
  0
LINE
  8
0
 62
     0
 10
-25.13324
 20
-0.322604
 30
0.0
 11
-44.13324
 21
18.677396
 31
0.0
  0
LINE
  8
0
 62
     0
 10
-20.890599
 20
-0.322604
 30
0.0
 11
-39.890599
 21
18.677396
 31
0.0
  0
LINE
  8
0
 62
     0
 10
-16.647959
 20
-0.322604
 30
0.0
 11
-35.647959
 21
18.677396
 31
0.0
  0
LINE
  8
0
 62
     0
 10
-12.405318
 20
-0.322604
 30
0.0
 11
-31.405318
 21
18.677396
 31
0.0
  0
LINE
  8
0
 62
     0
 10
-8.162677
 20
-0.322604
 30
0.0
 11
-27.162677
 21
18.677396
 31
0.0
  0
LINE
  8
0
 62
     0
 10
-7.839342
 20
3.596701
 30
0.0
 11
-22.920037
 21
18.677396
 31
0.0
  0
LINE
  8
0
 62
     0
 10
-7.839342
 20
7.839342
 30
0.0
 11
-18.677396
 21
18.677396
 31
0.0
  0
LINE
  8
0
 62
     0
 10
-7.839342
 20
12.081983
 30
0.0
 11
-14.434755
 21
18.677396
 31
0.0
  0
LINE
  8
0
 62
     0
 10
-7.839342
 20
16.324623
 30
0.0
 11
-10.192114
 21
18.677396
 31
0.0
  0
LINE
  8
0
 62
     0
 10
-68.839342
 20
-30.655576
 30
0.0
 11
-65.077427
 21
-26.893661
 31
0.0
  0
LINE
  8
0
 62
     0
 10
-38.50637
 20
-0.322604
 30
0.0
 11
-19.50637
 21
18.677396
 31
0.0
  0
LINE
  8
0
 62
     0
 10
-68.839342
 20
-34.898217
 30
0.0
 11
-65.198645
 21
-31.25752
 31
0.0
  0
LINE
  8
0
 62
     0
 10
-34.26373
 20
-0.322604
 30
0.0
 11
-15.26373
 21
18.677396
 31
0.0
  0
LINE
  8
0
 62
     0
 10
-66.021089
 20
-36.322604
 30
0.0
 11
-65.319864
 21
-35.621379
 31
0.0
  0
LINE
  8
0
 62
     0
 10
-30.021089
 20
-0.322604
 30
0.0
 11
-11.021089
 21
18.677396
 31
0.0
  0
LINE
  8
0
 62
     0
 10
-25.778448
 20
-0.322604
 30
0.0
 11
-7.839342
 21
17.616502
 31
0.0
  0
LINE
  8
0
 62
     0
 10
-21.535808
 20
-0.322604
 30
0.0
 11
-7.839342
 21
13.373861
 31
0.0
  0
LINE
  8
0
 62
     0
 10
-17.293167
 20
-0.322604
 30
0.0
 11
-7.839342
 21
9.131221
 31
0.0
  0
LINE
  8
0
 62
     0
 10
-13.050526
 20
-0.322604
 30
0.0
 11
-7.839342
 21
4.88858
 31
0.0
  0
LINE
  8
0
 62
     0
 10
-8.807886
 20
-0.322604
 30
0.0
 11
-7.839342
 21
0.645939
 31
0.0
  0
LINE
  8
0
 62
     0
 10
-68.839342
 20
-26.412935
 30
0.0
 11
-64.956209
 21
-22.529802
 31
0.0
  0
LINE
  8
0
 62
     0
 10
-42.749011
 20
-0.322604
 30
0.0
 11
-23.749011
 21
18.677396
 31
0.0
  0
LINE
  8
0
 62
     0
 10
-82.991652
 20
-36.322604
 30
0.0
 11
-78.839342
 21
-32.170295
 31
0.0
  0
LINE
  8
0
 62
     0
 10
-46.991652
 20
-0.322604
 30
0.0
 11
-27.991652
 21
18.677396
 31
0.0
  0
LINE
  8
0
 62
     0
 10
-68.839342
 20
-22.170295
 30
0.0
 11
-64.83499
 21
-18.165943
 31
0.0
  0
LINE
  8
0
 62
     0
 10
-87.234292
 20
-36.322604
 30
0.0
 11
-78.839342
 21
-27.927654
 31
0.0
  0
LINE
  8
0
 62
     0
 10
-51.234292
 20
-0.322604
 30
0.0
 11
-32.234292
 21
18.677396
 31
0.0
  0
LINE
  8
0
 62
     0
 10
-68.839342
 20
-17.927654
 30
0.0
 11
-64.713772
 21
-13.802084
 31
0.0
  0
LINE
  8
0
 62
     0
 10
-89.845671
 20
-34.691342
 30
0.0
 11
-78.839342
 21
-23.685013
 31
0.0
  0
LINE
  8
0
 62
     0
 10
-55.476933
 20
-0.322604
 30
0.0
 11
-36.476933
 21
18.677396
 31
0.0
  0
LINE
  8
0
 62
     0
 10
-71.476933
 20
-16.322604
 30
0.0
 11
-64.592554
 21
-9.438225
 31
0.0
  0
LINE
  8
0
 62
     0
 10
-88.004525
 20
-28.607555
 30
0.0
 11
-78.839342
 21
-19.442372
 31
0.0
  0
LINE
  8
0
 62
     0
 10
-59.719574
 20
-0.322604
 30
0.0
 11
-40.719574
 21
18.677396
 31
0.0
  0
LINE
  8
0
 62
     0
 10
-75.719574
 20
-16.322604
 30
0.0
 11
-64.471335
 21
-5.074366
 31
0.0
  0
LINE
  8
0
 62
     0
 10
-86.163379
 20
-22.523768
 30
0.0
 11
-44.962214
 21
18.677396
 31
0.0
  0
LINE
  8
0
 62
     0
 10
-84.322233
 20
-16.439982
 30
0.0
 11
-49.204855
 21
18.677396
 31
0.0
  0
LINE
  8
0
 62
     0
 10
-82.481087
 20
-10.356195
 30
0.0
 11
-53.447496
 21
18.677396
 31
0.0
  0
LINE
  8
0
 62
     0
 10
-80.639941
 20
-4.272408
 30
0.0
 11
-57.690137
 21
18.677396
 31
0.0
  0
LINE
  8
0
 62
     0
 10
-78.798795
 20
1.811378
 30
0.0
 11
-61.955441
 21
18.654732
 31
0.0
  0
LINE
  8
0
 62
     0
 10
-76.862179
 20
7.990635
 30
0.0
 11
-67.391153
 21
17.461661
 31
0.0
  0
ENDBLK
  8
0
  0
BLOCK
  8
0
  2
*X2
 70
    65
 10
0.0
 20
0.0
 30
0.0
  3
*X
  0
LINE
  8
0
 62
     0
 10
-54.984141
 20
288.329379
 30
0.0
 11
-73.657217
 21
307.002454
 31
0.0
  0
LINE
  8
0
 62
     0
 10
-55.941425
 20
285.044023
 30
0.0
 11
-75.612274
 21
304.714872
 31
0.0
  0
LINE
  8
0
 62
     0
 10
-56.519967
 20
281.379924
 30
0.0
 11
-77.173303
 21
302.033259
 31
0.0
  0
LINE
  8
0
 62
     0
 10
-57.098509
 20
277.715825
 30
0.0
 11
-78.296038
 21
298.913353
 31
0.0
  0
LINE
  8
0
 62
     0
 10
-57.677051
 20
274.051726
 30
0.0
 11
-79.281702
 21
295.656377
 31
0.0
  0
LINE
  8
0
 62
     0
 10
-58.255593
 20
270.387627
 30
0.0
 11
-80.267366
 21
292.3994
 31
0.0
  0
LINE
  8
0
 62
     0
 10
-58.834135
 20
266.723529
 30
0.0
 11
-81.25303
 21
289.142423
 31
0.0
  0
LINE
  8
0
 62
     0
 10
-59.412677
 20
263.05943
 30
0.0
 11
-82.238694
 21
285.885447
 31
0.0
  0
LINE
  8
0
 62
     0
 10
-59.991219
 20
259.395331
 30
0.0
 11
-68.839342
 21
268.243454
 31
0.0
  0
LINE
  8
0
 62
     0
 10
-71.453105
 20
270.857217
 30
0.0
 11
-83.224358
 21
282.62847
 31
0.0
  0
LINE
  8
0
 62
     0
 10
-60.569761
 20
255.731232
 30
0.0
 11
-68.839342
 21
264.000814
 31
0.0
  0
LINE
  8
0
 62
     0
 10
-75.695745
 20
270.857217
 30
0.0
 11
-84.210022
 21
279.371493
 31
0.0
  0
LINE
  8
0
 62
     0
 10
-61.148303
 20
252.067134
 30
0.0
 11
-68.839342
 21
259.758173
 31
0.0
  0
LINE
  8
0
 62
     0
 10
-78.839342
 20
269.758173
 30
0.0
 11
-85.195686
 21
276.114517
 31
0.0
  0
LINE
  8
0
 62
     0
 10
-64.181027
 20
250.857217
 30
0.0
 11
-68.839342
 21
255.515532
 31
0.0
  0
LINE
  8
0
 62
     0
 10
-78.839342
 20
265.515532
 30
0.0
 11
-86.18135
 21
272.85754
 31
0.0
  0
LINE
  8
0
 62
     0
 10
-68.423667
 20
250.857217
 30
0.0
 11
-68.839342
 21
251.272892
 31
0.0
  0
LINE
  8
0
 62
     0
 10
-78.839342
 20
261.272892
 30
0.0
 11
-87.167014
 21
269.600563
 31
0.0
  0
LINE
  8
0
 62
     0
 10
-78.839342
 20
257.030251
 30
0.0
 11
-88.152678
 21
266.343587
 31
0.0
  0
LINE
  8
0
 62
     0
 10
-78.839342
 20
252.78761
 30
0.0
 11
-89.138342
 21
263.08661
 31
0.0
  0
LINE
  8
0
 62
     0
 10
-81.15159
 20
250.857217
 30
0.0
 11
-90.124006
 21
259.829633
 31
0.0
  0
LINE
  8
0
 62
     0
 10
-85.39423
 20
250.857217
 30
0.0
 11
-91.10967
 21
256.572656
 31
0.0
  0
LINE
  8
0
 62
     0
 10
-89.636871
 20
250.857217
 30
0.0
 11
-92.095334
 21
253.31568
 31
0.0
  0
LINE
  8
0
 62
     0
 10
-51.269339
 20
288.857217
 30
0.0
 11
-71.324784
 21
308.912663
 31
0.0
  0
LINE
  8
0
 62
     0
 10
-47.026698
 20
288.857217
 30
0.0
 11
-68.593656
 21
310.424175
 31
0.0
  0
LINE
  8
0
 62
     0
 10
-42.784057
 20
288.857217
 30
0.0
 11
-65.392006
 21
311.465166
 31
0.0
  0
LINE
  8
0
 62
     0
 10
-38.541416
 20
288.857217
 30
0.0
 11
-61.541416
 21
311.857217
 31
0.0
  0
LINE
  8
0
 62
     0
 10
-34.298776
 20
288.857217
 30
0.0
 11
-57.298776
 21
311.857217
 31
0.0
  0
LINE
  8
0
 62
     0
 10
-30.056135
 20
288.857217
 30
0.0
 11
-53.056135
 21
311.857217
 31
0.0
  0
LINE
  8
0
 62
     0
 10
-25.813494
 20
288.857217
 30
0.0
 11
-48.813494
 21
311.857217
 31
0.0
  0
LINE
  8
0
 62
     0
 10
-21.570854
 20
288.857217
 30
0.0
 11
-44.570854
 21
311.857217
 31
0.0
  0
LINE
  8
0
 62
     0
 10
-17.328213
 20
288.857217
 30
0.0
 11
-40.328213
 21
311.857217
 31
0.0
  0
LINE
  8
0
 62
     0
 10
-13.085572
 20
288.857217
 30
0.0
 11
-36.085572
 21
311.857217
 31
0.0
  0
LINE
  8
0
 62
     0
 10
-8.842932
 20
288.857217
 30
0.0
 11
-31.842932
 21
311.857217
 31
0.0
  0
LINE
  8
0
 62
     0
 10
-4.600291
 20
288.857217
 30
0.0
 11
-27.600291
 21
311.857217
 31
0.0
  0
LINE
  8
0
 62
     0
 10
-0.35765
 20
288.857217
 30
0.0
 11
-23.35765
 21
311.857217
 31
0.0
  0
LINE
  8
0
 62
     0
 10
1.160658
 20
291.58155
 30
0.0
 11
-19.11501
 21
311.857217
 31
0.0
  0
LINE
  8
0
 62
     0
 10
1.160658
 20
295.82419
 30
0.0
 11
-14.872369
 21
311.857217
 31
0.0
  0
LINE
  8
0
 62
     0
 10
1.160658
 20
300.066831
 30
0.0
 11
-10.629728
 21
311.857217
 31
0.0
  0
LINE
  8
0
 62
     0
 10
1.160658
 20
304.309472
 30
0.0
 11
-6.387088
 21
311.857217
 31
0.0
  0
LINE
  8
0
 62
     0
 10
1.160658
 20
308.552112
 30
0.0
 11
-2.144447
 21
311.857217
 31
0.0
  0
LINE
  8
0
 62
     0
 10
-68.839342
 20
257.843991
 30
0.0
 11
-58.623072
 21
268.060261
 31
0.0
  0
LINE
  8
0
 62
     0
 10
-37.826116
 20
288.857217
 30
0.0
 11
-14.826116
 21
311.857217
 31
0.0
  0
LINE
  8
0
 62
     0
 10
-68.839342
 20
253.60135
 30
0.0
 11
-59.418567
 21
263.022125
 31
0.0
  0
LINE
  8
0
 62
     0
 10
-33.583475
 20
288.857217
 30
0.0
 11
-10.583475
 21
311.857217
 31
0.0
  0
LINE
  8
0
 62
     0
 10
-67.340835
 20
250.857217
 30
0.0
 11
-60.214062
 21
257.983989
 31
0.0
  0
LINE
  8
0
 62
     0
 10
-29.340835
 20
288.857217
 30
0.0
 11
-6.340835
 21
311.857217
 31
0.0
  0
LINE
  8
0
 62
     0
 10
-63.098194
 20
250.857217
 30
0.0
 11
-61.009557
 21
252.945853
 31
0.0
  0
LINE
  8
0
 62
     0
 10
-25.098194
 20
288.857217
 30
0.0
 11
-2.098194
 21
311.857217
 31
0.0
  0
LINE
  8
0
 62
     0
 10
-20.855553
 20
288.857217
 30
0.0
 11
1.160658
 21
310.873428
 31
0.0
  0
LINE
  8
0
 62
     0
 10
-16.612912
 20
288.857217
 30
0.0
 11
1.160658
 21
306.630787
 31
0.0
  0
LINE
  8
0
 62
     0
 10
-12.370272
 20
288.857217
 30
0.0
 11
1.160658
 21
302.388147
 31
0.0
  0
LINE
  8
0
 62
     0
 10
-8.127631
 20
288.857217
 30
0.0
 11
1.160658
 21
298.145506
 31
0.0
  0
LINE
  8
0
 62
     0
 10
-3.88499
 20
288.857217
 30
0.0
 11
1.160658
 21
293.902865
 31
0.0
  0
LINE
  8
0
 62
     0
 10
0.35765
 20
288.857217
 30
0.0
 11
1.160658
 21
289.660225
 31
0.0
  0
LINE
  8
0
 62
     0
 10
-80.068757
 20
250.857217
 30
0.0
 11
-78.839342
 21
252.086631
 31
0.0
  0
LINE
  8
0
 62
     0
 10
-42.068757
 20
288.857217
 30
0.0
 11
-19.068757
 21
311.857217
 31
0.0
  0
LINE
  8
0
 62
     0
 10
-68.839342
 20
262.086631
 30
0.0
 11
-57.827577
 21
273.098397
 31
0.0
  0
LINE
  8
0
 62
     0
 10
-84.311397
 20
250.857217
 30
0.0
 11
-78.839342
 21
256.329272
 31
0.0
  0
LINE
  8
0
 62
     0
 10
-46.311397
 20
288.857217
 30
0.0
 11
-23.311397
 21
311.857217
 31
0.0
  0
LINE
  8
0
 62
     0
 10
-68.839342
 20
266.329272
 30
0.0
 11
-57.032082
 21
278.136533
 31
0.0
  0
LINE
  8
0
 62
     0
 10
-88.554038
 20
250.857217
 30
0.0
 11
-78.839342
 21
260.571913
 31
0.0
  0
LINE
  8
0
 62
     0
 10
-50.554038
 20
288.857217
 30
0.0
 11
-27.554038
 21
311.857217
 31
0.0
  0
LINE
  8
0
 62
     0
 10
-68.839342
 20
270.571913
 30
0.0
 11
-56.236587
 21
283.174668
 31
0.0
  0
LINE
  8
0
 62
     0
 10
-92.796679
 20
250.857217
 30
0.0
 11
-78.839342
 21
264.814554
 31
0.0
  0
LINE
  8
0
 62
     0
 10
-72.796679
 20
270.857217
 30
0.0
 11
-31.796679
 21
311.857217
 31
0.0
  0
LINE
  8
0
 62
     0
 10
-91.01671
 20
256.879826
 30
0.0
 11
-78.839342
 21
269.057194
 31
0.0
  0
LINE
  8
0
 62
     0
 10
-77.039319
 20
270.857217
 30
0.0
 11
-36.039319
 21
311.857217
 31
0.0
  0
LINE
  8
0
 62
     0
 10
-89.175565
 20
262.963613
 30
0.0
 11
-40.28196
 21
311.857217
 31
0.0
  0
LINE
  8
0
 62
     0
 10
-87.334419
 20
269.047399
 30
0.0
 11
-44.524601
 21
311.857217
 31
0.0
  0
LINE
  8
0
 62
     0
 10
-85.493273
 20
275.131186
 30
0.0
 11
-48.767241
 21
311.857217
 31
0.0
  0
LINE
  8
0
 62
     0
 10
-83.652127
 20
281.214972
 30
0.0
 11
-53.009882
 21
311.857217
 31
0.0
  0
LINE
  8
0
 62
     0
 10
-81.810981
 20
287.298759
 30
0.0
 11
-57.252523
 21
311.857217
 31
0.0
  0
LINE
  8
0
 62
     0
 10
-79.969835
 20
293.382546
 30
0.0
 11
-61.495163
 21
311.857217
 31
0.0
  0
LINE
  8
0
 62
     0
 10
-78.128689
 20
299.466332
 30
0.0
 11
-66.37585
 21
311.219171
 31
0.0
  0
ENDBLK
  8
0
  0
BLOCK
  8
0
  2
*X3
 70
    65
 10
0.0
 20
0.0
 30
0.0
  3
*X
  0
LINE
  8
0
 62
     0
 10
-70.339342
 20
-396.492345
 30
0.0
 11
-68.739342
 21
-394.892345
 31
0.0
  0
LINE
  8
0
 62
     0
 10
-61.939342
 20
-388.092345
 30
0.0
 11
-60.339342
 21
-386.492345
 31
0.0
  0
LINE
  8
0
 62
     0
 10
-70.339342
 20
-393.840694
 30
0.0
 11
-68.739342
 21
-392.240694
 31
0.0
  0
LINE
  8
0
 62
     0
 10
-62.63096
 20
-386.132312
 30
0.0
 11
-60.339342
 21
-383.840694
 31
0.0
  0
LINE
  8
0
 62
     0
 10
-70.339342
 20
-391.189044
 30
0.0
 11
-68.739342
 21
-389.589044
 31
0.0
  0
LINE
  8
0
 62
     0
 10
-64.312039
 20
-385.161741
 30
0.0
 11
-62.681915
 21
-383.531617
 31
0.0
  0
LINE
  8
0
 62
     0
 10
-70.339342
 20
-388.537394
 30
0.0
 11
-68.739342
 21
-386.937394
 31
0.0
  0
LINE
  8
0
 62
     0
 10
-67.779265
 20
-385.977317
 30
0.0
 11
-65.333566
 21
-383.531617
 31
0.0
  0
LINE
  8
0
 62
     0
 10
-70.339342
 20
-385.885743
 30
0.0
 11
-67.985216
 21
-383.531617
 31
0.0
  0
LINE
  8
0
 62
     0
 10
-70.339342
 20
-399.143995
 30
0.0
 11
-68.739342
 21
-397.543995
 31
0.0
  0
LINE
  8
0
 62
     0
 10
-61.939342
 20
-390.743995
 30
0.0
 11
-60.339342
 21
-389.143995
 31
0.0
  0
LINE
  8
0
 62
     0
 10
-70.339342
 20
-401.795646
 30
0.0
 11
-68.739342
 21
-400.195646
 31
0.0
  0
LINE
  8
0
 62
     0
 10
-61.939342
 20
-393.395646
 30
0.0
 11
-60.339342
 21
-391.795646
 31
0.0
  0
LINE
  8
0
 62
     0
 10
-69.423663
 20
-403.531617
 30
0.0
 11
-68.739342
 21
-402.847296
 31
0.0
  0
LINE
  8
0
 62
     0
 10
-61.939342
 20
-396.047296
 30
0.0
 11
-60.339342
 21
-394.447296
 31
0.0
  0
LINE
  8
0
 62
     0
 10
-61.939342
 20
-398.698947
 30
0.0
 11
-60.339342
 21
-397.098947
 31
0.0
  0
LINE
  8
0
 62
     0
 10
-61.939342
 20
-401.350597
 30
0.0
 11
-60.339342
 21
-399.750597
 31
0.0
  0
LINE
  8
0
 62
     0
 10
-61.404027
 20
-403.466932
 30
0.0
 11
-60.339342
 21
-402.402248
 31
0.0
  0
ENDBLK
  8
0
  0
BLOCK
  8
0
  2
*X4
 70
    65
 10
0.0
 20
0.0
 30
0.0
  3
*X
  0
LINE
  8
0
 62
     0
 10
-72.839342
 20
-247.84827
 30
0.0
 11
-71.239342
 21
-246.24827
 31
0.0
  0
LINE
  8
0
 62
     0
 10
-64.439342
 20
-239.44827
 30
0.0
 11
-62.839342
 21
-237.84827
 31
0.0
  0
LINE
  8
0
 62
     0
 10
-72.839342
 20
-245.19662
 30
0.0
 11
-71.239342
 21
-243.59662
 31
0.0
  0
LINE
  8
0
 62
     0
 10
-64.603376
 20
-236.960654
 30
0.0
 11
-62.839342
 21
-235.19662
 31
0.0
  0
LINE
  8
0
 62
     0
 10
-72.839342
 20
-242.54497
 30
0.0
 11
-71.239342
 21
-240.94497
 31
0.0
  0
LINE
  8
0
 62
     0
 10
-66.284455
 20
-235.990083
 30
0.0
 11
-64.349731
 21
-234.055359
 31
0.0
  0
LINE
  8
0
 62
     0
 10
-72.839342
 20
-239.893319
 30
0.0
 11
-71.239342
 21
-238.293319
 31
0.0
  0
LINE
  8
0
 62
     0
 10
-68.310297
 20
-235.364274
 30
0.0
 11
-67.001382
 21
-234.055359
 31
0.0
  0
LINE
  8
0
 62
     0
 10
-72.839342
 20
-237.241669
 30
0.0
 11
-69.653032
 21
-234.055359
 31
0.0
  0
LINE
  8
0
 62
     0
 10
-72.839342
 20
-234.590018
 30
0.0
 11
-72.304683
 21
-234.055359
 31
0.0
  0
LINE
  8
0
 62
     0
 10
-72.839342
 20
-250.499921
 30
0.0
 11
-71.239342
 21
-248.899921
 31
0.0
  0
LINE
  8
0
 62
     0
 10
-64.439342
 20
-242.099921
 30
0.0
 11
-62.839342
 21
-240.499921
 31
0.0
  0
LINE
  8
0
 62
     0
 10
-72.839342
 20
-253.151571
 30
0.0
 11
-71.239342
 21
-251.551571
 31
0.0
  0
LINE
  8
0
 62
     0
 10
-64.439342
 20
-244.751571
 30
0.0
 11
-62.839342
 21
-243.151571
 31
0.0
  0
LINE
  8
0
 62
     0
 10
-64.439342
 20
-247.403222
 30
0.0
 11
-62.839342
 21
-245.803222
 31
0.0
  0
LINE
  8
0
 62
     0
 10
-64.439342
 20
-250.054872
 30
0.0
 11
-62.839342
 21
-248.454872
 31
0.0
  0
LINE
  8
0
 62
     0
 10
-64.439342
 20
-252.706523
 30
0.0
 11
-62.839342
 21
-251.106523
 31
0.0
  0
LINE
  8
0
 62
     0
 10
-63.136528
 20
-254.055359
 30
0.0
 11
-62.839342
 21
-253.758173
 31
0.0
  0
ENDBLK
  8
0
  0
BLOCK
  8
0
  2
*X5
 70
    65
 10
0.0
 20
0.0
 30
0.0
  3
*X
  0
LINE
  8
0
 62
     0
 10
-77.839342
 20
-107.007497
 30
0.0
 11
-76.339342
 21
-105.507497
 31
0.0
  0
LINE
  8
0
 62
     0
 10
-71.339342
 20
-100.507497
 30
0.0
 11
-69.839342
 21
-99.007497
 31
0.0
  0
LINE
  8
0
 62
     0
 10
-77.839342
 20
-104.355846
 30
0.0
 11
-76.339342
 21
-102.855846
 31
0.0
  0
LINE
  8
0
 62
     0
 10
-72.838582
 20
-99.355086
 30
0.0
 11
-70.704169
 21
-97.220673
 31
0.0
  0
LINE
  8
0
 62
     0
 10
-77.839342
 20
-101.704196
 30
0.0
 11
-73.355819
 21
-97.220673
 31
0.0
  0
LINE
  8
0
 62
     0
 10
-77.839342
 20
-99.052546
 30
0.0
 11
-76.00747
 21
-97.220673
 31
0.0
  0
LINE
  8
0
 62
     0
 10
-77.839342
 20
-109.659147
 30
0.0
 11
-76.339342
 21
-108.159147
 31
0.0
  0
LINE
  8
0
 62
     0
 10
-71.339342
 20
-103.159147
 30
0.0
 11
-69.839342
 21
-101.659147
 31
0.0
  0
LINE
  8
0
 62
     0
 10
-71.339342
 20
-105.810798
 30
0.0
 11
-69.839342
 21
-104.310798
 31
0.0
  0
LINE
  8
0
 62
     0
 10
-71.339342
 20
-108.462448
 30
0.0
 11
-69.839342
 21
-106.962448
 31
0.0
  0
LINE
  8
0
 62
     0
 10
-71.142629
 20
-110.917386
 30
0.0
 11
-69.839342
 21
-109.614099
 31
0.0
  0
ENDBLK
  8
0
  0
ENDSEC
  0
SECTION
  2
ENTITIES
  0
LINE
  8
0
  6
CENTER
 10
-67.839342
 20
-256.422935
 30
0.0
 11
-67.839342
 21
-231.761757
 31
0.0
  0
LINE
  8
0
  6
CENTER
 10
64.160658
 20
-256.422935
 30
0.0
 11
64.160658
 21
-231.761757
 31
0.0
  0
LINE
  8
0
 10
-84.339342
 20
-254.055359
 30
0.0
 11
-52.839342
 21
-254.055359
 31
0.0
  0
LINE
  8
0
 10
-54.44891
 20
-218.055359
 30
0.0
 11
41.466404
 21
-218.055359
 31
0.0
  0
LINE
  8
0
 10
-55.077914
 20
-199.055359
 30
0.0
 11
51.39923
 21
-199.055359
 31
0.0
  0
LINE
  8
0
 10
-52.839342
 20
-254.055359
 30
0.0
 11
-47.117876
 21
-219.726561
 31
0.0
  0
LINE
  8
0
 10
49.160658
 20
-254.055359
 30
0.0
 11
43.439192
 21
-219.726561
 31
0.0
  0
LINE
  8
0
 10
-1.839342
 20
-214.055359
 30
0.0
 11
42.146864
 21
-214.055359
 31
0.0
  0
LINE
  8
0
 10
52.202039
 20
-254.055359
 30
0.0
 11
46.09244
 21
-217.397763
 31
0.0
  0
ARC
  8
0
 10
42.146864
 20
-218.055359
 30
0.0
 40
4.0
 50
9.462322
 51
90.0
  0
LINE
  8
0
  6
CENTER
 10
-65.339342
 20
-410.731617
 30
0.0
 11
-65.339342
 21
-381.398284
 31
0.0
  0
LINE
  8
0
  6
CENTER
 10
84.660658
 20
-410.731617
 30
0.0
 11
84.660658
 21
-381.398284
 31
0.0
  0
LINE
  8
0
 10
-84.339342
 20
-403.531617
 30
0.0
 11
-52.839342
 21
-403.531617
 31
0.0
  0
LINE
  8
0
 10
-45.130354
 20
-365.531617
 30
0.0
 11
64.45167
 21
-365.531617
 31
0.0
  0
LINE
  8
0
 10
-53.262125
 20
-342.531617
 30
0.0
 11
72.583441
 21
-342.531617
 31
0.0
  0
LINE
  8
0
 10
-52.839342
 20
-403.531617
 30
0.0
 11
-47.10588
 21
-367.219692
 31
0.0
  0
LINE
  8
0
 10
-84.339342
 20
-403.531617
 30
0.0
 11
-69.533339
 21
-354.607434
 31
0.0
  0
LINE
  8
0
 10
72.160658
 20
-403.531617
 30
0.0
 11
66.427196
 21
-367.219692
 31
0.0
  0
LINE
  8
0
 10
103.660658
 20
-403.531617
 30
0.0
 11
88.854655
 21
-354.607434
 31
0.0
  0
ARC
  8
0
 10
-45.130354
 20
-367.531617
 30
0.0
 40
2.0
 50
90.0
 51
171.027373
  0
ARC
  8
0
 10
64.45167
 20
-367.531617
 30
0.0
 40
2.0
 50
8.972627
 51
90.0
  0
ARC
  8
0
 10
-53.262125
 20
-359.531617
 30
0.0
 40
17.0
 50
90.0
 51
163.162527
  0
ARC
  8
0
 10
72.583441
 20
-359.531617
 30
0.0
 40
17.0
 50
16.837473
 51
90.0
  0
LINE
  8
0
 10
9.660658
 20
-346.531617
 30
0.0
 11
72.583441
 21
-346.531617
 31
0.0
  0
ARC
  8
0
 10
72.583441
 20
-359.531617
 30
0.0
 40
13.0
 50
16.837473
 51
90.0
  0
LINE
  8
0
 10
99.481498
 20
-403.531617
 30
0.0
 11
85.026134
 21
-355.766065
 31
0.0
  0
LINE
  8
0
 10
9.660658
 20
-361.531617
 30
0.0
 11
65.148269
 21
-361.531617
 31
0.0
  0
LINE
  8
0
 10
75.197824
 20
-403.531617
 30
0.0
 11
69.099321
 21
-364.907767
 31
0.0
  0
ARC
  8
0
 10
65.148269
 20
-365.531617
 30
0.0
 40
4.0
 50
8.972627
 51
90.0
  0
LINE
  8
0
 10
-84.339342
 20
-254.055359
 30
0.0
 11
-71.349129
 21
-211.131176
 31
0.0
  0
LINE
  8
0
 10
80.660658
 20
-254.055359
 30
0.0
 11
67.670445
 21
-211.131176
 31
0.0
  0
ARC
  8
0
 10
-55.077914
 20
-216.055359
 30
0.0
 40
17.0
 50
90.0
 51
163.162527
  0
ARC
  8
0
 10
51.39923
 20
-216.055359
 30
0.0
 40
17.0
 50
16.837473
 51
90.0
  0
ARC
  8
0
 10
-45.145088
 20
-220.055359
 30
0.0
 40
2.0
 50
90.0
 51
170.537678
  0
ARC
  8
0
 10
41.466404
 20
-220.055359
 30
0.0
 40
2.0
 50
9.462322
 51
90.0
  0
LINE
  8
0
 10
-1.839342
 20
-203.055359
 30
0.0
 11
51.39923
 21
-203.055359
 31
0.0
  0
ARC
  8
0
 10
51.39923
 20
-216.055359
 30
0.0
 40
13.0
 50
16.837473
 51
90.0
  0
LINE
  8
0
 10
76.481498
 20
-254.055359
 30
0.0
 11
63.841923
 21
-212.289807
 31
0.0
  0
ARC
  8
0
 10
17.795708
 20
-84.220673
 30
0.0
 40
4.0
 50
9.130176
 51
90.0
  0
LINE
  8
0
 10
26.186322
 20
-111.220673
 30
0.0
 11
21.745029
 21
-83.585961
 31
0.0
  0
LINE
  8
0
 10
43.568329
 20
-111.220673
 30
0.0
 11
35.719454
 21
-79.825174
 31
0.0
  0
ARC
  8
0
 10
22.137459
 20
-83.220673
 30
0.0
 40
14.0
 50
14.036243
 51
90.0
  0
LINE
  8
0
 10
-18.839342
 20
-80.220673
 30
0.0
 11
17.795708
 21
-80.220673
 31
0.0
  0
LINE
  8
0
 10
-18.839342
 20
-69.220673
 30
0.0
 11
22.137459
 21
-69.220673
 31
0.0
  0
ARC
  8
0
 10
17.956422
 20
-85.220673
 30
0.0
 40
2.0
 50
9.130176
 51
90.0
  0
ARC
  8
0
 10
-55.635106
 20
-85.220673
 30
0.0
 40
2.0
 50
90.0
 51
170.869824
  0
ARC
  8
0
 10
22.137459
 20
-83.220673
 30
0.0
 40
17.0
 50
14.036243
 51
90.0
  0
ARC
  8
0
 10
-59.816143
 20
-83.220673
 30
0.0
 40
17.0
 50
90.0
 51
165.963757
  0
LINE
  8
0
 10
46.660658
 20
-111.220673
 30
0.0
 11
38.629881
 21
-79.097567
 31
0.0
  0
LINE
  8
0
 10
-84.339342
 20
-111.220673
 30
0.0
 11
-76.308566
 21
-79.097567
 31
0.0
  0
LINE
  8
0
 10
24.160658
 20
-111.220673
 30
0.0
 11
19.931083
 21
-84.903317
 31
0.0
  0
LINE
  8
0
 10
-61.839342
 20
-111.220673
 30
0.0
 11
-57.609767
 21
-84.903317
 31
0.0
  0
LINE
  8
0
 10
-59.816143
 20
-66.220673
 30
0.0
 11
22.137459
 21
-66.220673
 31
0.0
  0
LINE
  8
0
 10
-55.236879
 20
-83.220673
 30
0.0
 11
17.956422
 21
-83.220673
 31
0.0
  0
LINE
  8
0
 10
-84.339342
 20
-111.220673
 30
0.0
 11
-61.839342
 21
-111.220673
 31
0.0
  0
LINE
  8
0
 10
-60.143547
 20
-87.259104
 30
0.0
 11
-64.839342
 21
-111.220673
 31
0.0
  0
ARC
  8
0
 10
-55.236879
 20
-88.220673
 30
0.0
 40
5.0
 50
90.0
 51
168.912152
  0
LINE
  8
0
 10
-76.839342
 20
-111.220673
 30
0.0
 11
-76.839342
 21
-101.220673
 31
0.0
  0
LINE
  8
0
 10
-70.839342
 20
-111.220673
 30
0.0
 11
-70.839342
 21
-101.220673
 31
0.0
  0
LINE
  8
0
 10
-77.839342
 20
-111.220673
 30
0.0
 11
-77.839342
 21
-97.220673
 31
0.0
  0
LINE
  8
0
 10
-69.839342
 20
-111.220673
 30
0.0
 11
-69.839342
 21
-97.220673
 31
0.0
  0
LINE
  8
0
 10
-77.839342
 20
-97.220673
 30
0.0
 11
-69.839342
 21
-97.220673
 31
0.0
  0
LINE
  8
0
 10
-76.839342
 20
-101.220673
 30
0.0
 11
-70.839342
 21
-101.220673
 31
0.0
  0
LINE
  8
0
  6
CENTER
 10
-73.839342
 20
-112.607928
 30
0.0
 11
-73.839342
 21
-95.929949
 31
0.0
  0
LINE
  8
0
  6
CENTER
 10
36.160658
 20
-112.607928
 30
0.0
 11
36.160658
 21
-95.929949
 31
0.0
  0
INSERT
  8
0
  2
*X0
 10
0.0
 20
39.382883
 30
0.0
  0
LINE
  8
0
  6
CENTER
 10
-18.839342
 20
-114.291602
 30
0.0
 11
-18.839342
 21
-61.88963
 31
0.0
  0
LINE
  8
0
 10
-84.255227
 20
-153.286961
 30
0.0
 11
46.576542
 21
-153.286961
 31
0.0
  0
LINE
  8
0
 10
-77.987518
 20
-138.286961
 30
0.0
 11
-62.737394
 21
-138.286961
 31
0.0
  0
LINE
  8
0
 10
-77.987518
 20
-168.286961
 30
0.0
 11
-62.737394
 21
-168.286961
 31
0.0
  0
LINE
  8
0
 10
-84.172843
 20
-152.479323
 30
0.0
 11
-81.905135
 21
-141.479323
 31
0.0
  0
LINE
  8
0
 10
-84.172843
 20
-154.094598
 30
0.0
 11
-81.905135
 21
-165.094598
 31
0.0
  0
LINE
  8
0
 10
-74.772309
 20
-140.286961
 30
0.0
 11
37.093626
 21
-140.286961
 31
0.0
  0
LINE
  8
0
 10
-74.772309
 20
-166.286961
 30
0.0
 11
37.093626
 21
-166.286961
 31
0.0
  0
LINE
  8
0
 10
-57.609767
 20
-140.286961
 30
0.0
 11
-61.027481
 21
-138.670858
 31
0.0
  0
LINE
  8
0
 10
-57.609767
 20
-166.286961
 30
0.0
 11
-61.027481
 21
-167.903063
 31
0.0
  0
LINE
  8
0
 10
-79.047092
 20
-139.327217
 30
0.0
 11
-80.043748
 21
-138.855937
 31
0.0
  0
LINE
  8
0
 10
-79.047092
 20
-167.246704
 30
0.0
 11
-80.043748
 21
-167.717984
 31
0.0
  0
ARC
  8
0
 10
-77.987518
 20
-142.286961
 30
0.0
 40
4.0
 50
90.0
 51
168.351365
  0
ARC
  8
0
 10
-77.987518
 20
-164.286961
 30
0.0
 40
4.0
 50
191.648635
 51
270.0
  0
ARC
  8
0
 10
-62.737394
 20
-164.286961
 30
0.0
 40
4.0
 50
270.0
 51
295.307629
  0
ARC
  8
0
 10
-62.737394
 20
-142.286961
 30
0.0
 40
4.0
 50
64.692371
 51
90.0
  0
ARC
  8
0
 10
-80.255227
 20
-153.286961
 30
0.0
 40
4.0
 50
168.351365
 51
191.648635
  0
ARC
  8
0
 10
-74.772309
 20
-176.286961
 30
0.0
 40
10.0
 50
90.0
 51
115.307629
  0
ARC
  8
0
 10
-74.772309
 20
-130.286961
 30
0.0
 40
10.0
 50
244.692371
 51
270.0
  0
ARC
  8
0
 10
37.093625
 20
-130.286961
 30
0.0
 40
10.0
 50
270.0
 51
295.307629
  0
ARC
  8
0
 10
37.093625
 20
-176.286961
 30
0.0
 40
10.0
 50
64.692371
 51
90.0
  0
ARC
  8
0
 10
42.576542
 20
-153.286961
 30
0.0
 40
4.0
 50
348.351365
 51
11.648635
  0
ARC
  8
0
 10
25.058709
 20
-142.286961
 30
0.0
 40
4.0
 50
90.0
 51
115.307629
  0
ARC
  8
0
 10
25.058709
 20
-164.286961
 30
0.0
 40
4.0
 50
244.692371
 51
270.0
  0
ARC
  8
0
 10
40.308834
 20
-164.286961
 30
0.0
 40
4.0
 50
270.0
 51
348.351365
  0
ARC
  8
0
 10
40.308834
 20
-142.286961
 30
0.0
 40
4.0
 50
11.648635
 51
90.0
  0
LINE
  8
0
 10
41.368407
 20
-167.246704
 30
0.0
 11
42.365064
 21
-167.717984
 31
0.0
  0
LINE
  8
0
 10
41.368407
 20
-139.327217
 30
0.0
 11
42.365064
 21
-138.855937
 31
0.0
  0
LINE
  8
0
 10
19.931083
 20
-166.286961
 30
0.0
 11
23.348796
 21
-167.903063
 31
0.0
  0
LINE
  8
0
 10
19.931083
 20
-140.286961
 30
0.0
 11
23.348796
 21
-138.670858
 31
0.0
  0
LINE
  8
0
 10
46.494159
 20
-154.094598
 30
0.0
 11
44.226451
 21
-165.094598
 31
0.0
  0
LINE
  8
0
 10
46.494159
 20
-152.479323
 30
0.0
 11
44.226451
 21
-141.479323
 31
0.0
  0
LINE
  8
0
 10
40.308834
 20
-168.286961
 30
0.0
 11
25.058709
 21
-168.286961
 31
0.0
  0
LINE
  8
0
 10
40.308834
 20
-138.286961
 30
0.0
 11
25.058709
 21
-138.286961
 31
0.0
  0
LINE
  8
0
 10
80.804321
 20
-66.220673
 30
0.0
 11
80.804321
 21
-111.220673
 31
0.0
  0
LINE
  8
0
 10
65.804321
 20
-111.220673
 30
0.0
 11
95.804321
 21
-111.220673
 31
0.0
  0
LINE
  8
0
 10
67.569537
 20
-71.426042
 30
0.0
 11
65.804321
 21
-111.220673
 31
0.0
  0
LINE
  8
0
 10
95.804321
 20
-111.220673
 30
0.0
 11
94.039105
 21
-71.426042
 31
0.0
  0
LINE
  8
0
 10
80.136249
 20
-66.296005
 30
0.0
 11
69.898507
 21
-68.634576
 31
0.0
  0
LINE
  8
0
 10
81.472392
 20
-66.296005
 30
0.0
 11
91.710135
 21
-68.634576
 31
0.0
  0
ARC
  8
0
 10
70.566578
 20
-71.559244
 30
0.0
 40
3.0
 50
102.867104
 51
177.455196
  0
ARC
  8
0
 10
91.042063
 20
-71.559244
 30
0.0
 40
3.0
 50
2.544804
 51
77.132896
  0
ARC
  8
0
 10
80.804321
 20
-69.220673
 30
0.0
 40
3.0
 50
77.132896
 51
102.867104
  0
LINE
  8
0
 10
24.160658
 20
-111.220673
 30
0.0
 11
46.660658
 21
-111.220673
 31
0.0
  0
LINE
  8
0
  6
CENTER
 10
-1.839342
 20
-257.130957
 30
0.0
 11
-1.839342
 21
-196.248383
 31
0.0
  0
LINE
  8
0
 10
-58.447368
 20
-221.944291
 30
0.0
 11
-59.339342
 21
-254.055359
 31
0.0
  0
ARC
  8
0
 10
-54.44891
 20
-222.055359
 30
0.0
 40
4.0
 50
90.0
 51
178.40886
  0
LINE
  8
0
 10
-72.839342
 20
-254.055359
 30
0.0
 11
-72.839342
 21
-234.055359
 31
0.0
  0
LINE
  8
0
 10
-62.839342
 20
-254.055359
 30
0.0
 11
-62.839342
 21
-234.055359
 31
0.0
  0
LINE
  8
0
 10
-72.839342
 20
-234.055359
 30
0.0
 11
-62.839342
 21
-234.055359
 31
0.0
  0
LINE
  8
0
 10
-71.839342
 20
-238.055359
 30
0.0
 11
-63.839342
 21
-238.055359
 31
0.0
  0
LINE
  8
0
 10
-71.839342
 20
-254.055359
 30
0.0
 11
-71.839342
 21
-238.055359
 31
0.0
  0
LINE
  8
0
 10
-63.839342
 20
-254.055359
 30
0.0
 11
-63.839342
 21
-238.055359
 31
0.0
  0
LINE
  8
0
 10
49.160658
 20
-254.055359
 30
0.0
 11
80.660658
 21
-254.055359
 31
0.0
  0
INSERT
  8
0
  2
*X1
 10
6.0
 20
-217.732755
 30
0.0
  0
LINE
  8
0
 10
-84.339342
 20
-297.065391
 30
0.0
 11
80.660658
 21
-297.065391
 31
0.0
  0
LINE
  8
0
 10
-71.578044
 20
-282.065391
 30
0.0
 11
67.899359
 21
-282.065391
 31
0.0
  0
LINE
  8
0
 10
-71.578043
 20
-312.065391
 30
0.0
 11
67.899359
 21
-312.065391
 31
0.0
  0
LINE
  8
0
 10
-76.140439
 20
-278.065391
 30
0.0
 11
-54.074071
 21
-278.065391
 31
0.0
  0
LINE
  8
0
 10
-76.140439
 20
-316.065391
 30
0.0
 11
-54.074071
 21
-316.065391
 31
0.0
  0
LINE
  8
0
 10
-51.74655
 20
-278.640162
 30
0.0
 11
-45.234292
 21
-282.065391
 31
0.0
  0
LINE
  8
0
 10
-51.74655
 20
-315.490619
 30
0.0
 11
-45.234292
 21
-312.065391
 31
0.0
  0
LINE
  8
0
 10
-84.22261
 20
-295.991288
 30
0.0
 11
-81.023706
 21
-281.991288
 31
0.0
  0
LINE
  8
0
 10
-84.22261
 20
-298.139494
 30
0.0
 11
-81.023706
 21
-312.139494
 31
0.0
  0
ARC
  8
0
 10
-76.140439
 20
-283.065391
 30
0.0
 40
5.0
 50
90.0
 51
167.594999
  0
ARC
  8
0
 10
-76.140439
 20
-311.065391
 30
0.0
 40
5.0
 50
192.405001
 51
270.0
  0
ARC
  8
0
 10
-54.074071
 20
-283.065391
 30
0.0
 40
5.0
 50
62.257141
 51
90.0
  0
ARC
  8
0
 10
-54.074071
 20
-311.065391
 30
0.0
 40
5.0
 50
270.0
 51
297.742859
  0
ARC
  8
0
 10
-79.339342
 20
-297.065391
 30
0.0
 40
5.0
 50
167.594999
 51
192.405001
  0
LINE
  8
0
 10
-79.273288
 20
-314.962217
 30
0.0
 11
-73.573848
 21
-312.480986
 31
0.0
  0
ARC
  8
0
 10
-71.578043
 20
-317.065391
 30
0.0
 40
5.0
 50
90.0
 51
113.525731
  0
LINE
  8
0
 10
-79.273288
 20
-279.168564
 30
0.0
 11
-73.573848
 21
-281.649795
 31
0.0
  0
ARC
  8
0
 10
-71.578043
 20
-277.065391
 30
0.0
 40
5.0
 50
246.474269
 51
270.0
  0
ARC
  8
0
 10
67.899359
 20
-277.065391
 30
0.0
 40
5.0
 50
270.0
 51
293.525731
  0
LINE
  8
0
 10
75.594603
 20
-279.168564
 30
0.0
 11
69.895164
 21
-281.649795
 31
0.0
  0
ARC
  8
0
 10
67.899359
 20
-317.065391
 30
0.0
 40
5.0
 50
66.474269
 51
90.0
  0
LINE
  8
0
 10
75.594603
 20
-314.962217
 30
0.0
 11
69.895164
 21
-312.480986
 31
0.0
  0
ARC
  8
0
 10
75.660658
 20
-297.065391
 30
0.0
 40
5.0
 50
347.594999
 51
12.405001
  0
ARC
  8
0
 10
50.395387
 20
-311.065391
 30
0.0
 40
5.0
 50
242.257141
 51
270.0
  0
ARC
  8
0
 10
50.395387
 20
-283.065391
 30
0.0
 40
5.0
 50
90.0
 51
117.742859
  0
ARC
  8
0
 10
72.461754
 20
-311.065391
 30
0.0
 40
5.0
 50
270.0
 51
347.594999
  0
ARC
  8
0
 10
72.461754
 20
-283.065391
 30
0.0
 40
5.0
 50
12.405001
 51
90.0
  0
LINE
  8
0
 10
80.543926
 20
-298.139494
 30
0.0
 11
77.345022
 21
-312.139494
 31
0.0
  0
LINE
  8
0
 10
80.543926
 20
-295.991288
 30
0.0
 11
77.345022
 21
-281.991288
 31
0.0
  0
LINE
  8
0
 10
48.067866
 20
-315.490619
 30
0.0
 11
41.555608
 21
-312.065391
 31
0.0
  0
LINE
  8
0
 10
48.067866
 20
-278.640162
 30
0.0
 11
41.555608
 21
-282.065391
 31
0.0
  0
LINE
  8
0
 10
72.461754
 20
-316.065391
 30
0.0
 11
50.395387
 21
-316.065391
 31
0.0
  0
LINE
  8
0
 10
72.461754
 20
-278.065391
 30
0.0
 11
50.395387
 21
-278.065391
 31
0.0
  0
LINE
  8
0
 10
129.116139
 20
-199.055359
 30
0.0
 11
129.116139
 21
-254.055359
 31
0.0
  0
LINE
  8
0
 10
110.116139
 20
-254.055359
 30
0.0
 11
148.116139
 21
-254.055359
 31
0.0
  0
LINE
  8
0
 10
127.827826
 20
-199.224184
 30
0.0
 11
117.535788
 21
-202.143453
 31
0.0
  0
LINE
  8
0
 10
130.404453
 20
-199.224184
 30
0.0
 11
140.696491
 21
-202.143453
 31
0.0
  0
LINE
  8
0
 10
113.839409
 20
-206.583671
 30
0.0
 11
110.116139
 21
-254.055359
 31
0.0
  0
LINE
  8
0
 10
144.39287
 20
-206.583671
 30
0.0
 11
148.116139
 21
-254.055359
 31
0.0
  0
ARC
  8
0
 10
118.824101
 20
-206.974627
 30
0.0
 40
5.0
 50
104.931417
 51
175.515394
  0
ARC
  8
0
 10
139.408178
 20
-206.974627
 30
0.0
 40
5.0
 50
4.484606
 51
75.068583
  0
ARC
  8
0
 10
129.116139
 20
-204.055359
 30
0.0
 40
5.0
 50
75.068583
 51
104.931417
  0
LINE
  8
0
 10
-76.339342
 20
-110.720673
 30
0.0
 11
-76.339342
 21
-100.220673
 31
0.0
  0
LINE
  8
0
 10
-71.339342
 20
-110.720673
 30
0.0
 11
-71.339342
 21
-100.220673
 31
0.0
  0
LINE
  8
0
 10
-76.339342
 20
-100.220673
 30
0.0
 11
-73.839342
 21
-98.777297
 31
0.0
  0
LINE
  8
0
 10
-71.339342
 20
-100.220673
 30
0.0
 11
-73.839342
 21
-98.777297
 31
0.0
  0
LINE
  8
0
 10
-71.239342
 20
-253.455359
 30
0.0
 11
-71.239342
 21
-237.055359
 31
0.0
  0
LINE
  8
0
 10
-64.439342
 20
-253.455359
 30
0.0
 11
-64.439342
 21
-237.055359
 31
0.0
  0
LINE
  8
0
 10
-71.239342
 20
-237.055359
 30
0.0
 11
-67.839342
 21
-235.092368
 31
0.0
  0
LINE
  8
0
 10
-64.439342
 20
-237.055359
 30
0.0
 11
-67.839342
 21
-235.092368
 31
0.0
  0
LINE
  8
0
 10
-84.339342
 20
-449.273765
 30
0.0
 11
103.660658
 21
-449.273765
 31
0.0
  0
LINE
  8
0
 10
-71.902433
 20
-433.273765
 30
0.0
 11
91.223749
 21
-433.273765
 31
0.0
  0
LINE
  8
0
 10
-71.902433
 20
-465.273765
 30
0.0
 11
91.223748
 21
-465.273765
 31
0.0
  0
LINE
  8
0
 10
-76.09698
 20
-429.273765
 30
0.0
 11
-54.059305
 21
-429.273765
 31
0.0
  0
LINE
  8
0
 10
-76.09698
 20
-469.273765
 30
0.0
 11
-54.059305
 21
-469.273765
 31
0.0
  0
LINE
  8
0
 10
-84.233633
 20
-448.251064
 30
0.0
 11
-80.991271
 21
-433.251064
 31
0.0
  0
LINE
  8
0
 10
-84.233633
 20
-450.296466
 30
0.0
 11
-80.991271
 21
-465.296466
 31
0.0
  0
LINE
  8
0
 10
-45.130354
 20
-433.273765
 30
0.0
 11
-51.756473
 21
-429.835639
 31
0.0
  0
LINE
  8
0
 10
-51.756473
 20
-468.711891
 30
0.0
 11
-45.130354
 21
-465.273765
 31
0.0
  0
ARC
  8
0
 10
-76.09698
 20
-434.273765
 30
0.0
 40
5.0
 50
90.0
 51
168.197415
  0
ARC
  8
0
 10
-76.09698
 20
-464.273765
 30
0.0
 40
5.0
 50
191.802585
 51
270.0
  0
ARC
  8
0
 10
-54.059305
 20
-434.273765
 30
0.0
 40
5.0
 50
62.576336
 51
90.0
  0
ARC
  8
0
 10
-54.059305
 20
-464.273765
 30
0.0
 40
5.0
 50
270.0
 51
297.423664
  0
ARC
  8
0
 10
-79.339342
 20
-449.273765
 30
0.0
 40
5.0
 50
168.197415
 51
191.802585
  0
LINE
  8
0
 10
-79.250272
 20
-430.393462
 30
0.0
 11
-73.994764
 21
-432.814927
 31
0.0
  0
ARC
  8
0
 10
-71.902433
 20
-428.273765
 30
0.0
 40
5.0
 50
245.262206
 51
270.0
  0
LINE
  8
0
 10
-79.250272
 20
-468.154068
 30
0.0
 11
-73.994764
 21
-465.732604
 31
0.0
  0
ARC
  8
0
 10
-71.902433
 20
-470.273765
 30
0.0
 40
5.0
 50
90.0
 51
114.737794
  0
LINE
  8
0
  6
CENTER
 10
9.660658
 20
-337.230905
 30
0.0
 11
9.660658
 21
-408.850581
 31
0.0
  0
ARC
  8
0
 10
91.223748
 20
-470.273765
 30
0.0
 40
5.0
 50
65.262206
 51
90.0
  0
LINE
  8
0
 10
98.571587
 20
-468.154068
 30
0.0
 11
93.31608
 21
-465.732604
 31
0.0
  0
ARC
  8
0
 10
91.223748
 20
-428.273765
 30
0.0
 40
5.0
 50
270.0
 51
294.737794
  0
LINE
  8
0
 10
98.571587
 20
-430.393462
 30
0.0
 11
93.31608
 21
-432.814927
 31
0.0
  0
ARC
  8
0
 10
98.660658
 20
-449.273765
 30
0.0
 40
5.0
 50
348.197415
 51
11.802585
  0
ARC
  8
0
 10
73.38062
 20
-464.273765
 30
0.0
 40
5.0
 50
242.576336
 51
270.0
  0
ARC
  8
0
 10
73.38062
 20
-434.273765
 30
0.0
 40
5.0
 50
90.0
 51
117.423664
  0
ARC
  8
0
 10
95.418296
 20
-464.273765
 30
0.0
 40
5.0
 50
270.0
 51
348.197415
  0
ARC
  8
0
 10
95.418296
 20
-434.273765
 30
0.0
 40
5.0
 50
11.802585
 51
90.0
  0
LINE
  8
0
 10
71.077788
 20
-468.711891
 30
0.0
 11
64.45167
 21
-465.273765
 31
0.0
  0
LINE
  8
0
 10
64.45167
 20
-433.273765
 30
0.0
 11
71.077788
 21
-429.835639
 31
0.0
  0
LINE
  8
0
 10
103.554949
 20
-450.296466
 30
0.0
 11
100.312587
 21
-465.296466
 31
0.0
  0
LINE
  8
0
 10
103.554949
 20
-448.251064
 30
0.0
 11
100.312587
 21
-433.251064
 31
0.0
  0
LINE
  8
0
 10
95.418296
 20
-469.273765
 30
0.0
 11
73.38062
 21
-469.273765
 31
0.0
  0
LINE
  8
0
 10
95.418296
 20
-429.273765
 30
0.0
 11
73.38062
 21
-429.273765
 31
0.0
  0
LINE
  8
0
 10
-61.939342
 20
-386.531617
 30
0.0
 11
-65.339342
 21
-384.568627
 31
0.0
  0
LINE
  8
0
 10
-68.739342
 20
-386.531617
 30
0.0
 11
-65.339342
 21
-384.568627
 31
0.0
  0
LINE
  8
0
 10
-61.939342
 20
-402.931617
 30
0.0
 11
-61.939342
 21
-386.531617
 31
0.0
  0
LINE
  8
0
 10
-68.739342
 20
-402.931617
 30
0.0
 11
-68.739342
 21
-386.531617
 31
0.0
  0
LINE
  8
0
 10
-61.339342
 20
-403.531617
 30
0.0
 11
-61.339342
 21
-387.531617
 31
0.0
  0
LINE
  8
0
 10
-69.339342
 20
-403.531617
 30
0.0
 11
-69.339342
 21
-387.531617
 31
0.0
  0
LINE
  8
0
 10
-69.339342
 20
-387.531617
 30
0.0
 11
-61.339342
 21
-387.531617
 31
0.0
  0
LINE
  8
0
 10
-70.339342
 20
-403.531617
 30
0.0
 11
-70.339342
 21
-383.531617
 31
0.0
  0
LINE
  8
0
 10
-70.339342
 20
-383.531617
 30
0.0
 11
-60.339342
 21
-383.531617
 31
0.0
  0
LINE
  8
0
 10
-60.339342
 20
-403.531617
 30
0.0
 11
-60.339342
 21
-383.531617
 31
0.0
  0
INSERT
  8
0
  2
*X2
 10
8.5
 20
-654.388834
 30
0.0
  0
LINE
  8
0
 10
149.65589
 20
-342.531617
 30
0.0
 11
149.65589
 21
-403.531617
 31
0.0
  0
LINE
  8
0
 10
129.65589
 20
-403.531617
 30
0.0
 11
169.65589
 21
-403.531617
 31
0.0
  0
LINE
  8
0
 10
148.443212
 20
-342.680905
 30
0.0
 11
137.176879
 21
-345.65137
 31
0.0
  0
LINE
  8
0
 10
150.868568
 20
-342.680905
 30
0.0
 11
162.134901
 21
-345.65137
 31
0.0
  0
LINE
  8
0
 10
133.401823
 20
-350.152066
 30
0.0
 11
129.65589
 21
-403.531617
 31
0.0
  0
LINE
  8
0
 10
169.65589
 20
-403.531617
 30
0.0
 11
165.909956
 21
-350.152066
 31
0.0
  0
ARC
  8
0
 10
138.389557
 20
-350.502083
 30
0.0
 40
5.0
 50
104.036243
 51
175.985824
  0
ARC
  8
0
 10
160.922223
 20
-350.502083
 30
0.0
 40
5.0
 50
4.014176
 51
75.963757
  0
ARC
  8
0
 10
149.65589
 20
-347.531617
 30
0.0
 40
5.0
 50
75.963757
 51
104.036243
  0
LINE
  8
0
 10
72.160658
 20
-403.531617
 30
0.0
 11
103.660658
 21
-403.531617
 31
0.0
  0
LINE
  8
0
 10
-76.339342
 20
-110.720673
 30
0.0
 11
-71.339342
 21
-110.720673
 31
0.0
  0
LINE
  8
0
 10
-76.839342
 20
-111.220673
 30
0.0
 11
-76.339342
 21
-110.720673
 31
0.0
  0
LINE
  8
0
 10
-71.339342
 20
-110.720673
 30
0.0
 11
-70.839342
 21
-111.220673
 31
0.0
  0
LINE
  8
0
 10
-76.339342
 20
-100.220673
 30
0.0
 11
-71.339342
 21
-100.220673
 31
0.0
  0
LINE
  8
0
 10
-71.239342
 20
-253.455359
 30
0.0
 11
-64.439342
 21
-253.455359
 31
0.0
  0
LINE
  8
0
 10
-71.839342
 20
-254.055359
 30
0.0
 11
-71.239342
 21
-253.455359
 31
0.0
  0
LINE
  8
0
 10
-63.839342
 20
-254.055359
 30
0.0
 11
-64.439342
 21
-253.455359
 31
0.0
  0
LINE
  8
0
 10
-71.239342
 20
-237.055359
 30
0.0
 11
-64.439342
 21
-237.055359
 31
0.0
  0
LINE
  8
0
 10
-68.739342
 20
-386.531617
 30
0.0
 11
-61.939342
 21
-386.531617
 31
0.0
  0
LINE
  8
0
 10
-68.739342
 20
-402.931617
 30
0.0
 11
-61.939342
 21
-402.931617
 31
0.0
  0
LINE
  8
0
 10
-69.339342
 20
-403.531617
 30
0.0
 11
-68.739342
 21
-402.931617
 31
0.0
  0
LINE
  8
0
 10
-61.939342
 20
-402.931617
 30
0.0
 11
-61.339342
 21
-403.531617
 31
0.0
  0
INSERT
  8
0
  2
*X3
 10
0.0
 20
0.0
 30
0.0
1001
ACAD
1000
HATCH
1002
{
1070
    16
1000
ANSI31
1040
15.0
1040
0.0
1002
}
  0
INSERT
  8
0
  2
*X4
 10
0.0
 20
0.0
 30
0.0
1001
ACAD
1000
HATCH
1002
{
1070
    16
1000
ANSI31
1040
15.0
1040
0.0
1002
}
  0
INSERT
  8
0
  2
*X5
 10
0.0
 20
0.0
 30
0.0
1001
ACAD
1000
HATCH
1002
{
1070
    16
1000
ANSI31
1040
15.0
1040
0.0
1002
}
  0
ENDSEC
  0
EOF
