  0
SECTION
  2
HEADER
  9
$ACADVER
  1
AC1009
  9
$INSBASE
 10
0.0
 20
0.0
 30
0.0
  9
$EXTMIN
 10
-90.67522
 20
-185.976957
 30
0.0
  9
$EXTMAX
 10
128.624291
 20
23.061297
 30
0.0
  9
$LIMMIN
 10
0.0
 20
0.0
  9
$LIMMAX
 10
12.0
 20
9.0
  9
$ORTHOMODE
 70
     1
  9
$REGENMODE
 70
     1
  9
$FILLMODE
 70
     1
  9
$QTEXTMODE
 70
     0
  9
$MIRRTEXT
 70
     1
  9
$DRAGMODE
 70
     2
  9
$LTSCALE
 40
7.0
  9
$OSMODE
 70
     0
  9
$ATTMODE
 70
     1
  9
$TEXTSIZE
 40
0.2
  9
$TRACEWID
 40
0.05
  9
$TEXTSTYLE
  7
STANDARD
  9
$CLAYER
  8
0
  9
$CELTYPE
  6
BYLAYER
  9
$CECOLOR
 62
   256
  9
$DIMSCALE
 40
1.0
  9
$DIMASZ
 40
2.5
  9
$DIMEXO
 40
0.0
  9
$DIMDLI
 40
5.0
  9
$DIMRND
 40
0.0
  9
$DIMDLE
 40
0.0
  9
$DIMEXE
 40
1.0
  9
$DIMTP
 40
0.0
  9
$DIMTM
 40
0.0
  9
$DIMTXT
 40
2.5
  9
$DIMCEN
 40
0.09
  9
$DIMTSZ
 40
0.0
  9
$DIMTOL
 70
     0
  9
$DIMLIM
 70
     0
  9
$DIMTIH
 70
     0
  9
$DIMTOH
 70
     0
  9
$DIMSE1
 70
     0
  9
$DIMSE2
 70
     0
  9
$DIMTAD
 70
     1
  9
$DIMZIN
 70
     0
  9
$DIMBLK
  1

  9
$DIMASO
 70
     0
  9
$DIMSHO
 70
     0
  9
$DIMPOST
  1

  9
$DIMAPOST
  1

  9
$DIMALT
 70
     0
  9
$DIMALTD
 70
     2
  9
$DIMALTF
 40
25.4
  9
$DIMLFAC
 40
1.0
  9
$DIMTOFL
 70
     1
  9
$DIMTVP
 40
0.0
  9
$DIMTIX
 70
     0
  9
$DIMSOXD
 70
     0
  9
$DIMSAH
 70
     0
  9
$DIMBLK1
  1

  9
$DIMBLK2
  1

  9
$DIMSTYLE
  2
*UNNAMED
  9
$DIMCLRD
 70
     0
  9
$DIMCLRE
 70
     0
  9
$DIMCLRT
 70
     0
  9
$DIMTFAC
 40
1.0
  9
$DIMGAP
 40
0.09
  9
$LUNITS
 70
     2
  9
$LUPREC
 70
     4
  9
$SKETCHINC
 40
0.1
  9
$FILLETRAD
 40
0.0
  9
$AUNITS
 70
     0
  9
$AUPREC
 70
     0
  9
$MENU
  1
wiberger
  9
$ELEVATION
 40
0.0
  9
$PELEVATION
 40
0.0
  9
$THICKNESS
 40
0.0
  9
$LIMCHECK
 70
     0
  9
$BLIPMODE
 70
     1
  9
$CHAMFERA
 40
0.0
  9
$CHAMFERB
 40
0.0
  9
$SKPOLY
 70
     0
  9
$TDCREATE
 40
2450190.308369097
  9
$TDUPDATE
 40
2450218.499790162
  9
$TDINDWG
 40
0.0794576389
  9
$TDUSRTIMER
 40
0.0794576389
  9
$USRTIMER
 70
     1
  9
$ANGBASE
 50
0.0
  9
$ANGDIR
 70
     0
  9
$PDMODE
 70
     0
  9
$PDSIZE
 40
0.0
  9
$PLINEWID
 40
0.0
  9
$COORDS
 70
     0
  9
$SPLFRAME
 70
     0
  9
$SPLINETYPE
 70
     6
  9
$SPLINESEGS
 70
     8
  9
$ATTDIA
 70
     0
  9
$ATTREQ
 70
     1
  9
$HANDLING
 70
     0
  9
$HANDSEED
  5
0
  9
$SURFTAB1
 70
     6
  9
$SURFTAB2
 70
     6
  9
$SURFTYPE
 70
     6
  9
$SURFU
 70
     6
  9
$SURFV
 70
     6
  9
$UCSNAME
  2

  9
$UCSORG
 10
0.0
 20
0.0
 30
0.0
  9
$UCSXDIR
 10
1.0
 20
0.0
 30
0.0
  9
$UCSYDIR
 10
0.0
 20
1.0
 30
0.0
  9
$PUCSNAME
  2

  9
$PUCSORG
 10
0.0
 20
0.0
 30
0.0
  9
$PUCSXDIR
 10
1.0
 20
0.0
 30
0.0
  9
$PUCSYDIR
 10
0.0
 20
1.0
 30
0.0
  9
$USERI1
 70
     0
  9
$USERI2
 70
     0
  9
$USERI3
 70
     0
  9
$USERI4
 70
     0
  9
$USERI5
 70
     0
  9
$USERR1
 40
0.0
  9
$USERR2
 40
0.0
  9
$USERR3
 40
0.0
  9
$USERR4
 40
0.0
  9
$USERR5
 40
0.0
  9
$WORLDVIEW
 70
     1
  9
$SHADEDGE
 70
     3
  9
$SHADEDIF
 70
    70
  9
$TILEMODE
 70
     1
  9
$MAXACTVP
 70
    16
  9
$PINSBASE
 10
0.0
 20
0.0
 30
0.0
  9
$PLIMCHECK
 70
     0
  9
$PEXTMIN
 10
1.000000E+20
 20
1.000000E+20
 30
1.000000E+20
  9
$PEXTMAX
 10
-1.000000E+20
 20
-1.000000E+20
 30
-1.000000E+20
  9
$PLIMMIN
 10
0.0
 20
0.0
  9
$PLIMMAX
 10
12.0
 20
9.0
  9
$UNITMODE
 70
     0
  9
$VISRETAIN
 70
     0
  9
$PLINEGEN
 70
     0
  9
$PSLTSCALE
 70
     0
  9
$TREEDEPTH
 70
  3020
  9
$DWGCODEPAGE
  3
undefined
  0
ENDSEC
  0
SECTION
  2
TABLES
  0
TABLE
  2
VPORT
 70
     2
  0
VPORT
  2
*ACTIVE
 70
     0
 10
0.0
 20
0.0
 11
1.0
 21
1.0
 12
69.284196
 22
-81.45783
 13
0.0
 23
0.0
 14
1.0
 24
1.0
 15
0.0
 25
0.0
 16
0.0
 26
0.0
 36
1.0
 17
0.0
 27
0.0
 37
0.0
 40
232.264726
 41
1.767507
 42
50.0
 43
0.0
 44
0.0
 50
0.0
 51
0.0
 71
     0
 72
   100
 73
     1
 74
     0
 75
     0
 76
     0
 77
     0
 78
     0
  0
ENDTAB
  0
TABLE
  2
LTYPE
 70
     3
  0
LTYPE
  2
CONTINUOUS
 70
    64
  3
Solid line
 72
    65
 73
     0
 40
0.0
  0
LTYPE
  2
CENTER
 70
    64
  3
____ _ ____ _ ____ _ ____ _ ____ _ ____ _ ____
 72
    65
 73
     4
 40
2.0
 49
1.25
 49
-0.25
 49
0.25
 49
-0.25
  0
LTYPE
  2
DASHED
 70
     0
  3
__ __ __ __ __ __ __ __ __ __ __ __ __ __ __
 72
    65
 73
     2
 40
0.75
 49
0.5
 49
-0.25
  0
ENDTAB
  0
TABLE
  2
LAYER
 70
     1
  0
LAYER
  2
0
 70
    64
 62
     7
  6
CONTINUOUS
  0
ENDTAB
  0
TABLE
  2
STYLE
 70
     1
  0
STYLE
  2
STANDARD
 70
     0
 40
0.0
 41
1.0
 50
0.0
 71
     0
 42
0.2
  3
txt
  4

  0
ENDTAB
  0
TABLE
  2
VIEW
 70
     0
  0
ENDTAB
  0
TABLE
  2
UCS
 70
     0
  0
ENDTAB
  0
TABLE
  2
APPID
 70
     1
  0
APPID
  2
ACAD
 70
    64
  0
ENDTAB
  0
TABLE
  2
DIMSTYLE
 70
     0
  0
ENDTAB
  0
ENDSEC
  0
SECTION
  2
BLOCKS
  0
BLOCK
  8
0
  2
*X0
 70
    65
 10
0.0
 20
0.0
 30
0.0
  3
*X
  0
LINE
  8
0
 62
     0
 10
-88.804399
 20
-25.164788
 30
0.0
 11
-86.27522
 21
-22.63561
 31
0.0
  0
LINE
  8
0
 62
     0
 10
-89.61895
 20
-24.211573
 30
0.0
 11
-86.27522
 21
-20.867843
 31
0.0
  0
LINE
  8
0
 62
     0
 10
-90.237201
 20
-23.062057
 30
0.0
 11
-84.67522
 21
-17.500076
 31
0.0
  0
LINE
  8
0
 62
     0
 10
-90.61343
 20
-21.670519
 30
0.0
 11
-84.67522
 21
-15.732309
 31
0.0
  0
LINE
  8
0
 62
     0
 10
-90.604625
 20
-19.893947
 30
0.0
 11
-85.592915
 21
-14.882237
 31
0.0
  0
LINE
  8
0
 62
     0
 10
-87.803458
 20
-25.931615
 30
0.0
 11
-86.27522
 21
-24.403377
 31
0.0
  0
LINE
  8
0
 62
     0
 10
-86.27522
 20
-19.790797
 30
0.0
 11
-89.197545
 21
-16.868473
 31
0.0
  0
LINE
  8
0
 62
     0
 10
-86.27522
 20
-21.558564
 30
0.0
 11
-89.925811
 21
-17.907973
 31
0.0
  0
LINE
  8
0
 62
     0
 10
-86.27522
 20
-23.326331
 30
0.0
 11
-90.443001
 21
-19.15855
 31
0.0
  0
LINE
  8
0
 62
     0
 10
-86.27522
 20
-25.094098
 30
0.0
 11
-90.674091
 21
-20.695227
 31
0.0
  0
LINE
  8
0
 62
     0
 10
-86.871087
 20
-26.265998
 30
0.0
 11
-90.335685
 21
-22.8014
 31
0.0
  0
LINE
  8
0
 62
     0
 10
-85.535544
 20
-18.762706
 30
0.0
 11
-88.281724
 21
-16.016526
 31
0.0
  0
LINE
  8
0
 62
     0
 10
-84.67522
 20
-17.855263
 30
0.0
 11
-87.173833
 21
-15.35665
 31
0.0
  0
LINE
  8
0
 62
     0
 10
-84.67522
 20
-16.087496
 30
0.0
 11
-85.837436
 21
-14.92528
 31
0.0
  0
ENDBLK
  8
0
  0
BLOCK
  8
0
  2
*X1
 70
    65
 10
0.0
 20
0.0
 30
0.0
  3
*X
  0
LINE
  8
0
 62
     0
 10
-70.542949
 20
-22.813241
 30
0.0
 11
-65.873266
 21
-18.143558
 31
0.0
  0
LINE
  8
0
 62
     0
 10
-71.170927
 20
-21.673452
 30
0.0
 11
-65.873266
 21
-16.375791
 31
0.0
  0
LINE
  8
0
 62
     0
 10
-71.627717
 20
-20.362475
 30
0.0
 11
-63.873266
 21
-12.608024
 31
0.0
  0
LINE
  8
0
 62
     0
 10
-71.861544
 20
-18.828536
 30
0.0
 11
-63.873266
 21
-10.840258
 31
0.0
  0
LINE
  8
0
 62
     0
 10
-71.739485
 20
-16.938709
 30
0.0
 11
-65.330183
 21
-10.529407
 31
0.0
  0
LINE
  8
0
 62
     0
 10
-70.535844
 20
-13.967302
 30
0.0
 11
-68.30159
 21
-11.733048
 31
0.0
  0
LINE
  8
0
 62
     0
 10
-69.767085
 20
-23.805145
 30
0.0
 11
-65.873266
 21
-19.911325
 31
0.0
  0
LINE
  8
0
 62
     0
 10
-68.851869
 20
-24.657695
 30
0.0
 11
-65.873266
 21
-21.679092
 31
0.0
  0
LINE
  8
0
 62
     0
 10
-67.794896
 20
-25.368489
 30
0.0
 11
-66.373266
 21
-23.946859
 31
0.0
  0
LINE
  8
0
 62
     0
 10
-65.873266
 20
-17.211781
 30
0.0
 11
-69.92346
 21
-13.161587
 31
0.0
  0
LINE
  8
0
 62
     0
 10
-65.873266
 20
-18.979548
 30
0.0
 11
-70.672571
 21
-14.180243
 31
0.0
  0
LINE
  8
0
 62
     0
 10
-65.873266
 20
-20.747315
 30
0.0
 11
-71.270767
 21
-15.349813
 31
0.0
  0
LINE
  8
0
 62
     0
 10
-65.873266
 20
-22.515082
 30
0.0
 11
-71.690942
 21
-16.697406
 31
0.0
  0
LINE
  8
0
 62
     0
 10
-66.373266
 20
-23.782848
 30
0.0
 11
-71.872482
 21
-18.283632
 31
0.0
  0
LINE
  8
0
 62
     0
 10
-66.428256
 20
-25.495626
 30
0.0
 11
-71.649539
 21
-20.274342
 31
0.0
  0
LINE
  8
0
 62
     0
 10
-65.873266
 20
-15.444014
 30
0.0
 11
-69.034269
 21
-12.283011
 31
0.0
  0
LINE
  8
0
 62
     0
 10
-65.255725
 20
-14.293788
 30
0.0
 11
-68.004592
 21
-11.544921
 31
0.0
  0
LINE
  8
0
 62
     0
 10
-64.135005
 20
-13.646741
 30
0.0
 11
-66.82261
 21
-10.959136
 31
0.0
  0
LINE
  8
0
 62
     0
 10
-63.873266
 20
-12.140713
 30
0.0
 11
-65.459515
 21
-10.554464
 31
0.0
  0
ENDBLK
  8
0
  0
BLOCK
  8
0
  2
*X2
 70
    65
 10
0.0
 20
0.0
 30
0.0
  3
*X
  0
LINE
  8
0
 62
     0
 10
-46.551435
 20
-20.034931
 30
0.0
 11
-40.913166
 21
-14.396662
 31
0.0
  0
LINE
  8
0
 62
     0
 10
-47.545645
 20
-18.37749
 30
0.0
 11
-40.913166
 21
-11.745012
 31
0.0
  0
LINE
  8
0
 62
     0
 10
-48.23758
 20
-16.417775
 30
0.0
 11
-38.513166
 21
-6.693361
 31
0.0
  0
LINE
  8
0
 62
     0
 10
-48.513066
 20
-14.041611
 30
0.0
 11
-38.557853
 21
-4.086397
 31
0.0
  0
LINE
  8
0
 62
     0
 10
-47.97599
 20
-10.852884
 30
0.0
 11
-41.74658
 21
-4.623474
 31
0.0
  0
LINE
  8
0
 62
     0
 10
-45.297641
 20
-21.432787
 30
0.0
 11
-40.913166
 21
-17.048312
 31
0.0
  0
LINE
  8
0
 62
     0
 10
-43.299501
 20
-22.086298
 30
0.0
 11
-40.913166
 21
-19.699963
 31
0.0
  0
LINE
  8
0
 62
     0
 10
-40.913166
 20
-12.119842
 30
0.0
 11
-45.797683
 21
-7.235326
 31
0.0
  0
LINE
  8
0
 62
     0
 10
-40.913166
 20
-14.771493
 30
0.0
 11
-46.956517
 21
-8.728142
 31
0.0
  0
LINE
  8
0
 62
     0
 10
-40.913166
 20
-17.423143
 30
0.0
 11
-47.844727
 21
-10.491583
 31
0.0
  0
LINE
  8
0
 62
     0
 10
-40.957414
 20
-20.030546
 30
0.0
 11
-48.400242
 21
-12.587718
 31
0.0
  0
LINE
  8
0
 62
     0
 10
-41.553313
 20
-22.086298
 30
0.0
 11
-48.452379
 21
-15.187232
 31
0.0
  0
LINE
  8
0
 62
     0
 10
-44.204963
 20
-22.086298
 30
0.0
 11
-47.129284
 21
-19.161977
 31
0.0
  0
LINE
  8
0
 62
     0
 10
-40.910791
 20
-9.470567
 30
0.0
 11
-44.387666
 21
-5.993693
 31
0.0
  0
LINE
  8
0
 62
     0
 10
-39.229712
 20
-8.499996
 30
0.0
 11
-42.716915
 21
-5.012793
 31
0.0
  0
LINE
  8
0
 62
     0
 10
-38.513166
 20
-6.564891
 30
0.0
 11
-40.740544
 21
-4.337514
 31
0.0
  0
ENDBLK
  8
0
  0
BLOCK
  8
0
  2
*X3
 70
    65
 10
0.0
 20
0.0
 30
0.0
  3
*X
  0
LINE
  8
0
 62
     0
 10
-19.073035
 20
-16.421385
 30
0.0
 11
-11.424678
 21
-8.773028
 31
0.0
  0
LINE
  8
0
 62
     0
 10
-20.09486
 20
-14.79156
 30
0.0
 11
-11.424678
 21
-6.121377
 31
0.0
  0
LINE
  8
0
 62
     0
 10
-20.885936
 20
-12.930985
 30
0.0
 11
-9.024678
 21
-1.069727
 31
0.0
  0
LINE
  8
0
 62
     0
 10
-21.394209
 20
-10.787607
 30
0.0
 11
-9.024678
 21
1.581924
 31
0.0
  0
LINE
  8
0
 62
     0
 10
-21.502642
 20
-8.244389
 30
0.0
 11
-9.766586
 21
3.491666
 31
0.0
  0
LINE
  8
0
 62
     0
 10
-20.852572
 20
-4.942669
 30
0.0
 11
-13.068307
 21
2.841596
 31
0.0
  0
LINE
  8
0
 62
     0
 10
-17.844302
 20
-17.844302
 30
0.0
 11
-11.424678
 21
-11.424678
 31
0.0
  0
LINE
  8
0
 62
     0
 10
-16.415562
 20
-19.067212
 30
0.0
 11
-11.424678
 21
-14.076329
 31
0.0
  0
LINE
  8
0
 62
     0
 10
-14.182997
 20
-19.486298
 30
0.0
 11
-11.424678
 21
-16.727979
 31
0.0
  0
LINE
  8
0
 62
     0
 10
-11.424678
 20
-7.136875
 30
0.0
 11
-18.134513
 21
-0.42704
 31
0.0
  0
LINE
  8
0
 62
     0
 10
-11.424678
 20
-9.788525
 30
0.0
 11
-19.3184
 21
-1.894803
 31
0.0
  0
LINE
  8
0
 62
     0
 10
-11.424678
 20
-12.440176
 30
0.0
 11
-20.291763
 21
-3.573091
 31
0.0
  0
LINE
  8
0
 62
     0
 10
-11.424678
 20
-15.091826
 30
0.0
 11
-21.025926
 21
-5.490578
 31
0.0
  0
LINE
  8
0
 62
     0
 10
-11.853268
 20
-17.314887
 30
0.0
 11
-21.459239
 21
-7.708916
 31
0.0
  0
LINE
  8
0
 62
     0
 10
-12.333508
 20
-19.486298
 30
0.0
 11
-21.447612
 21
-10.372193
 31
0.0
  0
LINE
  8
0
 62
     0
 10
-14.985158
 20
-19.486298
 30
0.0
 11
-20.477984
 21
-13.993472
 31
0.0
  0
LINE
  8
0
 62
     0
 10
-11.424678
 20
-4.485224
 30
0.0
 11
-16.750324
 21
0.840421
 31
0.0
  0
LINE
  8
0
 62
     0
 10
-10.132407
 20
-3.125845
 30
0.0
 11
-15.161712
 21
1.90346
 31
0.0
  0
LINE
  8
0
 62
     0
 10
-9.024678
 20
-1.581924
 30
0.0
 11
-13.348624
 21
2.742022
 31
0.0
  0
LINE
  8
0
 62
     0
 10
-9.024678
 20
1.069727
 30
0.0
 11
-11.26606
 21
3.311109
 31
0.0
  0
ENDBLK
  8
0
  0
BLOCK
  8
0
  2
*X4
 70
    65
 10
0.0
 20
0.0
 30
0.0
  3
*X
  0
LINE
  8
0
 62
     0
 10
11.917388
 20
-9.295816
 30
0.0
 11
22.571739
 21
1.358535
 31
0.0
  0
LINE
  8
0
 62
     0
 10
25.523702
 20
4.310498
 30
0.0
 11
25.771739
 21
4.558535
 31
0.0
  0
LINE
  8
0
 62
     0
 10
11.084455
 20
-6.593215
 30
0.0
 11
25.771739
 21
8.094069
 31
0.0
  0
LINE
  8
0
 62
     0
 10
10.772782
 20
-3.369353
 30
0.0
 11
25.594794
 21
11.452659
 31
0.0
  0
LINE
  8
0
 62
     0
 10
11.418967
 20
0.812365
 30
0.0
 11
21.413076
 21
10.806474
 31
0.0
  0
LINE
  8
0
 62
     0
 10
13.129465
 20
-11.619272
 30
0.0
 11
22.571739
 21
-2.176999
 31
0.0
  0
LINE
  8
0
 62
     0
 10
14.660856
 20
-13.623415
 30
0.0
 11
22.571739
 21
-5.712533
 31
0.0
  0
LINE
  8
0
 62
     0
 10
16.490041
 20
-15.329764
 30
0.0
 11
22.571739
 21
-9.248067
 31
0.0
  0
LINE
  8
0
 62
     0
 10
18.809041
 20
-16.546298
 30
0.0
 11
22.571739
 21
-12.783601
 31
0.0
  0
LINE
  8
0
 62
     0
 10
22.571739
 20
-4.894069
 30
0.0
 11
13.13786
 21
4.539809
 31
0.0
  0
LINE
  8
0
 62
     0
 10
22.571739
 20
-8.429603
 30
0.0
 11
11.923708
 21
2.218427
 31
0.0
  0
LINE
  8
0
 62
     0
 10
22.571739
 20
-11.965137
 30
0.0
 11
11.088163
 21
-0.481561
 31
0.0
  0
LINE
  8
0
 62
     0
 10
21.771739
 20
-14.700671
 30
0.0
 11
10.772541
 21
-3.701473
 31
0.0
  0
LINE
  8
0
 62
     0
 10
20.081832
 20
-16.546298
 30
0.0
 11
11.40963
 21
-7.874096
 31
0.0
  0
LINE
  8
0
 62
     0
 10
22.571739
 20
-1.358535
 30
0.0
 11
14.6711
 21
6.542103
 31
0.0
  0
LINE
  8
0
 62
     0
 10
22.571739
 20
2.176999
 30
0.0
 11
16.502088
 21
8.246649
 31
0.0
  0
LINE
  8
0
 62
     0
 10
24.541086
 20
3.743185
 30
0.0
 11
18.636379
 21
9.647892
 31
0.0
  0
LINE
  8
0
 62
     0
 10
25.771739
 20
6.048067
 30
0.0
 11
21.109161
 21
10.710644
 31
0.0
  0
LINE
  8
0
 62
     0
 10
25.771739
 20
9.583601
 30
0.0
 11
24.005935
 21
11.349404
 31
0.0
  0
ENDBLK
  8
0
  0
BLOCK
  8
0
  2
*X5
 70
    65
 10
0.0
 20
0.0
 30
0.0
  3
*X
  0
LINE
  8
0
 62
     0
 10
52.535763
 20
-7.568313
 30
0.0
 11
63.855622
 21
3.751546
 31
0.0
  0
LINE
  8
0
 62
     0
 10
51.596474
 20
-4.972068
 30
0.0
 11
67.055622
 21
10.48708
 31
0.0
  0
LINE
  8
0
 62
     0
 10
51.092988
 20
-1.940021
 30
0.0
 11
67.055622
 21
14.022614
 31
0.0
  0
LINE
  8
0
 62
     0
 10
51.27185
 20
1.774375
 30
0.0
 11
64.434071
 21
14.936597
 31
0.0
  0
LINE
  8
0
 62
     0
 10
53.319385
 20
7.357444
 30
0.0
 11
58.851002
 21
12.889062
 31
0.0
  0
LINE
  8
0
 62
     0
 10
53.812939
 20
-9.826671
 30
0.0
 11
63.855622
 21
0.216012
 31
0.0
  0
LINE
  8
0
 62
     0
 10
55.383938
 20
-11.791206
 30
0.0
 11
63.855622
 21
-3.319522
 31
0.0
  0
LINE
  8
0
 62
     0
 10
57.233301
 20
-13.477378
 30
0.0
 11
63.855622
 21
-6.855056
 31
0.0
  0
LINE
  8
0
 62
     0
 10
59.999036
 20
-14.247176
 30
0.0
 11
63.855622
 21
-10.39059
 31
0.0
  0
LINE
  8
0
 62
     0
 10
63.855622
 20
-3.751546
 30
0.0
 11
53.109211
 21
6.994866
 31
0.0
  0
LINE
  8
0
 62
     0
 10
63.855622
 20
-7.28708
 30
0.0
 11
52.000043
 21
4.568499
 31
0.0
  0
LINE
  8
0
 62
     0
 10
63.855622
 20
-10.822614
 30
0.0
 11
51.269971
 21
1.763038
 31
0.0
  0
LINE
  8
0
 62
     0
 10
63.055622
 20
-13.558147
 30
0.0
 11
51.072171
 21
-1.574696
 31
0.0
  0
LINE
  8
0
 62
     0
 10
60.209116
 20
-14.247176
 30
0.0
 11
51.880661
 21
-5.918721
 31
0.0
  0
LINE
  8
0
 62
     0
 10
63.855622
 20
-0.216012
 30
0.0
 11
54.53064
 21
9.10897
 31
0.0
  0
LINE
  8
0
 62
     0
 10
63.855622
 20
3.319522
 30
0.0
 11
56.235592
 21
10.939552
 31
0.0
  0
LINE
  8
0
 62
     0
 10
63.855622
 20
6.855056
 30
0.0
 11
58.219246
 21
12.491432
 31
0.0
  0
LINE
  8
0
 62
     0
 10
66.065205
 20
8.181007
 30
0.0
 11
60.498656
 21
13.747556
 31
0.0
  0
LINE
  8
0
 62
     0
 10
67.055622
 20
10.726124
 30
0.0
 11
63.120406
 21
14.66134
 31
0.0
  0
LINE
  8
0
 62
     0
 10
67.055622
 20
14.261658
 30
0.0
 11
66.187997
 21
15.129283
 31
0.0
  0
ENDBLK
  8
0
  0
BLOCK
  8
0
  2
*X6
 70
    65
 10
0.0
 20
0.0
 30
0.0
  3
*X
  0
LINE
  8
0
 62
     0
 10
95.86197
 20
-6.668514
 30
0.0
 11
107.124291
 21
4.593808
 31
0.0
  0
LINE
  8
0
 62
     0
 10
94.74002
 20
-4.254929
 30
0.0
 11
107.124291
 21
8.129342
 31
0.0
  0
LINE
  8
0
 62
     0
 10
93.956988
 20
-1.502427
 30
0.0
 11
107.124291
 21
11.664876
 31
0.0
  0
LINE
  8
0
 62
     0
 10
108.116662
 20
12.657247
 30
0.0
 11
111.124291
 21
15.664876
 31
0.0
  0
LINE
  8
0
 62
     0
 10
93.625347
 20
1.701466
 30
0.0
 11
111.124291
 21
19.20041
 31
0.0
  0
LINE
  8
0
 62
     0
 10
94.030447
 20
5.642099
 30
0.0
 11
107.375895
 21
18.987547
 31
0.0
  0
LINE
  8
0
 62
     0
 10
96.800921
 20
11.948107
 30
0.0
 11
101.069887
 21
16.217073
 31
0.0
  0
LINE
  8
0
 62
     0
 10
97.269216
 20
-8.796802
 30
0.0
 11
107.124291
 21
1.058274
 31
0.0
  0
LINE
  8
0
 62
     0
 10
98.936794
 20
-10.664757
 30
0.0
 11
107.124291
 21
-2.47726
 31
0.0
  0
LINE
  8
0
 62
     0
 10
100.8583
 20
-12.278785
 30
0.0
 11
107.124291
 21
-6.012794
 31
0.0
  0
LINE
  8
0
 62
     0
 10
103.066321
 20
-13.606298
 30
0.0
 11
107.124291
 21
-9.548328
 31
0.0
  0
LINE
  8
0
 62
     0
 10
107.124291
 20
2.47726
 30
0.0
 11
97.160174
 21
12.441377
 31
0.0
  0
LINE
  8
0
 62
     0
 10
107.124291
 20
-1.058274
 30
0.0
 11
95.772171
 21
10.293846
 31
0.0
  0
LINE
  8
0
 62
     0
 10
107.124291
 20
-4.593808
 30
0.0
 11
94.672145
 21
7.858338
 31
0.0
  0
LINE
  8
0
 62
     0
 10
107.124291
 20
-8.129342
 30
0.0
 11
93.916517
 21
5.078432
 31
0.0
  0
LINE
  8
0
 62
     0
 10
106.345002
 20
-10.885587
 30
0.0
 11
93.62439
 21
1.835026
 31
0.0
  0
LINE
  8
0
 62
     0
 10
105.530179
 20
-13.606298
 30
0.0
 11
94.105403
 21
-2.181522
 31
0.0
  0
LINE
  8
0
 62
     0
 10
100.021959
 20
-11.633611
 30
0.0
 11
97.596978
 21
-9.20863
 31
0.0
  0
LINE
  8
0
 62
     0
 10
107.124291
 20
6.012794
 30
0.0
 11
98.809612
 21
14.327473
 31
0.0
  0
LINE
  8
0
 62
     0
 10
107.124291
 20
9.548328
 30
0.0
 11
100.712898
 21
15.959721
 31
0.0
  0
LINE
  8
0
 62
     0
 10
107.757987
 20
12.450166
 30
0.0
 11
102.878746
 21
17.329407
 31
0.0
  0
LINE
  8
0
 62
     0
 10
109.999426
 20
13.744261
 30
0.0
 11
105.335238
 21
18.408449
 31
0.0
  0
LINE
  8
0
 62
     0
 10
111.124291
 20
16.154929
 30
0.0
 11
108.141579
 21
19.137641
 31
0.0
  0
ENDBLK
  8
0
  0
BLOCK
  8
0
  2
*X7
 70
    65
 10
0.0
 20
0.0
 30
0.0
  3
*X
  0
LINE
  8
0
 62
     0
 10
-88.095528
 20
-119.03145
 30
0.0
 11
-75.47522
 21
-106.411142
 31
0.0
  0
LINE
  8
0
 62
     0
 10
-89.485349
 20
-116.001853
 30
0.0
 11
-75.47522
 21
-101.991725
 31
0.0
  0
LINE
  8
0
 62
     0
 10
-90.40226
 20
-112.499347
 30
0.0
 11
-75.47522
 21
-97.572307
 31
0.0
  0
LINE
  8
0
 62
     0
 10
-74.068169
 20
-96.165256
 30
0.0
 11
-70.67522
 21
-92.772307
 31
0.0
  0
LINE
  8
0
 62
     0
 10
-90.65618
 20
-108.33385
 30
0.0
 11
-71.547706
 21
-89.225376
 31
0.0
  0
LINE
  8
0
 62
     0
 10
-89.661502
 20
-102.919754
 30
0.0
 11
-76.961802
 21
-90.220054
 31
0.0
  0
LINE
  8
0
 62
     0
 10
-86.315817
 20
-121.671156
 30
0.0
 11
-75.47522
 21
-110.830559
 31
0.0
  0
LINE
  8
0
 62
     0
 10
-84.181858
 20
-123.956615
 30
0.0
 11
-75.47522
 21
-115.249977
 31
0.0
  0
LINE
  8
0
 62
     0
 10
-81.699464
 20
-125.893638
 30
0.0
 11
-75.47522
 21
-119.669394
 31
0.0
  0
LINE
  8
0
 62
     0
 10
-77.592745
 20
-126.206336
 30
0.0
 11
-76.67522
 21
-125.288812
 31
0.0
  0
LINE
  8
0
 62
     0
 10
-75.47522
 20
-105.720892
 30
0.0
 11
-85.459352
 21
-95.736761
 31
0.0
  0
LINE
  8
0
 62
     0
 10
-75.47522
 20
-110.14031
 30
0.0
 11
-87.390687
 21
-98.224843
 31
0.0
  0
LINE
  8
0
 62
     0
 10
-75.47522
 20
-114.559727
 30
0.0
 11
-88.95143
 21
-101.083518
 31
0.0
  0
LINE
  8
0
 62
     0
 10
-75.47522
 20
-118.979145
 30
0.0
 11
-90.082199
 21
-104.372166
 31
0.0
  0
LINE
  8
0
 62
     0
 10
-76.671333
 20
-122.202449
 30
0.0
 11
-90.65102
 21
-108.222762
 31
0.0
  0
LINE
  8
0
 62
     0
 10
-77.086864
 20
-126.206336
 30
0.0
 11
-90.316641
 21
-112.976558
 31
0.0
  0
LINE
  8
0
 62
     0
 10
-82.06924
 20
-125.643377
 30
0.0
 11
-87.112261
 21
-120.600356
 31
0.0
  0
LINE
  8
0
 62
     0
 10
-75.47522
 20
-101.301475
 30
0.0
 11
-83.179459
 21
-93.597236
 31
0.0
  0
LINE
  8
0
 62
     0
 10
-75.414638
 20
-96.94264
 30
0.0
 11
-80.545627
 21
-91.811651
 31
0.0
  0
LINE
  8
0
 62
     0
 10
-72.61284
 20
-95.325021
 30
0.0
 11
-77.522773
 21
-90.415087
 31
0.0
  0
LINE
  8
0
 62
     0
 10
-70.67522
 20
-92.843223
 30
0.0
 11
-74.02892
 21
-89.489523
 31
0.0
  0
ENDBLK
  8
0
  0
BLOCK
  8
0
  2
*X8
 70
    65
 10
0.0
 20
0.0
 30
0.0
  3
*X
  0
LINE
  8
0
 62
     0
 10
-39.399262
 20
-114.529358
 30
0.0
 11
-24.440533
 21
-99.570629
 31
0.0
  0
LINE
  8
0
 62
     0
 10
-40.774932
 20
-111.48561
 30
0.0
 11
-24.440533
 21
-95.151212
 31
0.0
  0
LINE
  8
0
 62
     0
 10
-41.733816
 20
-108.025077
 30
0.0
 11
-24.440533
 21
-90.731794
 31
0.0
  0
LINE
  8
0
 62
     0
 10
-24.051474
 20
-90.342734
 30
0.0
 11
-19.640533
 21
-85.931794
 31
0.0
  0
LINE
  8
0
 62
     0
 10
-42.139203
 20
-104.011046
 30
0.0
 11
-19.640533
 21
-81.512377
 31
0.0
  0
LINE
  8
0
 62
     0
 10
-41.652344
 20
-99.10477
 30
0.0
 11
-24.302099
 21
-81.754525
 31
0.0
  0
LINE
  8
0
 62
     0
 10
-38.56843
 20
-91.601439
 30
0.0
 11
-31.805431
 21
-84.838439
 31
0.0
  0
LINE
  8
0
 62
     0
 10
-37.673182
 20
-117.222695
 30
0.0
 11
-24.440533
 21
-103.990046
 31
0.0
  0
LINE
  8
0
 62
     0
 10
-35.628679
 20
-119.597609
 30
0.0
 11
-24.440533
 21
-108.409464
 31
0.0
  0
LINE
  8
0
 62
     0
 10
-33.275766
 20
-121.664113
 30
0.0
 11
-24.440533
 21
-112.828881
 31
0.0
  0
LINE
  8
0
 62
     0
 10
-30.605789
 20
-123.413554
 30
0.0
 11
-24.440533
 21
-117.248298
 31
0.0
  0
LINE
  8
0
 62
     0
 10
-27.568894
 20
-124.796077
 30
0.0
 11
-25.640533
 21
-122.867716
 31
0.0
  0
LINE
  8
0
 62
     0
 10
-24.440533
 20
-99.303153
 30
0.0
 11
-35.717953
 21
-88.025733
 31
0.0
  0
LINE
  8
0
 62
     0
 10
-24.440533
 20
-103.722571
 30
0.0
 11
-37.749816
 21
-90.413288
 31
0.0
  0
LINE
  8
0
 62
     0
 10
-24.440533
 20
-108.141988
 30
0.0
 11
-39.462428
 21
-93.120093
 31
0.0
  0
LINE
  8
0
 62
     0
 10
-24.440533
 20
-112.561405
 30
0.0
 11
-40.822731
 21
-96.179208
 31
0.0
  0
LINE
  8
0
 62
     0
 10
-24.440533
 20
-116.980823
 30
0.0
 11
-41.762447
 21
-99.658909
 31
0.0
  0
LINE
  8
0
 62
     0
 10
-25.640533
 20
-120.20024
 30
0.0
 11
-42.140437
 21
-103.700337
 31
0.0
  0
LINE
  8
0
 62
     0
 10
-25.640533
 20
-124.619658
 30
0.0
 11
-41.602403
 21
-108.657788
 31
0.0
  0
LINE
  8
0
 62
     0
 10
-32.339396
 20
-122.340213
 30
0.0
 11
-38.21441
 21
-116.465198
 31
0.0
  0
LINE
  8
0
 62
     0
 10
-24.440533
 20
-94.883736
 30
0.0
 11
-33.377639
 21
-85.94663
 31
0.0
  0
LINE
  8
0
 62
     0
 10
-24.375209
 20
-90.529643
 30
0.0
 11
-30.720993
 21
-84.183859
 31
0.0
  0
LINE
  8
0
 62
     0
 10
-21.573411
 20
-88.912024
 30
0.0
 11
-27.718871
 21
-82.766563
 31
0.0
  0
LINE
  8
0
 62
     0
 10
-19.640533
 20
-86.425484
 30
0.0
 11
-24.309849
 21
-81.756168
 31
0.0
  0
LINE
  8
0
 62
     0
 10
-19.640533
 20
-82.006066
 30
0.0
 11
-20.368485
 21
-81.278115
 31
0.0
  0
ENDBLK
  8
0
  0
BLOCK
  8
0
  2
*X9
 70
    65
 10
0.0
 20
0.0
 30
0.0
  3
*X
  0
LINE
  8
0
 62
     0
 10
15.384098
 20
-111.895123
 30
0.0
 11
30.767134
 21
-96.512087
 31
0.0
  0
LINE
  8
0
 62
     0
 10
13.813723
 20
-108.162197
 30
0.0
 11
30.767134
 21
-91.208786
 31
0.0
  0
LINE
  8
0
 62
     0
 10
37.194366
 20
-84.781554
 30
0.0
 11
37.567134
 21
-84.408786
 31
0.0
  0
LINE
  8
0
 62
     0
 10
12.812472
 20
-103.860147
 30
0.0
 11
37.567134
 21
-79.105485
 31
0.0
  0
LINE
  8
0
 62
     0
 10
12.619448
 20
-98.74987
 30
0.0
 11
35.950668
 21
-75.41865
 31
0.0
  0
LINE
  8
0
 62
     0
 10
13.977275
 20
-92.088742
 30
0.0
 11
29.28954
 21
-76.776477
 31
0.0
  0
LINE
  8
0
 62
     0
 10
17.417626
 20
-115.164895
 30
0.0
 11
30.767134
 21
-101.815388
 31
0.0
  0
LINE
  8
0
 62
     0
 10
19.865657
 20
-118.020166
 30
0.0
 11
30.767134
 21
-107.118688
 31
0.0
  0
LINE
  8
0
 62
     0
 10
22.713698
 20
-120.475425
 30
0.0
 11
30.767134
 21
-112.421989
 31
0.0
  0
LINE
  8
0
 62
     0
 10
26.926088
 20
-121.566336
 30
0.0
 11
29.567134
 21
-118.92529
 31
0.0
  0
LINE
  8
0
 62
     0
 10
30.767134
 20
-94.406744
 30
0.0
 11
19.474255
 21
-83.113865
 31
0.0
  0
LINE
  8
0
 62
     0
 10
30.767134
 20
-99.710045
 30
0.0
 11
17.086554
 21
-86.029465
 31
0.0
  0
LINE
  8
0
 62
     0
 10
30.767134
 20
-105.013346
 30
0.0
 11
15.118155
 21
-89.364367
 31
0.0
  0
LINE
  8
0
 62
     0
 10
30.767134
 20
-110.316647
 30
0.0
 11
13.624166
 21
-93.173679
 31
0.0
  0
LINE
  8
0
 62
     0
 10
30.767134
 20
-115.619948
 30
0.0
 11
12.723326
 21
-97.57614
 31
0.0
  0
LINE
  8
0
 62
     0
 10
29.567134
 20
-119.723249
 30
0.0
 11
12.690471
 21
-102.846586
 31
0.0
  0
LINE
  8
0
 62
     0
 10
26.106921
 20
-121.566336
 30
0.0
 11
14.467418
 21
-109.926833
 31
0.0
  0
LINE
  8
0
 62
     0
 10
30.767134
 20
-89.103443
 30
0.0
 11
22.262314
 21
-80.598623
 31
0.0
  0
LINE
  8
0
 62
     0
 10
33.741854
 20
-86.774862
 30
0.0
 11
25.46037
 21
-78.493379
 31
0.0
  0
LINE
  8
0
 62
     0
 10
37.104012
 20
-84.83372
 30
0.0
 11
29.110396
 21
-76.840104
 31
0.0
  0
LINE
  8
0
 62
     0
 10
37.567134
 20
-79.993541
 30
0.0
 11
33.305788
 21
-75.732194
 31
0.0
  0
ENDBLK
  8
0
  0
ENDSEC
  0
SECTION
  2
ENTITIES
  0
CIRCLE
  8
0
 10
-38.513166
 20
-37.546298
 30
0.0
 40
10.0
  0
CIRCLE
  8
0
 10
-9.024678
 20
-37.546298
 30
0.0
 40
12.5
  0
CIRCLE
  8
0
 10
25.771739
 20
-37.546298
 30
0.0
 40
15.0
  0
CIRCLE
  8
0
 10
111.124291
 20
-37.546298
 30
0.0
 40
17.5
  0
CIRCLE
  8
0
 10
-70.67522
 20
-160.976957
 30
0.0
 40
20.0
  0
CIRCLE
  8
0
 10
-19.640533
 20
-160.976957
 30
0.0
 40
22.5
  0
CIRCLE
  8
0
 10
37.567134
 20
-160.976957
 30
0.0
 40
25.0
  0
ARC
  8
0
 10
37.567134
 20
-100.366336
 30
0.0
 40
25.0
 50
302.0052
 51
237.9948
  0
ARC
  8
0
 10
-19.640533
 20
-103.766336
 30
0.0
 40
22.5
 50
290.827497
 51
249.172503
  0
ARC
  8
0
 10
-70.67522
 20
-109.206336
 30
0.0
 40
20.0
 50
301.788331
 51
238.211669
  0
ARC
  8
0
 10
111.124291
 20
1.893702
 30
0.0
 40
17.5
 50
297.66045
 51
242.33955
  0
ARC
  8
0
 10
25.771739
 20
-3.546298
 30
0.0
 40
15.0
 50
299.926435
 51
240.073565
  0
ARC
  8
0
 10
-9.024678
 20
-8.986298
 30
0.0
 40
12.5
 50
302.85988
 51
237.14012
  0
ARC
  8
0
 10
-38.513166
 20
-14.086298
 30
0.0
 40
10.0
 50
306.869898
 51
233.130102
  0
CIRCLE
  8
0
 10
-84.67522
 20
-37.546298
 30
0.0
 40
6.0
  0
ARC
  8
0
 10
-84.67522
 20
-20.811642
 30
0.0
 40
6.0
 50
294.624318
 51
245.375682
  0
LINE
  8
0
 10
-82.17522
 20
-26.265998
 30
0.0
 11
-87.17522
 21
-26.265998
 31
0.0
  0
LINE
  8
0
 10
-27.640533
 20
-124.796077
 30
0.0
 11
-11.640533
 21
-124.796077
 31
0.0
  0
CIRCLE
  8
0
 10
67.055622
 20
-37.546298
 30
0.0
 40
16.0
  0
ARC
  8
0
 10
67.055622
 20
-0.847176
 30
0.0
 40
16.0
 50
303.12294
 51
236.87706
  0
LINE
  8
0
  6
CENTER
 10
-84.67522
 20
-27.542147
 30
0.0
 11
-84.67522
 21
-13.427805
 31
0.0
  0
LINE
  8
0
 10
-86.67522
 20
-26.265998
 30
0.0
 11
-86.67522
 21
-19.765998
 31
0.0
  0
LINE
  8
0
 10
-84.67522
 20
-19.765998
 30
0.0
 11
-86.67522
 21
-19.765998
 31
0.0
  0
LINE
  8
0
 10
-86.27522
 20
-25.865998
 30
0.0
 11
-86.27522
 21
-19.189758
 31
0.0
  0
LINE
  8
0
 10
-84.67522
 20
-25.865998
 30
0.0
 11
-86.27522
 21
-25.865998
 31
0.0
  0
LINE
  8
0
 10
-84.67522
 20
-18.265998
 30
0.0
 11
-86.27522
 21
-19.189758
 31
0.0
  0
LINE
  8
0
 10
-86.67522
 20
-26.265998
 30
0.0
 11
-86.27522
 21
-25.865998
 31
0.0
  0
LINE
  8
0
 10
-86.27522
 20
-19.189758
 30
0.0
 11
-84.67522
 21
-19.189758
 31
0.0
  0
LINE
  8
0
  6
CENTER
 10
-63.873266
 20
-27.308301
 30
0.0
 11
-63.873266
 21
-9.71184
 31
0.0
  0
LINE
  8
0
 10
-66.373266
 20
-25.495626
 30
0.0
 11
-66.373266
 21
-16.295626
 31
0.0
  0
ARC
  8
0
 10
-63.873266
 20
-18.395626
 30
0.0
 40
8.0
 50
297.43924
 51
242.56076
  0
CIRCLE
  8
0
 10
-63.873266
 20
-37.546298
 30
0.0
 40
8.0
  0
LINE
  8
0
 10
-67.559728
 20
-25.495626
 30
0.0
 11
-60.186804
 21
-25.495626
 31
0.0
  0
LINE
  8
0
 10
-66.373266
 20
-23.495626
 30
0.0
 11
-63.873266
 21
-23.495626
 31
0.0
  0
LINE
  8
0
 10
-66.373266
 20
-16.295626
 30
0.0
 11
-63.873266
 21
-16.295626
 31
0.0
  0
LINE
  8
0
 10
-63.873266
 20
-13.495626
 30
0.0
 11
-65.873266
 21
-14.650326
 31
0.0
  0
LINE
  8
0
 10
-65.873266
 20
-22.995626
 30
0.0
 11
-65.873266
 21
-14.650326
 31
0.0
  0
LINE
  8
0
 10
-65.873266
 20
-22.995626
 30
0.0
 11
-63.873266
 21
-22.995626
 31
0.0
  0
LINE
  8
0
 10
-66.373266
 20
-23.495626
 30
0.0
 11
-65.873266
 21
-22.995626
 31
0.0
  0
LINE
  8
0
  6
CENTER
 10
-38.513166
 20
-25.658847
 30
0.0
 11
-38.513166
 21
-1.447091
 31
0.0
  0
LINE
  8
0
 10
-44.513166
 20
-22.086298
 30
0.0
 11
-32.513166
 21
-22.086298
 31
0.0
  0
LINE
  8
0
 10
-41.513166
 20
-22.086298
 30
0.0
 11
-41.513166
 21
-11.486298
 31
0.0
  0
LINE
  8
0
 10
-41.513166
 20
-20.586298
 30
0.0
 11
-38.513166
 21
-20.586298
 31
0.0
  0
LINE
  8
0
 10
-41.513166
 20
-11.486298
 30
0.0
 11
-38.513166
 21
-11.486298
 31
0.0
  0
LINE
  8
0
 10
-38.513166
 20
-8.086298
 30
0.0
 11
-40.913166
 21
-9.471938
 31
0.0
  0
LINE
  8
0
 10
-40.913166
 20
-19.986298
 30
0.0
 11
-38.513166
 21
-19.986298
 31
0.0
  0
LINE
  8
0
 10
-40.913166
 20
-19.986298
 30
0.0
 11
-40.913166
 21
-9.471938
 31
0.0
  0
LINE
  8
0
 10
-41.513166
 20
-20.586298
 30
0.0
 11
-40.913166
 21
-19.986298
 31
0.0
  0
LINE
  8
0
 10
-65.873266
 20
-14.650326
 30
0.0
 11
-63.873266
 21
-14.650326
 31
0.0
  0
LINE
  8
0
 10
-40.913166
 20
-9.471938
 30
0.0
 11
-38.513166
 21
-9.471938
 31
0.0
  0
LINE
  8
0
  6
CENTER
 10
-9.024678
 20
-22.921477
 30
0.0
 11
-9.024678
 21
5.708304
 31
0.0
  0
LINE
  8
0
 10
-15.807008
 20
-19.486298
 30
0.0
 11
-2.242348
 21
-19.486298
 31
0.0
  0
LINE
  8
0
 10
-12.024678
 20
-17.486298
 30
0.0
 11
-9.024678
 21
-17.486298
 31
0.0
  0
LINE
  8
0
 10
-12.024678
 20
-6.486298
 30
0.0
 11
-9.024678
 21
-6.486298
 31
0.0
  0
LINE
  8
0
 10
-9.024678
 20
-2.486298
 30
0.0
 11
-11.424678
 21
-3.871938
 31
0.0
  0
LINE
  8
0
 10
-12.024678
 20
-19.486298
 30
0.0
 11
-12.024678
 21
-6.486298
 31
0.0
  0
LINE
  8
0
 10
-11.424678
 20
-16.886298
 30
0.0
 11
-9.024678
 21
-16.886298
 31
0.0
  0
LINE
  8
0
 10
-11.424678
 20
-16.886298
 30
0.0
 11
-11.424678
 21
-3.871938
 31
0.0
  0
LINE
  8
0
 10
-12.024678
 20
-17.486298
 30
0.0
 11
-11.424678
 21
-16.886298
 31
0.0
  0
LINE
  8
0
 10
-11.424678
 20
-3.871938
 30
0.0
 11
-9.024678
 21
-3.871938
 31
0.0
  0
LINE
  8
0
  6
CENTER
 10
25.771739
 20
-20.167173
 30
0.0
 11
25.771739
 21
13.557647
 31
0.0
  0
LINE
  8
0
 10
18.288424
 20
-16.546298
 30
0.0
 11
33.255053
 21
-16.546298
 31
0.0
  0
LINE
  8
0
 10
21.771739
 20
-14.046298
 30
0.0
 11
25.771739
 21
-14.046298
 31
0.0
  0
LINE
  8
0
 10
21.771739
 20
0.453702
 30
0.0
 11
25.771739
 21
0.453702
 31
0.0
  0
LINE
  8
0
 10
25.771739
 20
4.453702
 30
0.0
 11
22.571739
 21
2.606181
 31
0.0
  0
LINE
  8
0
 10
21.771739
 20
-16.546298
 30
0.0
 11
21.771739
 21
0.453702
 31
0.0
  0
LINE
  8
0
 10
22.571739
 20
-13.246298
 30
0.0
 11
25.771739
 21
-13.246298
 31
0.0
  0
LINE
  8
0
 10
22.571739
 20
-13.246298
 30
0.0
 11
22.571739
 21
2.606181
 31
0.0
  0
LINE
  8
0
 10
21.771739
 20
-14.046298
 30
0.0
 11
22.571739
 21
-13.246298
 31
0.0
  0
LINE
  8
0
 10
22.571739
 20
2.606181
 30
0.0
 11
25.771739
 21
2.606181
 31
0.0
  0
LINE
  8
0
  6
CENTER
 10
67.055622
 20
-17.293784
 30
0.0
 11
67.055622
 21
18.136031
 31
0.0
  0
LINE
  8
0
 10
58.312625
 20
-14.247176
 30
0.0
 11
75.798619
 21
-14.247176
 31
0.0
  0
LINE
  8
0
 10
63.055622
 20
-14.247176
 30
0.0
 11
63.055622
 21
2.752824
 31
0.0
  0
LINE
  8
0
 10
63.055622
 20
-11.747176
 30
0.0
 11
67.055622
 21
-11.747176
 31
0.0
  0
LINE
  8
0
 10
63.055622
 20
2.752824
 30
0.0
 11
67.055622
 21
2.752824
 31
0.0
  0
LINE
  8
0
 10
67.055622
 20
8.752824
 30
0.0
 11
63.855622
 21
6.905303
 31
0.0
  0
LINE
  8
0
 10
63.855622
 20
-10.947176
 30
0.0
 11
67.055622
 21
-10.947176
 31
0.0
  0
LINE
  8
0
 10
63.855622
 20
-10.947176
 30
0.0
 11
63.855622
 21
6.905303
 31
0.0
  0
LINE
  8
0
 10
63.855622
 20
6.905303
 30
0.0
 11
67.055622
 21
6.905303
 31
0.0
  0
LINE
  8
0
 10
63.055622
 20
-11.747176
 30
0.0
 11
63.855622
 21
-10.947176
 31
0.0
  0
LINE
  8
0
  6
CENTER
 10
111.124291
 20
-18.144576
 30
0.0
 11
111.124291
 21
23.061297
 31
0.0
  0
LINE
  8
0
 10
103.000253
 20
-13.606298
 30
0.0
 11
119.24833
 21
-13.606298
 31
0.0
  0
LINE
  8
0
 10
106.124291
 20
-13.606298
 30
0.0
 11
106.124291
 21
6.893702
 31
0.0
  0
LINE
  8
0
 10
106.124291
 20
-11.106298
 30
0.0
 11
111.124291
 21
-11.106298
 31
0.0
  0
LINE
  8
0
 10
106.124291
 20
6.893702
 30
0.0
 11
111.124291
 21
6.893702
 31
0.0
  0
LINE
  8
0
 10
111.124291
 20
14.393702
 30
0.0
 11
107.124291
 21
12.084301
 31
0.0
  0
LINE
  8
0
 10
107.124291
 20
-10.106298
 30
0.0
 11
107.124291
 21
12.084301
 31
0.0
  0
LINE
  8
0
 10
107.124291
 20
-10.106298
 30
0.0
 11
111.124291
 21
-10.106298
 31
0.0
  0
LINE
  8
0
 10
106.124291
 20
-11.106298
 30
0.0
 11
107.124291
 21
-10.106298
 31
0.0
  0
LINE
  8
0
  6
CENTER
 10
-70.67522
 20
-132.237333
 30
0.0
 11
-70.67522
 21
-83.815521
 31
0.0
  0
LINE
  8
0
  6
CENTER
 10
-19.640533
 20
-128.74829
 30
0.0
 11
-19.640533
 21
-74.78189
 31
0.0
  0
LINE
  8
0
  6
CENTER
 10
37.567134
 20
-128.003988
 30
0.0
 11
37.567134
 21
-68.57127
 31
0.0
  0
LINE
  8
0
 10
-81.210874
 20
-126.206336
 30
0.0
 11
-60.139567
 21
-126.206336
 31
0.0
  0
LINE
  8
0
 10
-76.67522
 20
-122.206336
 30
0.0
 11
-70.67522
 21
-122.206336
 31
0.0
  0
LINE
  8
0
 10
-76.67522
 20
-104.206336
 30
0.0
 11
-70.67522
 21
-104.206336
 31
0.0
  0
LINE
  8
0
 10
-76.67522
 20
-126.206336
 30
0.0
 11
-76.67522
 21
-104.206336
 31
0.0
  0
LINE
  8
0
 10
-75.47522
 20
-121.006336
 30
0.0
 11
-75.47522
 21
-96.977617
 31
0.0
  0
LINE
  8
0
 10
-70.67522
 20
-94.206336
 30
0.0
 11
-75.47522
 21
-96.977617
 31
0.0
  0
LINE
  8
0
 10
-76.67522
 20
-122.206336
 30
0.0
 11
-75.47522
 21
-121.006336
 31
0.0
  0
LINE
  8
0
 10
-75.47522
 20
-96.977617
 30
0.0
 11
-70.67522
 21
-96.977617
 31
0.0
  0
LINE
  8
0
 10
-75.47522
 20
-121.006336
 30
0.0
 11
-70.67522
 21
-121.006336
 31
0.0
  0
LINE
  8
0
 10
-25.640533
 20
-124.796077
 30
0.0
 11
-25.640533
 21
-99.796077
 31
0.0
  0
LINE
  8
0
 10
-25.640533
 20
-119.796077
 30
0.0
 11
-19.640533
 21
-119.796077
 31
0.0
  0
LINE
  8
0
 10
-25.640533
 20
-99.796077
 30
0.0
 11
-19.640533
 21
-99.796077
 31
0.0
  0
LINE
  8
0
 10
-24.440533
 20
-118.596077
 30
0.0
 11
-19.640533
 21
-118.596077
 31
0.0
  0
LINE
  8
0
 10
-24.440533
 20
-118.596077
 30
0.0
 11
-24.440533
 21
-90.567358
 31
0.0
  0
LINE
  8
0
 10
-19.640533
 20
-87.796077
 30
0.0
 11
-24.440533
 21
-90.567358
 31
0.0
  0
LINE
  8
0
 10
-25.640533
 20
-119.796077
 30
0.0
 11
-24.440533
 21
-118.596077
 31
0.0
  0
LINE
  8
0
 10
-24.440533
 20
-90.567358
 30
0.0
 11
-19.640533
 21
-90.567358
 31
0.0
  0
LINE
  8
0
 10
50.81704
 20
-121.566336
 30
0.0
 11
24.317228
 21
-121.566336
 31
0.0
  0
LINE
  8
0
 10
29.567134
 20
-121.566336
 30
0.0
 11
29.567134
 21
-97.566336
 31
0.0
  0
LINE
  8
0
 10
37.567134
 20
-118.566336
 30
0.0
 11
29.567134
 21
-118.566336
 31
0.0
  0
LINE
  8
0
 10
37.567134
 20
-97.566336
 30
0.0
 11
29.567134
 21
-97.566336
 31
0.0
  0
LINE
  8
0
 10
37.567134
 20
-84.566336
 30
0.0
 11
30.767134
 21
-88.492318
 31
0.0
  0
LINE
  8
0
 10
37.567134
 20
-117.366336
 30
0.0
 11
30.767134
 21
-117.366336
 31
0.0
  0
LINE
  8
0
 10
30.767134
 20
-117.366336
 30
0.0
 11
30.767134
 21
-88.492318
 31
0.0
  0
LINE
  8
0
 10
29.567134
 20
-118.566336
 30
0.0
 11
30.767134
 21
-117.366336
 31
0.0
  0
LINE
  8
0
 10
30.767134
 20
-88.492318
 30
0.0
 11
37.567134
 21
-88.492318
 31
0.0
  0
INSERT
  8
0
  2
*X0
 10
0.0
 20
0.0
 30
0.0
1001
ACAD
1000
HATCH
1002
{
1070
    16
1000
ANSI37
1040
10.0
1040
0.0
1002
}
  0
INSERT
  8
0
  2
*X1
 10
0.0
 20
0.0
 30
0.0
1001
ACAD
1000
HATCH
1002
{
1070
    16
1000
ANSI37
1040
10.0
1040
0.0
1002
}
  0
INSERT
  8
0
  2
*X2
 10
0.0
 20
0.0
 30
0.0
1001
ACAD
1000
HATCH
1002
{
1070
    16
1000
ANSI37
1040
15.0
1040
0.0
1002
}
  0
INSERT
  8
0
  2
*X3
 10
0.0
 20
0.0
 30
0.0
1001
ACAD
1000
HATCH
1002
{
1070
    16
1000
ANSI37
1040
15.0
1040
0.0
1002
}
  0
INSERT
  8
0
  2
*X4
 10
0.0
 20
0.0
 30
0.0
1001
ACAD
1000
HATCH
1002
{
1070
    16
1000
ANSI37
1040
20.0
1040
0.0
1002
}
  0
INSERT
  8
0
  2
*X5
 10
0.0
 20
0.0
 30
0.0
1001
ACAD
1000
HATCH
1002
{
1070
    16
1000
ANSI37
1040
20.0
1040
0.0
1002
}
  0
INSERT
  8
0
  2
*X6
 10
0.0
 20
0.0
 30
0.0
1001
ACAD
1000
HATCH
1002
{
1070
    16
1000
ANSI37
1040
20.0
1040
0.0
1002
}
  0
INSERT
  8
0
  2
*X7
 10
0.0
 20
0.0
 30
0.0
1001
ACAD
1000
HATCH
1002
{
1070
    16
1000
ANSI37
1040
25.0
1040
0.0
1002
}
  0
INSERT
  8
0
  2
*X8
 10
0.0
 20
0.0
 30
0.0
1001
ACAD
1000
HATCH
1002
{
1070
    16
1000
ANSI37
1040
25.0
1040
0.0
1002
}
  0
INSERT
  8
0
  2
*X9
 10
0.0
 20
0.0
 30
0.0
1001
ACAD
1000
HATCH
1002
{
1070
    16
1000
ANSI37
1040
30.0
1040
0.0
1002
}
  0
ENDSEC
  0
EOF
