  0
SECTION
  2
HEADER
  9
$ACADVER
  1
AC1009
  9
$INSBASE
 10
0.0
 20
0.0
 30
0.0
  9
$EXTMIN
 10
-764.67807978790324
 20
580.52665961878017
 30
-0.0015258207003583
  9
$EXTMAX
 10
960.68848482129488
 20
1104.4634258551589
 30
0.0000000349246037
  9
$LIMMIN
 10
0.0
 20
0.0
  9
$LIMMAX
 10
420.0
 20
297.0
  9
$ORTHOMODE
 70
     1
  9
$REGENMODE
 70
     1
  9
$FILLMODE
 70
     1
  9
$QTEXTMODE
 70
     0
  9
$MIRRTEXT
 70
     1
  9
$DRAGMODE
 70
     2
  9
$LTSCALE
 40
1.0
  9
$OSMODE
 70
    40
  9
$ATTMODE
 70
     1
  9
$TEXTSIZE
 40
2.5
  9
$TRACEWID
 40
1.0
  9
$TEXTSTYLE
  7
STANDARD
  9
$CLAYER
  8
0
  9
$CELTYPE
  6
BYLAYER
  9
$CECOLOR
 62
   256
  9
$DIMSCALE
 40
1.0
  9
$DIMASZ
 40
2.5
  9
$DIMEXO
 40
0.625
  9
$DIMDLI
 40
3.75
  9
$DIMRND
 40
0.0
  9
$DIMDLE
 40
0.0
  9
$DIMEXE
 40
1.25
  9
$DIMTP
 40
0.0
  9
$DIMTM
 40
0.0
  9
$DIMTXT
 40
2.5
  9
$DIMCEN
 40
2.5
  9
$DIMTSZ
 40
0.0
  9
$DIMTOL
 70
     0
  9
$DIMLIM
 70
     0
  9
$DIMTIH
 70
     1
  9
$DIMTOH
 70
     1
  9
$DIMSE1
 70
     0
  9
$DIMSE2
 70
     0
  9
$DIMTAD
 70
     1
  9
$DIMZIN
 70
     8
  9
$DIMBLK
  1

  9
$DIMASO
 70
     1
  9
$DIMSHO
 70
     1
  9
$DIMPOST
  1

  9
$DIMAPOST
  1

  9
$DIMALT
 70
     0
  9
$DIMALTD
 70
     3
  9
$DIMALTF
 40
0.03937007874016
  9
$DIMLFAC
 40
1.0
  9
$DIMTOFL
 70
     1
  9
$DIMTVP
 40
0.0
  9
$DIMTIX
 70
     0
  9
$DIMSOXD
 70
     0
  9
$DIMSAH
 70
     0
  9
$DIMBLK1
  1

  9
$DIMBLK2
  1

  9
$DIMSTYLE
  2
ISO-25
  9
$DIMCLRD
 70
     0
  9
$DIMCLRE
 70
     0
  9
$DIMCLRT
 70
     0
  9
$DIMTFAC
 40
1.0
  9
$DIMGAP
 40
0.625
  9
$LUNITS
 70
     2
  9
$LUPREC
 70
     4
  9
$SKETCHINC
 40
1.0
  9
$FILLETRAD
 40
3.0
  9
$AUNITS
 70
     0
  9
$AUPREC
 70
     0
  9
$MENU
  1
.
  9
$ELEVATION
 40
0.0
  9
$PELEVATION
 40
0.0
  9
$THICKNESS
 40
0.0
  9
$LIMCHECK
 70
     0
  9
$BLIPMODE
 70
     0
  9
$CHAMFERA
 40
0.9
  9
$CHAMFERB
 40
0.9
  9
$SKPOLY
 70
     0
  9
$TDCREATE
 40
2453683.6354555902
  9
$TDUPDATE
 40
2453684.4694162961
  9
$TDINDWG
 40
0.8251917361
  9
$TDUSRTIMER
 40
0.8251916204000001
  9
$USRTIMER
 70
     1
  9
$ANGBASE
 50
0.0
  9
$ANGDIR
 70
     0
  9
$PDMODE
 70
     3
  9
$PDSIZE
 40
2.0
  9
$PLINEWID
 40
0.0
  9
$COORDS
 70
     0
  9
$SPLFRAME
 70
     0
  9
$SPLINETYPE
 70
     6
  9
$SPLINESEGS
 70
     8
  9
$ATTDIA
 70
     0
  9
$ATTREQ
 70
     1
  9
$HANDLING
 70
-16383
  9
$HANDSEED
  5
192E
  9
$SURFTAB1
 70
     6
  9
$SURFTAB2
 70
     6
  9
$SURFTYPE
 70
     6
  9
$SURFU
 70
     6
  9
$SURFV
 70
     6
  9
$UCSNAME
  2

  9
$UCSORG
 10
0.0
 20
0.0
 30
0.0
  9
$UCSXDIR
 10
1.0
 20
0.0
 30
0.0
  9
$UCSYDIR
 10
0.0
 20
1.0
 30
0.0
  9
$PUCSNAME
  2

  9
$PUCSORG
 10
0.0
 20
0.0
 30
0.0
  9
$PUCSXDIR
 10
1.0
 20
0.0
 30
0.0
  9
$PUCSYDIR
 10
0.0
 20
1.0
 30
0.0
  9
$USERI1
 70
     0
  9
$USERI2
 70
     0
  9
$USERI3
 70
     0
  9
$USERI4
 70
     0
  9
$USERI5
 70
     0
  9
$USERR1
 40
0.0
  9
$USERR2
 40
0.0
  9
$USERR3
 40
0.0
  9
$USERR4
 40
0.0
  9
$USERR5
 40
0.0
  9
$WORLDVIEW
 70
     1
  9
$SHADEDGE
 70
     3
  9
$SHADEDIF
 70
    70
  9
$TILEMODE
 70
     1
  9
$MAXACTVP
 70
    48
  9
$PLIMCHECK
 70
     0
  9
$PEXTMIN
 10
28.674485683441159
 20
19.97498331069945
 30
0.0
  9
$PEXTMAX
 10
258.0703711509704
 20
179.77484979629509
 30
0.0
  9
$PLIMMIN
 10
-5.027069091796875
 20
-5.0270833969116211
  9
$PLIMMAX
 10
291.98358154296869
 20
204.98858737945551
  9
$UNITMODE
 70
     0
  9
$VISRETAIN
 70
     1
  9
$PLINEGEN
 70
     0
  9
$PSLTSCALE
 70
     1
  0
ENDSEC
  0
SECTION
  2
TABLES
  0
TABLE
  2
VPORT
 70
    10
  0
VPORT
  2
*ACTIVE
 70
     0
 10
0.0
 20
0.0
 11
1.0
 21
1.0
 12
98.005202516695803
 22
842.49504273696971
 13
0.0
 23
0.0
 14
10.0
 24
10.0
 15
10.0
 25
10.0
 16
0.0
 26
0.0
 36
1.0
 17
0.0
 27
0.0
 37
0.0
 40
1168.4356779285731
 41
1.4839901477832509
 42
50.0
 43
0.0
 44
0.0
 50
0.0
 51
0.0
 71
     0
 72
   100
 73
     1
 74
     2
 75
     0
 76
     0
 77
     0
 78
     0
  0
ENDTAB
  0
TABLE
  2
LTYPE
 70
     2
  0
LTYPE
  2
CONTINUOUS
 70
     0
  3
Solid line
 72
    65
 73
     0
 40
0.0
  0
LTYPE
  2
CENTER
 70
     0
  3
Center (.5x) ___ _ ___ _ ___ _ ___ _ ___ _ ___
 72
    65
 73
     4
 40
28.574999999999989
 49
19.050000000000001
 49
-3.1749999999999989
 49
3.1749999999999989
 49
-3.1749999999999989
  0
ENDTAB
  0
TABLE
  2
LAYER
 70
     1
  0
LAYER
  2
0
 70
     0
 62
     7
  6
CONTINUOUS
  0
ENDTAB
  0
TABLE
  2
STYLE
 70
     2
  0
STYLE
  2
STANDARD
 70
     0
 40
0.0
 41
1.0
 50
0.0
 71
     0
 42
2.5
  3
txt
  4

  0
STYLE
  2
ISOCP
 70
     0
 40
0.0
 41
1.0
 50
0.0
 71
     0
 42
2.5
  3
isocp.shx
  4

  0
ENDTAB
  0
TABLE
  2
VIEW
 70
     0
  0
ENDTAB
  0
TABLE
  2
UCS
 70
     0
  0
ENDTAB
  0
TABLE
  2
APPID
 70
     1
  0
APPID
  2
ACAD
 70
     0
  0
ENDTAB
  0
TABLE
  2
DIMSTYLE
 70
     1
  0
DIMSTYLE
  2
ISO-25
 70
     0
  3

  4

  5

  6

  7

 40
1.0
 41
2.5
 42
0.625
 43
3.75
 44
1.25
 45
0.0
 46
0.0
 47
0.0
 48
0.0
140
2.5
141
2.5
142
0.0
143
0.03937007874016
144
1.0
145
0.0
146
1.0
147
0.625
 71
     0
 72
     0
 73
     1
 74
     1
 75
     0
 76
     0
 77
     1
 78
     8
170
     0
171
     3
172
     1
173
     0
174
     0
175
     0
176
     0
177
     0
178
     0
  0
ENDTAB
  0
ENDSEC
  0
SECTION
  2
BLOCKS
  0
BLOCK
  8
0
  2
$MODEL_SPACE
 70
     0
 10
0.0
 20
0.0
 30
0.0
  3
$MODEL_SPACE
  1

  0
ENDBLK
  5
21
  8
0
  0
BLOCK
 67
     1
  8
0
  2
$PAPER_SPACE
 70
     0
 10
0.0
 20
0.0
 30
0.0
  3
$PAPER_SPACE
  1

  0
ENDBLK
  5
53
 67
     1
  8
0
  0
ENDSEC
  0
SECTION
  2
ENTITIES
  0
LINE
  5
1CA
  8
0
 10
-222.4276216105028
 20
877.19973819250538
 30
0.0
 11
-119.4276216105028
 21
877.19973819250538
 31
0.0
  0
LINE
  5
1CB
  8
0
  6
CENTER
 10
-225.92762161050271
 20
784.69973819250538
 30
0.0
 11
-115.9276216105028
 21
784.69973819250538
 31
0.0
  0
LINE
  5
1CE
  8
0
 10
-159.5799096972257
 20
778.34316120895915
 30
0.0
 11
-140.21338483519
 21
823.68917064201821
 31
0.0
  0
LINE
  5
1CF
  8
0
 10
-122.9276216105027
 20
874.19973819250538
 30
0.0
 11
-119.4276216105028
 21
874.19973819250538
 31
0.0
  0
LINE
  5
1D0
  8
0
 10
-119.4276216105028
 20
877.19973819250538
 30
0.0
 11
-119.4276216105028
 21
874.19973819250538
 31
0.0
  0
LINE
  5
1D1
  8
0
 10
-138.9276216105028
 20
829.97337593147472
 30
0.0
 11
-138.9276216105028
 21
858.19973819250538
 31
0.0
  0
ARC
  5
1D2
  8
0
 10
-154.92762161050271
 20
829.97337593147472
 30
0.0
 40
16.0
 50
336.87347961125062
 51
0.0
  0
ARC
  5
1D3
  8
0
 10
-122.9276216105027
 20
858.19973819250538
 30
0.0
 40
16.0
 50
90.0
 51
180.0
  0
LINE
  5
1D4
  8
0
 10
-182.27533352377989
 20
778.34316120895915
 30
0.0
 11
-201.64185838581551
 21
823.68917064201821
 31
0.0
  0
LINE
  5
1D5
  8
0
 10
-202.92762161050271
 20
829.97337593147472
 30
0.0
 11
-202.92762161050271
 21
858.19973819250538
 31
0.0
  0
ARC
  5
1D6
  8
0
 10
-186.9276216105028
 20
829.97337593147472
 30
0.0
 40
16.0
 50
180.0
 51
203.1265203887493
  0
ARC
  5
1D7
  8
0
 10
-218.9276216105028
 20
858.19973819250538
 30
0.0
 40
16.0
 50
0.0
 51
90.0
  0
LINE
  5
1D8
  8
0
 10
-218.9276216105028
 20
874.19973819250538
 30
0.0
 11
-222.4276216105028
 21
874.19973819250538
 31
0.0
  0
LINE
  5
1D9
  8
0
 10
-222.4276216105028
 20
877.19973819250538
 30
0.0
 11
-222.4276216105026
 21
874.19973819250538
 31
0.0
  0
POLYLINE
  5
1DA
  8
0
 66
     1
 10
0.0
 20
0.0
 30
0.0
 70
     1
  0
VERTEX
  5
18FE
  8
0
 10
-174.6803983602353
 20
791.19973819250527
 30
0.0
  0
VERTEX
  5
18FF
  8
0
 10
-178.43317510996789
 20
784.69973819250538
 30
0.0
  0
VERTEX
  5
1900
  8
0
 10
-174.6803983602353
 20
778.19973819250527
 30
0.0
  0
VERTEX
  5
1901
  8
0
 10
-167.17484486077021
 20
778.19973819250527
 30
0.0
  0
VERTEX
  5
1902
  8
0
 10
-163.42206811103759
 20
784.69973819250538
 30
0.0
  0
VERTEX
  5
1903
  8
0
 10
-167.17484486077021
 20
791.19973819250527
 30
0.0
  0
SEQEND
  5
1904
  8
0
  0
LINE
  5
1DB
  8
0
 10
-176.75749473303759
 20
774.69973819250549
 30
0.0
 11
-165.097748487968
 21
774.69973819250527
 31
0.0
  0
ARC
  5
1DC
  8
0
 10
-165.097748487968
 20
780.69973819250538
 30
0.0
 40
6.0
 50
270.0
 51
336.87347961125062
  0
ARC
  5
1DD
  8
0
 10
-176.75749473303759
 20
780.69973819250549
 30
0.0
 40
6.0
 50
203.1265203887493
 51
270.0
  0
ARC
  5
1E1
  8
0
 10
-170.9276216105028
 20
784.69973819250538
 30
0.0
 40
13.0
 50
219.92524649525851
 51
320.07475350474141
  0
LINE
  5
1E3
  8
0
 10
-196.35228625583181
 20
792.17211583771018
 30
0.0
 11
-186.8649069303539
 21
789.08947942922987
 31
0.0
  0
LINE
  5
1E4
  8
0
 10
-195.88876076426939
 20
793.59870061215281
 30
0.0
 11
-187.64703395391669
 21
790.92080124049892
 31
0.0
  0
LINE
  5
1E6
  8
0
 10
-185.89092851388389
 20
762.82853688770217
 30
0.0
 11
-179.1266097788961
 21
772.13882289884361
 31
0.0
  0
LINE
  5
1E7
  8
0
 10
-187.1044540054464
 20
763.71021476614078
 30
0.0
 11
-180.34013527045849
 21
773.02050077728234
 31
0.0
  0
LINE
  5
1E9
  8
0
 10
-154.75078921555931
 20
763.71021476614078
 30
0.0
 11
-161.51510795054691
 21
773.02050077728234
 31
0.0
  0
LINE
  5
1EA
  8
0
 10
-155.9643147071217
 20
762.82853688770194
 30
0.0
 11
-162.72863344210941
 21
772.13882289884361
 31
0.0
  0
LINE
  5
1EC
  8
0
 10
-145.9664824567362
 20
793.59870061215315
 30
0.0
 11
-154.20820926708899
 21
790.92080124049858
 31
0.0
  0
LINE
  5
1ED
  8
0
 10
-145.50295696517369
 20
792.17211583771018
 30
0.0
 11
-154.9903362906517
 21
789.08947942922975
 31
0.0
  0
ARC
  5
1EE
  8
0
 10
-170.9276216105028
 20
784.69973819250538
 30
0.0
 40
15.0
 50
172.68676129753061
 51
7.3132387024692997
  0
LINE
  5
1EF
  8
0
 10
-179.92762161050271
 20
792.03034274919889
 30
0.0
 11
-179.92762161050271
 21
834.69973819250527
 31
0.0
  0
ARC
  5
1F0
  8
0
 10
-170.9276216105026
 20
821.0079837324331
 30
0.0
 40
14.793812042128449
 50
74.312922171133209
 51
105.68707782886671
  0
LINE
  5
1F1
  8
0
  6
CENTER
 10
-170.9276216105028
 20
719.19973819250538
 30
0.0
 11
-170.9276216105028
 21
882.19973819250538
 31
0.0
  0
LINE
  5
1F2
  8
0
 10
-180.42762161050291
 20
863.95708901467822
 30
0.0
 11
-180.42762161050271
 21
875.19973819250538
 31
0.0
  0
LINE
  5
1F3
  8
0
 10
-183.92762161050271
 20
801.39619640773537
 30
0.0
 11
-183.9276216105028
 21
834.69973819250527
 31
0.0
  0
ARC
  5
1F4
  8
0
 10
12.20115372421656
 20
829.28333078244691
 30
0.0
 40
196.11429034241019
 50
172.21932424469759
 51
177.8327423740576
  0
ARC
  5
1F5
  8
0
 10
-170.92762161050271
 20
834.69973819250527
 30
0.0
 40
8.9999999999999432
 50
139.1782339055421
 51
167.16041159309549
  0
ARC
  5
1F6
  8
0
 10
-170.9276216105026
 20
875.39805216821799
 30
0.0
 40
14.793812042128449
 50
254.3129221711331
 51
285.68707782886668
  0
ARC
  5
1F7
  8
0
 10
-120.0209374319663
 20
860.1074712184743
 30
0.0
 40
17.10256162028216
 50
88.011916827359201
 51
147.3912344442661
  0
ARC
  5
1F8
  8
0
 10
-221.83430578903921
 20
860.1074712184743
 30
0.0
 40
17.10256162028216
 50
32.608765555733818
 51
91.988083172640785
  0
LINE
  5
1F9
  8
0
 10
-196.9276216105028
 20
829.97337593147472
 30
0.0
 11
-196.9276216105028
 21
858.19973819250538
 31
0.0
  0
ARC
  5
1FA
  8
0
 10
-218.9276216105028
 20
858.19973819250538
 30
0.0
 40
22.0
 50
0.0
 51
31.36542454593528
  0
ARC
  5
1FB
  8
0
 10
-186.9276216105028
 20
829.97337593147472
 30
0.0
 40
10.0
 50
180.0
 51
203.1265203887493
  0
LINE
  5
1FC
  8
0
 10
-186.45665672671259
 20
803.40997115330549
 30
0.0
 11
-196.12401959507321
 21
826.04574762556445
 31
0.0
  0
ARC
  5
1FD
  8
0
 10
-122.9276216105027
 20
858.19973819250538
 30
0.0
 40
22.0
 50
148.6345754540647
 51
180.0
  0
LINE
  5
1FE
  8
0
 10
-155.39858649429291
 20
803.40997115330549
 30
0.0
 11
-145.7312236259323
 21
826.04574762556445
 31
0.0
  0
LINE
  5
1FF
  8
0
 10
-161.9276216105028
 20
792.03034274919889
 30
0.0
 11
-161.9276216105028
 21
834.69973819250527
 31
0.0
  0
LINE
  5
200
  8
0
 10
-157.9276216105028
 20
801.39619640773537
 30
0.0
 11
-157.92762161050271
 21
834.69973819250527
 31
0.0
  0
LINE
  5
201
  8
0
 10
-144.9276216105028
 20
829.97337593147472
 30
0.0
 11
-144.9276216105028
 21
858.19973819250538
 31
0.0
  0
ARC
  5
202
  8
0
 10
-154.92762161050271
 20
829.97337593147472
 30
0.0
 40
10.0
 50
336.87347961125062
 51
0.0
  0
ARC
  5
203
  8
0
 10
-170.9276216105028
 20
834.69973819250527
 30
0.0
 40
8.9999999999999432
 50
12.83958840690442
 51
40.8217660944578
  0
ARC
  5
204
  8
0
 10
-354.05639694522142
 20
829.2833307824468
 30
0.0
 40
196.1142903424095
 50
2.1672576259423608
 51
7.7806757553023633
  0
LINE
  5
205
  8
0
 10
-161.4276216105026
 20
863.95708901467822
 30
0.0
 11
-161.4276216105028
 21
875.19973819250538
 31
0.0
  0
LINE
  5
206
  8
0
 10
-126.2261640518407
 20
683.9963566229394
 30
0.0
 11
-123.05378935482329
 21
683.9963566229394
 31
0.0
  0
ARC
  5
207
  8
0
 10
343.79773731265408
 20
640.99635662293963
 30
0.0
 40
464.47769441179793
 50
175.2252271974566
 51
184.77477280254331
  0
ARC
  5
208
  8
0
 10
-684.90531602230135
 20
640.99635662293952
 30
0.0
 40
464.4776944117985
 50
355.2252271974566
 51
4.774772802543354
  0
ARC
  5
209
  8
0
 10
-123.05378935482329
 20
679.9963566229394
 30
0.0
 40
4.0
 50
355.16274289233121
 51
90.0
  0
LINE
  5
20A
  8
0
  6
CENTER
 10
-170.55378935482329
 20
676.99635662293963
 30
0.0
 11
-170.55378935482321
 21
607.49635662293963
 31
0.0
  0
LINE
  5
20B
  8
0
  6
CENTER
 10
-235.6261082377687
 20
640.99635662293963
 30
0.0
 11
-105.4814704718781
 21
640.99635662293986
 31
0.0
  0
LINE
  5
20E
  8
0
 10
-127.8701539248941
 20
683.86029586126085
 30
0.0
 11
-138.64759181981151
 21
682.0640562121082
 31
0.0
  0
LINE
  5
20F
  8
0
 10
-154.87601344500371
 20
667.47204902430485
 30
0.0
 11
-157.18469894683329
 21
664.9469242566787
 31
0.0
  0
ARC
  5
212
  8
0
 10
-170.55378935482329
 20
658.49635662293963
 30
0.0
 40
8.5
 50
207.75785661715969
 51
332.2421433828402
  0
LINE
  5
213
  8
0
 10
-158.65364864974299
 20
662.85659094971186
 30
0.0
 11
-163.03193720533079
 21
654.53760173772957
 31
0.0
  0
ARC
  5
214
  8
0
 10
-149.80441082681071
 20
658.19923226122933
 30
0.0
 40
10.0
 50
137.56377021146579
 51
152.2421433828417
  0
ARC
  5
215
  8
0
 10
-137.00360194675801
 20
672.20011697378675
 30
0.0
 40
10.0
 50
99.462322208024275
 51
137.56377021146349
  0
ARC
  5
216
  8
0
 10
-126.2261640518407
 20
673.9963566229394
 30
0.0
 40
10.0
 50
90.0
 51
99.462322208024275
  0
LINE
  5
217
  8
0
 10
-184.017478828636
 20
666.49635662293986
 30
0.0
 11
-157.0900998810105
 21
666.49635662293974
 31
0.0
  0
ARC
  5
218
  8
0
 10
-157.0900998810105
 20
669.49635662293963
 30
0.0
 40
3.0
 50
270.0
 51
317.56377021146352
  0
LINE
  5
219
  8
0
 10
-144.38389006678071
 20
678.94780896923601
 30
0.0
 11
-154.87601344500379
 21
667.47204902430485
 31
0.0
  0
ARC
  5
21A
  8
0
 10
-204.10397676288849
 20
672.20011697378675
 30
0.0
 40
10.0
 50
42.436229788536473
 51
80.537677791975725
  0
LINE
  5
21B
  8
0
 10
-182.4539300599036
 20
662.85659094971186
 30
0.0
 11
-178.0756415043158
 21
654.53760173772957
 31
0.0
  0
LINE
  5
21C
  8
0
 10
-186.2315652646428
 20
667.47204902430485
 30
0.0
 11
-183.92287976281321
 21
664.9469242566787
 31
0.0
  0
ARC
  5
21D
  8
0
 10
-184.017478828636
 20
669.49635662293963
 30
0.0
 40
3.0
 50
222.43622978853639
 51
270.0
  0
ARC
  5
21E
  8
0
 10
-191.30316788283591
 20
658.19923226122933
 30
0.0
 40
10.0
 50
27.7578566171583
 51
42.43622978853417
  0
LINE
  5
220
  8
0
 10
-196.72368864286591
 20
678.94780896923601
 30
0.0
 11
-186.2315652646428
 21
667.47204902430485
 31
0.0
  0
ARC
  5
222
  8
0
 10
-218.05378935482329
 20
679.9963566229394
 30
0.0
 40
4.0
 50
90.0
 51
184.83725710766871
  0
LINE
  5
223
  8
0
 10
-213.23742478475239
 20
683.86029586126085
 30
0.0
 11
-202.45998688983511
 21
682.0640562121082
 31
0.0
  0
LINE
  5
224
  8
0
 10
-214.88141465780581
 20
683.9963566229394
 30
0.0
 11
-218.05378935482329
 21
683.9963566229394
 31
0.0
  0
ARC
  5
225
  8
0
 10
-214.88141465780581
 20
673.9963566229394
 30
0.0
 40
10.0
 50
80.537677791975725
 51
90.0
  0
ARC
  5
226
  8
0
 10
-204.10397676288849
 20
609.79259627209285
 30
0.0
 40
10.0
 50
279.4623222080242
 51
317.56377021146352
  0
LINE
  5
227
  8
0
 10
-213.23742478475239
 20
598.13241738461875
 30
0.0
 11
-202.45998688983511
 21
599.92865703377117
 31
0.0
  0
ARC
  5
228
  8
0
 10
-218.05378935482329
 20
601.99635662293997
 30
0.0
 40
4.0
 50
175.16274289233121
 51
270.0
  0
LINE
  5
229
  8
0
 10
-214.88141465780581
 20
597.99635662293997
 30
0.0
 11
-218.05378935482329
 21
597.99635662293997
 31
0.0
  0
ARC
  5
22A
  8
0
 10
-214.88141465780581
 20
607.99635662294008
 30
0.0
 40
10.0
 50
270.0
 51
279.4623222080242
  0
ARC
  5
22B
  8
0
 10
-137.00360194675801
 20
609.79259627209285
 30
0.0
 40
10.0
 50
222.43622978853639
 51
260.53767779197568
  0
ARC
  5
22C
  8
0
 10
-170.55378935482329
 20
623.49635662293986
 30
0.0
 40
8.5
 50
27.757856617159739
 51
152.2421433828402
  0
LINE
  5
22D
  8
0
 10
-184.017478828636
 20
615.49635662293974
 30
0.0
 11
-157.0900998810105
 21
615.49635662293986
 31
0.0
  0
LINE
  5
22E
  8
0
 10
-182.4539300599036
 20
619.13612229616774
 30
0.0
 11
-178.0756415043158
 21
627.45511150815014
 31
0.0
  0
LINE
  5
22F
  8
0
 10
-196.72368864286591
 20
603.04490427664325
 30
0.0
 11
-186.2315652646428
 21
614.52066422157463
 31
0.0
  0
ARC
  5
230
  8
0
 10
-191.30316788283591
 20
623.79348098465005
 30
0.0
 40
10.0
 50
317.56377021146579
 51
332.24214338284168
  0
ARC
  5
231
  8
0
 10
-184.017478828636
 20
612.49635662293986
 30
0.0
 40
3.0
 50
90.0
 51
137.56377021146349
  0
LINE
  5
232
  8
0
 10
-186.2315652646428
 20
614.52066422157463
 30
0.0
 11
-183.92287976281321
 21
617.04578898920079
 31
0.0
  0
LINE
  5
233
  8
0
 10
-158.65364864974299
 20
619.13612229616774
 30
0.0
 11
-163.03193720533079
 21
627.45511150815014
 31
0.0
  0
LINE
  5
234
  8
0
 10
-154.87601344500371
 20
614.52066422157463
 30
0.0
 11
-157.18469894683329
 21
617.04578898920079
 31
0.0
  0
ARC
  5
235
  8
0
 10
-157.0900998810105
 20
612.49635662293986
 30
0.0
 40
3.0
 50
42.436229788536473
 51
90.0
  0
ARC
  5
236
  8
0
 10
-149.80441082681071
 20
623.79348098465005
 30
0.0
 40
10.0
 50
207.75785661715821
 51
222.43622978853409
  0
LINE
  5
237
  8
0
 10
-144.38389006678071
 20
603.04490427664325
 30
0.0
 11
-154.87601344500379
 21
614.52066422157463
 31
0.0
  0
ARC
  5
238
  8
0
 10
-123.05378935482329
 20
601.99635662293997
 30
0.0
 40
4.0
 50
270.0
 51
4.8372571076687816
  0
LINE
  5
239
  8
0
 10
-127.8701539248941
 20
598.13241738461875
 30
0.0
 11
-138.64759181981151
 21
599.92865703377117
 31
0.0
  0
LINE
  5
23A
  8
0
 10
-126.2261640518407
 20
597.99635662293997
 30
0.0
 11
-123.05378935482329
 21
597.99635662293997
 31
0.0
  0
ARC
  5
23B
  8
0
 10
-126.2261640518407
 20
607.99635662294008
 30
0.0
 40
10.0
 50
260.53767779197568
 51
270.0
  0
ARC
  5
23C
  8
0
 10
-170.55378935482329
 20
666.99635662293974
 30
0.0
 40
8.5
 50
207.75785661715969
 51
332.2421433828402
  0
ARC
  5
23D
  8
0
 10
-170.55378935482329
 20
614.99635662293986
 30
0.0
 40
8.5
 50
27.757856617159739
 51
152.2421433828402
  0
LINE
  5
23E
  8
0
 10
-131.30378935482329
 20
679.99635662293986
 30
0.0
 11
-131.30378935482329
 21
662.99635662293974
 31
0.0
  0
LINE
  5
23F
  8
0
 10
-141.30378935482329
 20
671.49635662293986
 30
0.0
 11
-121.30378935482329
 21
671.49635662293986
 31
0.0
  0
ARC
  5
240
  8
0
 10
-129.80378935482329
 20
671.49635662293963
 30
0.0
 40
4.5
 50
270.0
 51
90.0
  0
ARC
  5
241
  8
0
 10
-132.80378935482329
 20
671.49635662293963
 30
0.0
 40
4.5
 50
90.0
 51
270.0
  0
LINE
  5
242
  8
0
 10
-132.80378935482329
 20
675.99635662293963
 30
0.0
 11
-129.80378935482329
 21
675.99635662293963
 31
0.0
  0
LINE
  5
243
  8
0
 10
-132.80378935482329
 20
666.99635662293974
 30
0.0
 11
-129.80378935482329
 21
666.99635662293974
 31
0.0
  0
ARC
  5
244
  8
0
 10
-211.30378935482329
 20
671.49635662293963
 30
0.0
 40
4.5
 50
90.0
 51
270.0
  0
LINE
  5
245
  8
0
 10
-209.80378935482329
 20
679.99635662293986
 30
0.0
 11
-209.80378935482329
 21
662.99635662293974
 31
0.0
  0
ARC
  5
246
  8
0
 10
-208.30378935482329
 20
671.49635662293963
 30
0.0
 40
4.5
 50
270.0
 51
90.0
  0
LINE
  5
247
  8
0
 10
-208.30378935482329
 20
666.99635662293974
 30
0.0
 11
-211.30378935482329
 21
666.99635662293974
 31
0.0
  0
LINE
  5
248
  8
0
 10
-208.30378935482329
 20
675.99635662293963
 30
0.0
 11
-211.30378935482329
 21
675.99635662293963
 31
0.0
  0
LINE
  5
249
  8
0
 10
-199.80378935482329
 20
671.49635662293986
 30
0.0
 11
-219.80378935482329
 21
671.49635662293986
 31
0.0
  0
LINE
  5
24A
  8
0
 10
-141.30378935482329
 20
610.49635662293963
 30
0.0
 11
-121.30378935482329
 21
610.49635662293963
 31
0.0
  0
ARC
  5
24B
  8
0
 10
-129.80378935482329
 20
610.49635662293974
 30
0.0
 40
4.5
 50
270.0
 51
90.0
  0
LINE
  5
24C
  8
0
 10
-131.30378935482329
 20
601.99635662293963
 30
0.0
 11
-131.30378935482329
 21
618.99635662293974
 31
0.0
  0
ARC
  5
24D
  8
0
 10
-132.80378935482329
 20
610.49635662293974
 30
0.0
 40
4.5
 50
90.0
 51
270.0
  0
LINE
  5
24E
  8
0
 10
-132.80378935482329
 20
614.99635662293974
 30
0.0
 11
-129.80378935482329
 21
614.99635662293974
 31
0.0
  0
LINE
  5
24F
  8
0
 10
-132.80378935482329
 20
605.99635662293974
 30
0.0
 11
-129.80378935482329
 21
605.99635662293974
 31
0.0
  0
LINE
  5
250
  8
0
 10
-199.80378935482329
 20
610.49635662293963
 30
0.0
 11
-219.80378935482329
 21
610.49635662293963
 31
0.0
  0
ARC
  5
251
  8
0
 10
-208.30378935482329
 20
610.49635662293974
 30
0.0
 40
4.5
 50
270.0
 51
90.0
  0
LINE
  5
252
  8
0
 10
-209.80378935482329
 20
601.99635662293963
 30
0.0
 11
-209.80378935482329
 21
618.99635662293974
 31
0.0
  0
ARC
  5
253
  8
0
 10
-211.30378935482329
 20
610.49635662293974
 30
0.0
 40
4.5
 50
90.0
 51
270.0
  0
LINE
  5
254
  8
0
 10
-208.30378935482329
 20
614.99635662293974
 30
0.0
 11
-211.30378935482329
 21
614.99635662293974
 31
0.0
  0
LINE
  5
255
  8
0
 10
-208.30378935482329
 20
605.99635662293974
 30
0.0
 11
-211.30378935482329
 21
605.99635662293974
 31
0.0
  0
LINE
  5
256
  8
0
 10
-191.05378935482329
 20
630.49635662293974
 30
0.0
 11
-191.05378935482329
 21
650.99635662293974
 31
0.0
  0
LINE
  5
257
  8
0
 10
-197.55378935482329
 20
650.99635662293974
 30
0.0
 11
-197.55378935482329
 21
630.49635662293974
 31
0.0
  0
LINE
  5
258
  8
0
 10
-191.55378935482329
 20
651.49635662293974
 30
0.0
 11
-197.05378935482329
 21
651.49635662293974
 31
0.0
  0
LINE
  5
259
  8
0
 10
-211.05378935482329
 20
651.49635662293974
 30
0.0
 11
-220.538117077149
 21
651.49635662293963
 31
0.0
  0
LINE
  5
25A
  8
0
 10
-210.55378935482329
 20
650.99635662293974
 30
0.0
 11
-210.55378935482329
 21
630.99635662293986
 31
0.0
  0
LINE
  5
25B
  8
0
 10
-197.55378935482329
 20
630.49635662293974
 30
0.0
 11
-191.05378935482329
 21
630.49635662293974
 31
0.0
  0
LINE
  5
25C
  8
0
 10
-211.05378935482329
 20
630.49635662293986
 30
0.0
 11
-220.538117077149
 21
630.49635662293986
 31
0.0
  0
ARC
  5
25D
  8
0
 10
-170.55378935482329
 20
658.49635662293963
 30
0.0
 40
13.5
 50
207.75785661715969
 51
332.2421433828402
  0
ARC
  5
25E
  8
0
 10
-170.55378935482329
 20
623.49635662293986
 30
0.0
 40
13.5
 50
27.757856617159739
 51
152.2421433828402
  0
CIRCLE
  5
25F
  8
0
 10
-170.9276216105028
 20
784.69973819250538
 30
0.0
 40
6.5
  0
LINE
  5
260
  8
0
 10
-163.42206811103759
 20
615.49635662293986
 30
0.0
 11
-163.42206811103759
 21
611.49635662293986
 31
0.0
  0
LINE
  5
261
  8
0
 10
-175.8091222237432
 20
610.49635662293974
 30
0.0
 11
-165.2984564859033
 21
610.49635662293986
 31
0.0
  0
LINE
  5
262
  8
0
 10
-177.68551059860889
 20
615.49635662293986
 30
0.0
 11
-177.68551059860889
 21
611.49635662293974
 31
0.0
  0
LINE
  5
263
  8
0
 10
-167.1748448607689
 20
615.49635662293986
 30
0.0
 11
-167.1748448607689
 21
611.49635662293986
 31
0.0
  0
LINE
  5
264
  8
0
 10
-173.93273384887749
 20
615.49635662293986
 30
0.0
 11
-173.93273384887749
 21
611.49635662293974
 31
0.0
  0
ARC
  5
265
  8
0
 10
-175.8091222237432
 20
612.75677328960535
 30
0.0
 40
2.2604166666656629
 50
270.0
 51
326.10976183100541
  0
ARC
  5
266
  8
0
 10
-170.55378935482321
 20
616.70498956988945
 30
0.0
 40
6.2086329469497787
 50
237.0277177378953
 51
302.97228226210461
  0
ARC
  5
267
  8
0
 10
-175.8091222237432
 20
612.75677328960535
 30
0.0
 40
2.2604166666656629
 50
213.89023816899669
 51
270.0
  0
ARC
  5
268
  8
0
 10
-165.2984564859031
 20
612.75677328960535
 30
0.0
 40
2.2604166666656629
 50
270.0
 51
326.10976183100308
  0
ARC
  5
269
  8
0
 10
-165.2984564859031
 20
612.75677328960535
 30
0.0
 40
2.2604166666656629
 50
213.8902381689945
 51
270.0
  0
ARC
  5
26A
  8
0
 10
-170.55378935482321
 20
665.28772367598981
 30
0.0
 40
6.2086329469497787
 50
57.027717737895308
 51
122.9722822621046
  0
LINE
  5
26B
  8
0
 10
-175.8091222237432
 20
671.49635662293963
 30
0.0
 11
-165.2984564859033
 21
671.49635662293963
 31
0.0
  0
LINE
  5
26C
  8
0
 10
-173.93273384887749
 20
666.49635662293963
 30
0.0
 11
-173.93273384887749
 21
670.49635662293963
 31
0.0
  0
LINE
  5
26D
  8
0
 10
-177.68551059860889
 20
666.49635662293963
 30
0.0
 11
-177.68551059860889
 21
670.49635662293963
 31
0.0
  0
ARC
  5
26E
  8
0
 10
-175.8091222237432
 20
669.23593995627391
 30
0.0
 40
2.2604166666656629
 50
90.0
 51
146.10976183100311
  0
ARC
  5
26F
  8
0
 10
-175.8091222237432
 20
669.23593995627391
 30
0.0
 40
2.2604166666656629
 50
33.89023816899455
 51
90.0
  0
LINE
  5
270
  8
0
 10
-167.1748448607689
 20
666.49635662293963
 30
0.0
 11
-167.1748448607689
 21
670.49635662293963
 31
0.0
  0
LINE
  5
271
  8
0
 10
-163.42206811103759
 20
666.49635662293963
 30
0.0
 11
-163.42206811103759
 21
670.49635662293963
 31
0.0
  0
ARC
  5
272
  8
0
 10
-165.2984564859031
 20
669.23593995627391
 30
0.0
 40
2.2604166666656629
 50
33.89023816899681
 51
90.0
  0
ARC
  5
273
  8
0
 10
-165.2984564859031
 20
669.23593995627391
 30
0.0
 40
2.2604166666656629
 50
90.0
 51
146.10976183100539
  0
LINE
  5
274
  8
0
 10
-166.55378935482321
 20
673.39635662293949
 30
0.0
 11
-166.55378935482329
 21
671.49635662293963
 31
0.0
  0
LINE
  5
275
  8
0
 10
-173.95378935482341
 20
673.99635662293963
 30
0.0
 11
-167.1537893548232
 21
673.99635662293963
 31
0.0
  0
LINE
  5
27A
  8
0
 10
-174.55378935482341
 20
673.39635662293949
 30
0.0
 11
-174.55378935482329
 21
671.49635662293963
 31
0.0
  0
LINE
  5
27C
  8
0
 10
-200.05378935482329
 20
649.99635662293974
 30
0.0
 11
-200.05378935482329
 21
631.99635662293974
 31
0.0
  0
LINE
  5
27D
  8
0
 10
-188.55378935482329
 20
631.99635662293986
 30
0.0
 11
-188.55378935482329
 21
649.99635662293986
 31
0.0
  0
ARC
  5
27F
  8
0
 10
-197.05378935482329
 20
650.99635662293974
 30
0.0
 40
0.5
 50
90.0
 51
180.0
  0
ARC
  5
280
  8
0
 10
-191.55378935482329
 20
650.99635662293974
 30
0.0
 40
0.5
 50
0.0
 51
90.0
  0
ARC
  5
281
  8
0
 10
-197.05378935482329
 20
650.99635662293974
 30
0.0
 40
3.0
 50
90.0
 51
180.0
  0
ARC
  5
282
  8
0
 10
-191.55378935482329
 20
650.99635662293974
 30
0.0
 40
3.0
 50
0.0
 51
90.0
  0
LINE
  5
283
  8
0
 10
-192.55378935482329
 20
653.99635662293974
 30
0.0
 11
-196.05378935482329
 21
653.99635662293974
 31
0.0
  0
ARC
  5
284
  8
0
 10
-197.05378935482329
 20
630.99635662293963
 30
0.0
 40
3.0
 50
180.0
 51
270.0
  0
ARC
  5
285
  8
0
 10
-191.55378935482329
 20
630.99635662293963
 30
0.0
 40
3.0
 50
270.0
 51
0.0
  0
LINE
  5
286
  8
0
 10
-192.55378935482329
 20
627.99635662293963
 30
0.0
 11
-196.05378935482329
 21
627.99635662293963
 31
0.0
  0
ARC
  5
287
  8
0
 10
-211.05378935482329
 20
650.99635662293974
 30
0.0
 40
0.5
 50
0.0
 51
90.0
  0
ARC
  5
288
  8
0
 10
-211.05378935482329
 20
630.99635662293986
 30
0.0
 40
0.5
 50
270.0
 51
0.0
  0
ARC
  5
289
  8
0
 10
-211.05378935482329
 20
650.99635662293974
 30
0.0
 40
3.0
 50
0.0
 51
90.0
  0
LINE
  5
28A
  8
0
 10
-212.05378935482329
 20
653.99635662293974
 30
0.0
 11
-220.538117077149
 21
653.99635662293963
 31
0.0
  0
LINE
  5
28B
  8
0
 10
-208.05378935482329
 20
649.99635662293974
 30
0.0
 11
-208.05378935482329
 21
631.99635662293986
 31
0.0
  0
LINE
  5
28C
  8
0
 10
-212.05378935482329
 20
627.99635662293963
 30
0.0
 11
-220.538117077149
 21
627.99635662293963
 31
0.0
  0
ARC
  5
28D
  8
0
 10
-211.05378935482329
 20
630.99635662293963
 30
0.0
 40
3.0
 50
270.0
 51
0.0
  0
LINE
  5
28E
  8
0
 10
-133.05378935482321
 20
649.99635662293974
 30
0.0
 11
-133.05378935482321
 21
631.99635662293986
 31
0.0
  0
LINE
  5
28F
  8
0
 10
-130.55378935482321
 20
650.99635662293974
 30
0.0
 11
-130.55378935482321
 21
630.99635662293986
 31
0.0
  0
LINE
  5
290
  8
0
 10
-129.05378935482321
 20
627.99635662293963
 30
0.0
 11
-120.56946163249761
 21
627.99635662293963
 31
0.0
  0
LINE
  5
291
  8
0
 10
-130.05378935482321
 20
630.49635662293986
 30
0.0
 11
-120.56946163249761
 21
630.49635662293986
 31
0.0
  0
ARC
  5
292
  8
0
 10
-130.05378935482321
 20
630.99635662293963
 30
0.0
 40
3.0
 50
180.0
 51
270.0
  0
ARC
  5
293
  8
0
 10
-130.05378935482321
 20
630.99635662293986
 30
0.0
 40
0.5
 50
180.0
 51
270.0
  0
LINE
  5
294
  8
0
 10
-129.05378935482321
 20
653.99635662293974
 30
0.0
 11
-120.56946163249761
 21
653.99635662293963
 31
0.0
  0
LINE
  5
295
  8
0
 10
-130.05378935482321
 20
651.49635662293974
 30
0.0
 11
-120.56946163249761
 21
651.49635662293963
 31
0.0
  0
ARC
  5
296
  8
0
 10
-130.05378935482321
 20
650.99635662293974
 30
0.0
 40
3.0
 50
90.0
 51
180.0
  0
ARC
  5
297
  8
0
 10
-130.05378935482321
 20
650.99635662293974
 30
0.0
 40
0.5
 50
90.0
 51
180.0
  0
LINE
  5
298
  8
0
 10
-150.05378935482321
 20
630.49635662293974
 30
0.0
 11
-150.05378935482321
 21
650.99635662293974
 31
0.0
  0
LINE
  5
299
  8
0
 10
-143.55378935482321
 20
650.99635662293974
 30
0.0
 11
-143.55378935482321
 21
630.49635662293974
 31
0.0
  0
LINE
  5
29A
  8
0
 10
-141.05378935482321
 20
649.99635662293974
 30
0.0
 11
-141.05378935482321
 21
631.99635662293974
 31
0.0
  0
LINE
  5
29B
  8
0
 10
-152.55378935482321
 20
631.99635662293986
 30
0.0
 11
-152.55378935482321
 21
649.99635662293986
 31
0.0
  0
LINE
  5
29C
  8
0
 10
-148.55378935482321
 20
653.99635662293974
 30
0.0
 11
-145.05378935482321
 21
653.99635662293974
 31
0.0
  0
LINE
  5
29D
  8
0
 10
-149.55378935482321
 20
651.49635662293974
 30
0.0
 11
-144.05378935482321
 21
651.49635662293974
 31
0.0
  0
ARC
  5
29E
  8
0
 10
-144.05378935482321
 20
650.99635662293974
 30
0.0
 40
3.0
 50
0.0
 51
90.0
  0
ARC
  5
29F
  8
0
 10
-144.05378935482321
 20
650.99635662293974
 30
0.0
 40
0.5
 50
0.0
 51
90.0
  0
ARC
  5
2A0
  8
0
 10
-149.55378935482321
 20
650.99635662293974
 30
0.0
 40
3.0
 50
90.0
 51
180.0
  0
ARC
  5
2A1
  8
0
 10
-149.55378935482321
 20
650.99635662293974
 30
0.0
 40
0.5
 50
90.0
 51
180.0
  0
ARC
  5
2A2
  8
0
 10
-149.55378935482321
 20
630.99635662293963
 30
0.0
 40
3.0
 50
180.0
 51
270.0
  0
ARC
  5
2A3
  8
0
 10
-144.05378935482321
 20
630.99635662293963
 30
0.0
 40
3.0
 50
270.0
 51
0.0
  0
LINE
  5
2A4
  8
0
 10
-148.55378935482321
 20
627.99635662293963
 30
0.0
 11
-145.05378935482321
 21
627.99635662293963
 31
0.0
  0
LINE
  5
2A5
  8
0
 10
-143.55378935482321
 20
630.49635662293974
 30
0.0
 11
-150.05378935482321
 21
630.49635662293974
 31
0.0
  0
LINE
  5
2EF
  8
0
 10
-173.95378935482341
 20
673.99635662293963
 30
0.0
 11
-174.55378935482341
 21
673.39635662293949
 31
0.0
  0
LINE
  5
2F0
  8
0
 10
-167.1537893548232
 20
673.99635662293963
 30
0.0
 11
-166.55378935482321
 21
673.39635662293949
 31
0.0
  0
LINE
  5
2F1
  8
0
 10
-174.55378935482341
 20
673.39635662293949
 30
0.0
 11
-166.55378935482321
 21
673.39635662293949
 31
0.0
  0
LINE
  5
2F2
  8
0
 10
-167.1537893548232
 20
673.99635662293963
 30
0.0
 11
-167.1537893548232
 21
671.49635662293963
 31
0.0
  0
LINE
  5
2F3
  8
0
 10
-173.95378935482341
 20
673.99635662293963
 30
0.0
 11
-173.95378935482341
 21
671.49635662293963
 31
0.0
  0
LINE
  5
346
  8
0
 10
-294.40985184412568
 20
877.19973819250549
 30
0.0
 11
-372.40985184412563
 21
877.19973819250515
 31
0.0
  0
LINE
  5
348
  8
0
 10
-323.31817875732162
 20
874.19973819250538
 30
0.0
 11
-343.50152493092969
 21
874.19973819250538
 31
0.0
  0
LINE
  5
349
  8
0
 10
-290.40985184412568
 20
873.19973819250538
 30
0.0
 11
-290.40985184412568
 21
836.12556222817807
 31
0.0
  0
LINE
  5
39C
  8
0
 10
-321.65986636214387
 20
871.69973819250538
 30
0.0
 11
-345.15983732610738
 21
871.69973819250538
 31
0.0
  0
LINE
  5
39D
  8
0
  6
CENTER
 10
-333.40985184412568
 20
880.19973819250527
 30
0.0
 11
-333.40985184412568
 21
718.77205707545068
 31
0.0
  0
LINE
  5
3A2
  8
0
 10
-318.66562551960533
 20
876.69588907551895
 30
0.0
 11
-321.65407816864592
 21
874.70358730949192
 31
0.0
  0
ARC
  5
3A5
  8
0
 10
-323.31817875732162
 20
877.19973819250549
 30
0.0
 40
3.0
 50
270.0
 51
303.69006752597971
  0
ARC
  5
3A6
  8
0
 10
-317.00152493092958
 20
874.19973819250538
 30
0.0
 40
3.0
 50
90.0
 51
123.6900675259793
  0
ARC
  5
3A7
  8
0
 10
-323.31817875732162
 20
877.19973819250549
 30
0.0
 40
6.0
 50
303.55730976192052
 51
303.69006752597971
  0
LINE
  5
3A8
  8
0
 10
-317.75729860640922
 20
873.69588907551895
 30
0.0
 11
-319.98997757997017
 21
872.20743642647824
 31
0.0
  0
LINE
  5
3A9
  8
0
 10
-294.40985184412568
 20
874.19973819250515
 30
0.0
 11
-316.09319801773353
 21
874.19973819250538
 31
0.0
  0
ARC
  5
3AA
  8
0
 10
-316.09319801773353
 20
871.19973819250527
 30
0.0
 40
3.0
 50
90.0
 51
123.6900675259793
  0
ARC
  5
3AB
  8
0
 10
-321.65986636214387
 20
874.69973819250549
 30
0.0
 40
3.0
 50
270.0
 51
303.55730976192052
  0
ARC
  5
3B4
  8
0
 10
-349.81817875732168
 20
874.19973819250538
 30
0.0
 40
3.0
 50
56.309932474020599
 51
90.0
  0
ARC
  5
3B5
  8
0
 10
-345.15983732610738
 20
874.69973819250549
 30
0.0
 40
3.0
 50
236.44269023807939
 51
270.0
  0
LINE
  5
3B6
  8
0
 10
-348.15407816864598
 20
876.69588907551895
 30
0.0
 11
-345.16562551960538
 21
874.70358730949192
 31
0.0
  0
ARC
  5
3B7
  8
0
 10
-343.50152493092969
 20
877.19973819250549
 30
0.0
 40
3.0
 50
236.3099324740202
 51
270.0
  0
ARC
  5
3B8
  8
0
 10
-343.50152493092969
 20
877.19973819250549
 30
0.0
 40
6.0
 50
236.3099324740202
 51
236.44269023807939
  0
LINE
  5
3B9
  8
0
 10
-349.06240508184209
 20
873.69588907551895
 30
0.0
 11
-346.82972610828102
 21
872.20743642647824
 31
0.0
  0
ARC
  5
3BA
  8
0
 10
-350.72650567051772
 20
871.19973819250527
 30
0.0
 40
3.0
 50
56.309932474020719
 51
90.0
  0
LINE
  5
3BB
  8
0
 10
-350.72650567051772
 20
874.19973819250538
 30
0.0
 11
-372.40985184412563
 21
874.19973819250538
 31
0.0
  0
LINE
  5
3BD
  8
0
 10
-311.4098518441258
 20
846.72055096617487
 30
0.0
 11
-311.40985184412568
 21
774.69973819250527
 31
0.0
  0
LINE
  5
415
  8
0
 10
-313.56939359950809
 20
852.9275804098304
 30
0.0
 11
-328.43068517745888
 21
871.69973819250538
 31
0.0
  0
ARC
  5
416
  8
0
 10
-321.40985184412568
 20
846.72055096617487
 30
0.0
 40
10.0
 50
0.0
 51
38.367485384861041
  0
LINE
  5
417
  8
0
 10
-308.40985184412568
 20
774.69973819250549
 30
0.0
 11
-311.40985184412568
 21
774.69973819250549
 31
0.0
  0
LINE
  5
41A
  8
0
 10
-291.12508493527309
 20
832.41165546463708
 30
0.0
 11
-308.40985184412568
 21
774.69973819250549
 31
0.0
  0
ARC
  5
41C
  8
0
 10
-300.40985184412568
 20
836.12556222817807
 30
0.0
 40
10.0
 50
338.19859051364813
 51
0.0
  0
LINE
  5
41D
  8
0
 10
-293.40985184412568
 20
873.19973819250538
 30
0.0
 11
-293.40985184412568
 21
836.12556222817807
 31
0.0
  0
LINE
  5
41E
  8
0
 10
-293.91051500792889
 20
833.52582749369935
 30
0.0
 11
-311.40985184412568
 21
775.27748540320727
 31
0.0
  0
ARC
  5
41F
  8
0
 10
-300.40985184412568
 20
836.12556222817807
 30
0.0
 40
7.0
 50
338.19859051364813
 51
0.0
  0
ARC
  5
421
  8
0
 10
-294.40985184412568
 20
873.19973819250538
 30
0.0
 40
4.0
 50
359.99999999999977
 51
90.0
  0
ARC
  5
422
  8
0
 10
-294.40985184412568
 20
873.19973819250538
 30
0.0
 40
1.0
 50
359.99999999999977
 51
90.0
  0
LINE
  5
423
  8
0
 10
-373.40985184412563
 20
873.19973819250538
 30
0.0
 11
-373.40985184412563
 21
836.12556222817807
 31
0.0
  0
LINE
  5
424
  8
0
 10
-376.40985184412563
 20
873.19973819250538
 30
0.0
 11
-376.40985184412563
 21
836.12556222817807
 31
0.0
  0
LINE
  5
425
  8
0
 10
-372.90918868032242
 20
833.52582749369935
 30
0.0
 11
-355.40985184412563
 21
775.27748540320727
 31
0.0
  0
LINE
  5
426
  8
0
 10
-375.69461875297822
 20
832.41165546463708
 30
0.0
 11
-358.40985184412563
 21
774.69973819250549
 31
0.0
  0
LINE
  5
427
  8
0
 10
-355.40985184412551
 20
846.72055096617487
 30
0.0
 11
-355.40985184412563
 21
774.69973819250527
 31
0.0
  0
LINE
  5
428
  8
0
 10
-358.40985184412563
 20
774.69973819250549
 30
0.0
 11
-355.40985184412563
 21
774.69973819250549
 31
0.0
  0
ARC
  5
429
  8
0
 10
-345.40985184412551
 20
846.72055096617487
 30
0.0
 40
9.9999999999999751
 50
141.63251461513889
 51
180.0
  0
ARC
  5
42A
  8
0
 10
-366.40985184412563
 20
836.12556222817807
 30
0.0
 40
7.0
 50
180.0
 51
201.8014094863519
  0
ARC
  5
42B
  8
0
 10
-366.40985184412563
 20
836.12556222817807
 30
0.0
 40
10.0
 50
180.0
 51
201.8014094863519
  0
ARC
  5
42C
  8
0
 10
-372.40985184412563
 20
873.19973819250538
 30
0.0
 40
1.0
 50
90.0
 51
180.00000000000011
  0
ARC
  5
42D
  8
0
 10
-372.40985184412563
 20
873.19973819250538
 30
0.0
 40
4.0
 50
90.0
 51
180.00000000000011
  0
LINE
  5
42E
  8
0
 10
-353.25031008874322
 20
852.9275804098304
 30
0.0
 11
-338.38901851079243
 21
871.69973819250538
 31
0.0
  0
LINE
  5
4D4
  8
0
  6
CENTER
 10
-297.90985184412568
 20
784.69973819250549
 30
0.0
 11
-368.90985184412551
 21
784.69973819250549
 31
0.0
  0
ARC
  5
4D5
  8
0
 10
-305.67026851079129
 20
779.44440532358499
 30
0.0
 40
2.2604166666656629
 50
0.0
 51
56.109761831005429
  0
LINE
  5
4D6
  8
0
 10
-303.40985184412568
 20
787.19973819250549
 30
0.0
 11
-303.40985184412568
 21
779.44440532358533
 31
0.0
  0
LINE
  5
4D7
  8
0
 10
-301.50985184412571
 20
788.69973819250538
 30
0.0
 11
-301.50985184412571
 21
780.69973819250515
 31
0.0
  0
LINE
  5
4D8
  8
0
 10
-300.90985184412568
 20
788.09973819250536
 30
0.0
 11
-300.90985184412568
 21
781.29973819250517
 31
0.0
  0
ARC
  5
4D9
  8
0
 10
-309.61848479107539
 20
784.69973819250515
 30
0.0
 40
6.2086329469497787
 50
327.02771773789522
 51
17.035822937074041
  0
LINE
  5
4DA
  8
0
 10
-300.90985184412568
 20
788.09973819250536
 30
0.0
 11
-301.50985184412571
 21
788.69973819250538
 31
0.0
  0
LINE
  5
4DC
  8
0
 10
-300.90985184412568
 20
788.09973819250536
 30
0.0
 11
-303.04985184412573
 21
788.09973819250536
 31
0.0
  0
LINE
  5
4DD
  8
0
 10
-301.50985184412571
 20
788.69973819250538
 30
0.0
 11
-302.80985184412577
 21
788.69973819250538
 31
0.0
  0
LINE
  5
4E1
  8
0
 10
-300.90985184412568
 20
781.29973819250517
 30
0.0
 11
-301.50985184412571
 21
780.69973819250515
 31
0.0
  0
LINE
  5
4E2
  8
0
 10
-305.7614296417475
 20
781.32079369845087
 30
0.0
 11
-304.40985184412568
 21
781.32079369845087
 31
0.0
  0
LINE
  5
4E3
  8
0
 10
-300.90985184412568
 20
781.29973819250517
 30
0.0
 11
-303.40985184412568
 21
781.29973819250517
 31
0.0
  0
LINE
  5
4E4
  8
0
 10
-301.50985184412571
 20
780.69973819250515
 30
0.0
 11
-303.40985184412568
 21
780.69973819250538
 31
0.0
  0
LINE
  5
4E5
  8
0
 10
-307.26254034163998
 20
777.56801694871967
 30
0.0
 11
-304.40985184412568
 21
777.56801694871967
 31
0.0
  0
ARC
  5
4E6
  8
0
 10
-305.67026851079129
 20
779.44440532358499
 30
0.0
 40
2.2604166666656629
 50
303.8902381689968
 51
0.0
  0
ARC
  5
4E7
  8
0
 10
-361.14943517746002
 20
779.44440532358522
 30
0.0
 40
2.2604166666656629
 50
123.8902381689945
 51
180.0
  0
LINE
  5
4E8
  8
0
 10
-363.40985184412563
 20
787.19973819250572
 30
0.0
 11
-363.40985184412563
 21
779.44440532358533
 31
0.0
  0
ARC
  5
4E9
  8
0
 10
-357.20121889717592
 20
784.69973819250515
 30
0.0
 40
6.2086329469497787
 50
162.96417706292709
 51
212.97228226210461
  0
LINE
  5
4EE
  8
0
 10
-361.05827404650381
 20
781.32079369845087
 30
0.0
 11
-362.40985184412563
 21
781.32079369845087
 31
0.0
  0
LINE
  5
4EF
  8
0
 10
-359.55716334661128
 20
777.56801694871967
 30
0.0
 11
-362.40985184412563
 21
777.56801694871967
 31
0.0
  0
ARC
  5
4F0
  8
0
 10
-361.14943517746002
 20
779.44440532358522
 30
0.0
 40
2.2604166666656629
 50
180.0
 51
236.10976183100311
  0
LINE
  5
5EC
  8
0
 10
-312.40985184412568
 20
798.69973819250527
 30
0.0
 11
-312.40985184412568
 21
770.69973819250527
 31
0.0
  0
LINE
  5
5ED
  8
0
 10
-312.40985184412568
 20
770.69973819250527
 30
0.0
 11
-314.40985184412568
 21
770.69973819250527
 31
0.0
  0
LINE
  5
5EE
  8
0
 10
-312.40985184412568
 20
798.69973819250527
 30
0.0
 11
-314.40985184412568
 21
798.69973819250527
 31
0.0
  0
LINE
  5
5EF
  8
0
 10
-311.4098518441258
 20
788.69973819250538
 30
0.0
 11
-312.40985184412568
 21
788.69973819250538
 31
0.0
  0
LINE
  5
5F0
  8
0
 10
-311.40985184412563
 20
788.09973819250536
 30
0.0
 11
-312.40985184412568
 21
788.09973819250536
 31
0.0
  0
LINE
  5
5F1
  8
0
 10
-311.4098518441258
 20
780.69973819250538
 30
0.0
 11
-312.40985184412568
 21
780.69973819250538
 31
0.0
  0
LINE
  5
5F2
  8
0
 10
-311.40985184412563
 20
781.29973819250517
 30
0.0
 11
-312.40985184412568
 21
781.29973819250517
 31
0.0
  0
LINE
  5
5F3
  8
0
 10
-355.40985184412563
 20
781.29973819250517
 30
0.0
 11
-354.40985184412563
 21
781.29973819250517
 31
0.0
  0
LINE
  5
5F4
  8
0
 10
-355.40985184412551
 20
780.69973819250538
 30
0.0
 11
-354.40985184412563
 21
780.69973819250538
 31
0.0
  0
LINE
  5
5F5
  8
0
 10
-355.40985184412551
 20
788.69973819250538
 30
0.0
 11
-354.40985184412563
 21
788.69973819250538
 31
0.0
  0
LINE
  5
5F6
  8
0
 10
-355.40985184412563
 20
788.09973819250536
 30
0.0
 11
-354.40985184412563
 21
788.09973819250536
 31
0.0
  0
LINE
  5
5F7
  8
0
 10
-314.40985184412568
 20
822.20680243669631
 30
0.0
 11
-314.40985184412568
 21
747.19267394831445
 31
0.0
  0
LINE
  5
601
  8
0
 10
-354.40985184412563
 20
798.69973819250527
 30
0.0
 11
-352.40985184412563
 21
798.69973819250527
 31
0.0
  0
LINE
  5
602
  8
0
 10
-354.40985184412568
 20
770.69973819250527
 30
0.0
 11
-352.40985184412563
 21
770.69973819250527
 31
0.0
  0
LINE
  5
603
  8
0
 10
-354.40985184412551
 20
798.69973819250527
 30
0.0
 11
-354.40985184412563
 21
770.69973819250527
 31
0.0
  0
LINE
  5
656
  8
0
 10
-321.40985184412563
 20
844.96476137945263
 30
0.0
 11
-321.40985184412563
 21
724.43471500555825
 31
0.0
  0
LINE
  5
65D
  8
0
 10
-314.40985184412568
 20
822.20680243669631
 30
0.0
 11
-320.98880420071811
 21
844.09968767060025
 31
0.0
  0
LINE
  5
660
  8
0
 10
-345.40985184412563
 20
844.96476137945263
 30
0.0
 11
-345.40985184412568
 21
724.43471500555825
 31
0.0
  0
LINE
  5
661
  8
0
 10
-352.40985184412563
 20
822.20680243669631
 30
0.0
 11
-345.8308994875332
 21
844.09968767060025
 31
0.0
  0
LINE
  5
662
  8
0
 10
-352.40985184412563
 20
822.20680243669631
 30
0.0
 11
-352.40985184412563
 21
747.19267394831445
 31
0.0
  0
LINE
  5
7B4
  8
0
  6
CENTER
 10
-674.58933812684791
 20
775.19594031194333
 30
0.0
 11
-745.58933812684757
 21
775.19594031194333
 31
0.0
  0
LINE
  5
7B5
  8
0
 10
-729.08933812684757
 20
750.61655718480699
 30
0.0
 11
-722.00472352604174
 21
727.04097159381786
 31
0.0
  0
LINE
  5
7B6
  8
0
 10
-729.08933812684757
 20
799.77532343907944
 30
0.0
 11
-722.00472352604174
 21
823.35090903006835
 31
0.0
  0
LINE
  5
7B7
  8
0
 10
-727.40599195323978
 20
850.19594031194322
 30
0.0
 11
-749.08933812684768
 21
850.19594031194322
 31
0.0
  0
LINE
  5
7B8
  8
0
 10
-671.08933812684791
 20
853.19594031194333
 30
0.0
 11
-749.08933812684768
 21
853.1959403119431
 31
0.0
  0
LINE
  5
7B9
  8
0
 10
-729.92979637146527
 20
828.92378252926824
 30
0.0
 11
-715.06850479351442
 21
847.69594031194333
 31
0.0
  0
LINE
  5
7BA
  8
0
 10
-753.08933812684768
 20
849.19594031194345
 30
0.0
 11
-753.08933812684768
 21
812.12176434761602
 31
0.0
  0
LINE
  5
7BB
  8
0
 10
-750.08933812684757
 20
849.19594031194345
 30
0.0
 11
-750.08933812684757
 21
812.12176434761602
 31
0.0
  0
LINE
  5
7BC
  8
0
 10
-729.08933812684757
 20
799.77532343907944
 30
0.0
 11
-729.08933812684757
 21
750.61655718480699
 31
0.0
  0
LINE
  5
7BD
  8
0
 10
-731.08933812684768
 20
789.19594031194322
 30
0.0
 11
-731.08933812684768
 21
761.19594031194322
 31
0.0
  0
LINE
  5
7BE
  8
0
 10
-731.08933812684768
 20
761.19594031194322
 30
0.0
 11
-729.08933812684757
 21
761.19594031194322
 31
0.0
  0
LINE
  5
7BF
  8
0
 10
-749.58867496304435
 20
809.52202961313708
 30
0.0
 11
-732.08933812684768
 21
765.7736875226451
 31
0.0
  0
LINE
  5
7C0
  8
0
 10
-732.08933812684768
 20
822.71675308561259
 30
0.0
 11
-732.08933812684768
 21
765.19594031194322
 31
0.0
  0
LINE
  5
7C1
  8
0
 10
-752.37410503570027
 20
808.40785758407492
 30
0.0
 11
-735.08933812684768
 21
765.19594031194333
 31
0.0
  0
LINE
  5
7C2
  8
0
 10
-736.23664962933344
 20
768.06421906815751
 30
0.0
 11
-739.08933812684757
 21
768.06421906815751
 31
0.0
  0
LINE
  5
7C3
  8
0
 10
-737.73776032922592
 20
771.81699581788882
 30
0.0
 11
-739.08933812684757
 21
771.81699581788882
 31
0.0
  0
ARC
  5
7C4
  8
0
 10
-733.88070517989809
 20
775.1959403119431
 30
0.0
 40
6.2086329469497787
 50
162.96417706292709
 51
212.97228226210461
  0
LINE
  5
7C5
  8
0
 10
-740.08933812684768
 20
777.69594031194345
 30
0.0
 11
-740.08933812684768
 21
769.94060744302305
 31
0.0
  0
ARC
  5
7C6
  8
0
 10
-737.82892146018207
 20
769.94060744302305
 30
0.0
 40
2.2604166666656629
 50
123.8902381689945
 51
180.0
  0
ARC
  5
7C7
  8
0
 10
-737.82892146018207
 20
769.94060744302305
 30
0.0
 40
2.2604166666656629
 50
180.0
 51
236.10976183100311
  0
LINE
  5
7C8
  8
0
 10
-732.08933812684768
 20
778.59594031194331
 30
0.0
 11
-731.08933812684768
 21
778.59594031194331
 31
0.0
  0
LINE
  5
7C9
  8
0
 10
-732.08933812684768
 20
779.19594031194322
 30
0.0
 11
-731.08933812684768
 21
779.19594031194322
 31
0.0
  0
LINE
  5
7CA
  8
0
 10
-732.08933812684768
 20
771.19594031194322
 30
0.0
 11
-731.08933812684768
 21
771.19594031194322
 31
0.0
  0
LINE
  5
7CB
  8
0
 10
-732.08933812684768
 20
771.79594031194313
 30
0.0
 11
-731.08933812684768
 21
771.79594031194313
 31
0.0
  0
LINE
  5
7CC
  8
0
 10
-735.08933812684768
 20
765.19594031194333
 30
0.0
 11
-732.08933812684768
 21
765.19594031194333
 31
0.0
  0
LINE
  5
7CD
  8
0
 10
-731.08933812684768
 20
789.19594031194322
 30
0.0
 11
-729.08933812684757
 21
789.1959403119431
 31
0.0
  0
ARC
  5
7CE
  8
0
 10
-743.08933812684757
 20
812.12176434761602
 30
0.0
 40
10.0
 50
180.0
 51
201.8014094863519
  0
ARC
  5
7CF
  8
0
 10
-743.08933812684757
 20
812.12176434761602
 30
0.0
 40
7.0
 50
180.0
 51
201.8014094863519
  0
ARC
  5
7D0
  8
0
 10
-722.08933812684757
 20
822.71675308561259
 30
0.0
 40
10.0
 50
141.6325146151388
 51
180.0
  0
ARC
  5
7D1
  8
0
 10
-749.08933812684768
 20
849.19594031194345
 30
0.0
 40
4.0
 50
90.0
 51
180.00000000000011
  0
ARC
  5
7D2
  8
0
 10
-749.08933812684768
 20
849.19594031194345
 30
0.0
 40
1.0
 50
90.0
 51
180.00000000000011
  0
LINE
  5
7D3
  8
0
  6
CENTER
 10
-710.08933812684768
 20
856.1959403119431
 30
0.0
 11
-710.08933812684768
 21
722.19594031194322
 31
0.0
  0
LINE
  5
7D4
  8
0
 10
-670.08933812684779
 20
849.19594031194345
 30
0.0
 11
-670.08933812684779
 21
812.12176434761602
 31
0.0
  0
LINE
  5
7D5
  8
0
 10
-667.08933812684791
 20
849.19594031194345
 30
0.0
 11
-667.08933812684791
 21
812.12176434761602
 31
0.0
  0
LINE
  5
7D6
  8
0
 10
-690.24887988223031
 20
828.92378252926824
 30
0.0
 11
-705.11017146018094
 21
847.69594031194333
 31
0.0
  0
LINE
  5
7D7
  8
0
 10
-722.08933812684757
 20
822.77532343907944
 30
0.0
 11
-722.08933812684757
 21
727.61655718480699
 31
0.0
  0
LINE
  5
7D8
  8
0
 10
-691.08933812684757
 20
799.77532343907944
 30
0.0
 11
-691.08933812684791
 21
750.61655718480699
 31
0.0
  0
LINE
  5
7D9
  8
0
 10
-698.08933812684768
 20
822.77532343907944
 30
0.0
 11
-698.08933812684768
 21
727.61655718480699
 31
0.0
  0
LINE
  5
7DA
  8
0
 10
-689.08933812684791
 20
789.19594031194322
 30
0.0
 11
-689.08933812684791
 21
761.19594031194322
 31
0.0
  0
LINE
  5
7DB
  8
0
 10
-691.08933812684757
 20
750.61655718480699
 30
0.0
 11
-698.17395272765361
 21
727.04097159381786
 31
0.0
  0
ARC
  5
7DC
  8
0
 10
-710.08933812684791
 20
846.2792736452767
 30
0.0
 40
121.0833333333335
 50
265.18292510600969
 51
274.8170748939902
  0
ARC
  5
7DD
  8
0
 10
-720.08933812684768
 20
727.61655718480699
 30
0.0
 40
2.0
 50
180.0
 51
265.18292510600998
  0
ARC
  5
7DE
  8
0
 10
-700.08933812684757
 20
727.61655718480699
 30
0.0
 40
2.0
 50
274.81707489398991
 51
0.0
  0
LINE
  5
7DF
  8
0
 10
-689.08933812684757
 20
761.19594031194322
 30
0.0
 11
-691.08933812684791
 21
761.19594031194322
 31
0.0
  0
LINE
  5
7E0
  8
0
 10
-691.08933812684757
 20
799.77532343907944
 30
0.0
 11
-698.17395272765361
 21
823.35090903006835
 31
0.0
  0
ARC
  5
7E1
  8
0
 10
-710.08933812684791
 20
704.11260697860962
 30
0.0
 40
121.0833333333335
 50
85.182925106009705
 51
94.817074893990267
  0
ARC
  5
7E2
  8
0
 10
-720.08933812684768
 20
822.77532343907944
 30
0.0
 40
2.0
 50
94.817074893989925
 51
180.0
  0
ARC
  5
7E3
  8
0
 10
-700.08933812684757
 20
822.77532343907944
 30
0.0
 40
2.0
 50
0.0
 51
85.182925106010075
  0
LINE
  5
7E4
  8
0
 10
-670.59000129065112
 20
809.52202961313708
 30
0.0
 11
-688.08933812684791
 21
765.7736875226451
 31
0.0
  0
LINE
  5
7E5
  8
0
 10
-688.08933812684791
 20
822.71675308561259
 30
0.0
 11
-688.08933812684791
 21
765.19594031194322
 31
0.0
  0
LINE
  5
7E6
  8
0
 10
-667.80457121799532
 20
808.40785758407492
 30
0.0
 11
-685.08933812684791
 21
765.19594031194333
 31
0.0
  0
LINE
  5
7E7
  8
0
 10
-683.94202662436214
 20
768.06421906815751
 30
0.0
 11
-681.08933812684791
 21
768.06421906815751
 31
0.0
  0
LINE
  5
7E8
  8
0
 10
-682.44091592446955
 20
771.81699581788882
 30
0.0
 11
-681.08933812684791
 21
771.81699581788882
 31
0.0
  0
LINE
  5
7E9
  8
0
 10
-688.08933812684757
 20
771.79594031194313
 30
0.0
 11
-689.08933812684791
 21
771.79594031194313
 31
0.0
  0
LINE
  5
7EA
  8
0
 10
-688.08933812684791
 20
771.19594031194322
 30
0.0
 11
-689.08933812684791
 21
771.19594031194322
 31
0.0
  0
LINE
  5
7EB
  8
0
 10
-688.08933812684791
 20
779.19594031194322
 30
0.0
 11
-689.08933812684791
 21
779.19594031194322
 31
0.0
  0
LINE
  5
7EC
  8
0
 10
-688.08933812684757
 20
778.59594031194331
 30
0.0
 11
-689.08933812684791
 21
778.59594031194331
 31
0.0
  0
LINE
  5
7ED
  8
0
 10
-685.08933812684791
 20
765.19594031194333
 30
0.0
 11
-688.08933812684791
 21
765.19594031194333
 31
0.0
  0
LINE
  5
7EE
  8
0
 10
-689.08933812684791
 20
789.19594031194322
 30
0.0
 11
-691.08933812684757
 21
789.1959403119431
 31
0.0
  0
LINE
  5
7EF
  8
0
 10
-677.58933812684779
 20
778.59594031194331
 30
0.0
 11
-679.72933812684767
 21
778.59594031194331
 31
0.0
  0
LINE
  5
7F0
  8
0
 10
-678.18933812684782
 20
779.19594031194322
 30
0.0
 11
-679.48933812684788
 21
779.19594031194322
 31
0.0
  0
LINE
  5
7F1
  8
0
 10
-680.08933812684791
 20
777.69594031194333
 30
0.0
 11
-680.08933812684791
 21
769.94060744302305
 31
0.0
  0
ARC
  5
7F2
  8
0
 10
-686.2979710737975
 20
775.19594031194288
 30
0.0
 40
6.2086329469497787
 50
327.02771773789522
 51
17.035822937074041
  0
LINE
  5
7F3
  8
0
 10
-677.58933812684779
 20
778.59594031194331
 30
0.0
 11
-678.18933812684782
 21
779.19594031194322
 31
0.0
  0
ARC
  5
7F4
  8
0
 10
-682.34975479351351
 20
769.94060744302294
 30
0.0
 40
2.2604166666656629
 50
303.8902381689968
 51
0.0
  0
ARC
  5
7F5
  8
0
 10
-682.34975479351351
 20
769.94060744302294
 30
0.0
 40
2.2604166666656629
 50
0.0
 51
56.109761831005429
  0
LINE
  5
7F6
  8
0
 10
-678.18933812684782
 20
771.1959403119431
 30
0.0
 11
-680.08933812684791
 21
771.19594031194322
 31
0.0
  0
LINE
  5
7F7
  8
0
 10
-677.58933812684779
 20
771.79594031194313
 30
0.0
 11
-680.08933812684791
 21
771.79594031194313
 31
0.0
  0
LINE
  5
7F8
  8
0
 10
-677.58933812684779
 20
771.79594031194313
 30
0.0
 11
-678.18933812684782
 21
771.1959403119431
 31
0.0
  0
LINE
  5
7F9
  8
0
 10
-677.58933812684779
 20
778.59594031194331
 30
0.0
 11
-677.58933812684779
 21
771.79594031194313
 31
0.0
  0
LINE
  5
7FA
  8
0
 10
-678.18933812684782
 20
779.19594031194322
 30
0.0
 11
-678.18933812684782
 21
771.1959403119431
 31
0.0
  0
ARC
  5
7FB
  8
0
 10
-698.08933812684791
 20
822.71675308561259
 30
0.0
 40
10.0
 50
0.0
 51
38.367485384861169
  0
ARC
  5
7FC
  8
0
 10
-677.08933812684791
 20
812.12176434761602
 30
0.0
 40
7.0
 50
338.19859051364813
 51
0.0
  0
ARC
  5
7FD
  8
0
 10
-677.08933812684791
 20
812.12176434761602
 30
0.0
 40
10.0
 50
338.19859051364813
 51
0.0
  0
LINE
  5
7FE
  8
0
 10
-695.34511180232744
 20
852.69209119495679
 30
0.0
 11
-698.33356445136792
 21
850.69978942892965
 31
0.0
  0
ARC
  5
7FF
  8
0
 10
-698.33935264486604
 20
850.69594031194333
 30
0.0
 40
3.0
 50
270.0
 51
303.55730976192052
  0
LINE
  5
800
  8
0
 10
-699.99766504004367
 20
850.19594031194345
 30
0.0
 11
-720.18101121365169
 21
850.19594031194345
 31
0.0
  0
LINE
  5
801
  8
0
 10
-698.33935264486604
 20
847.69594031194333
 30
0.0
 11
-721.83932360882955
 21
847.69594031194333
 31
0.0
  0
ARC
  5
802
  8
0
 10
-721.83932360882955
 20
850.69594031194333
 30
0.0
 40
3.0
 50
236.44269023807939
 51
270.0
  0
ARC
  5
803
  8
0
 10
-720.18101121365169
 20
853.19594031194333
 30
0.0
 40
3.0
 50
236.3099324740202
 51
270.0
  0
ARC
  5
804
  8
0
 10
-720.18101121365169
 20
853.19594031194333
 30
0.0
 40
6.0
 50
236.3099324740202
 51
236.44269023807939
  0
ARC
  5
805
  8
0
 10
-727.40599195323978
 20
847.19594031194322
 30
0.0
 40
3.0
 50
56.309932474020719
 51
90.0
  0
ARC
  5
806
  8
0
 10
-726.49766504004378
 20
850.19594031194322
 30
0.0
 40
3.0
 50
56.309932474020599
 51
90.0
  0
LINE
  5
807
  8
0
 10
-725.74189136456425
 20
849.69209119495667
 30
0.0
 11
-723.50921239100296
 21
848.20363854591619
 31
0.0
  0
LINE
  5
808
  8
0
 10
-724.83356445136815
 20
852.69209119495679
 30
0.0
 11
-721.84511180232744
 21
850.69978942892965
 31
0.0
  0
ARC
  5
809
  8
0
 10
-699.99766504004367
 20
853.19594031194333
 30
0.0
 40
3.0
 50
270.0
 51
303.69006752597971
  0
LINE
  5
80A
  8
0
 10
-671.08933812684791
 20
850.19594031194299
 30
0.0
 11
-692.77268430045558
 21
850.19594031194322
 31
0.0
  0
ARC
  5
80B
  8
0
 10
-699.99766504004367
 20
853.19594031194333
 30
0.0
 40
6.0
 50
303.55730976192052
 51
303.69006752597971
  0
LINE
  5
80C
  8
0
 10
-694.43678488913133
 20
849.69209119495667
 30
0.0
 11
-696.66946386269228
 21
848.20363854591619
 31
0.0
  0
ARC
  5
80D
  8
0
 10
-692.77268430045558
 20
847.19594031194322
 30
0.0
 40
3.0
 50
90.0
 51
123.6900675259793
  0
ARC
  5
80E
  8
0
 10
-693.6810112136518
 20
850.19594031194322
 30
0.0
 40
3.0
 50
90.0
 51
123.6900675259793
  0
ARC
  5
80F
  8
0
 10
-671.08933812684791
 20
849.19594031194345
 30
0.0
 40
1.0
 50
359.99999999999977
 51
90.0
  0
ARC
  5
810
  8
0
 10
-671.08933812684791
 20
849.19594031194345
 30
0.0
 40
4.0
 50
359.99999999999977
 51
90.0
  0
ARC
  5
811
  8
0
 10
-541.97794276862533
 20
672.61853957144069
 30
0.0
 40
2.2604166666656629
 50
33.89023816899681
 51
90.0
  0
ARC
  5
812
  8
0
 10
-541.97794276862533
 20
616.13937290477224
 30
0.0
 40
2.2604166666656629
 50
270.0
 51
326.10976183100308
  0
ARC
  5
813
  8
0
 10
-547.23327563754526
 20
670.37895623810653
 30
0.0
 40
8.5
 50
207.75785661715969
 51
332.2421433828402
  0
ARC
  5
814
  8
0
 10
-547.23327563754526
 20
661.8789562381063
 30
0.0
 40
8.5
 50
207.75785661715969
 51
332.2421433828402
  0
ARC
  5
815
  8
0
 10
-547.23327563754526
 20
661.8789562381063
 30
0.0
 40
13.5
 50
207.75785661715969
 51
332.2421433828402
  0
ARC
  5
816
  8
0
 10
-547.23327563754526
 20
626.87895623810675
 30
0.0
 40
8.5
 50
27.757856617159739
 51
152.2421433828402
  0
ARC
  5
817
  8
0
 10
-547.23327563754526
 20
626.87895623810675
 30
0.0
 40
13.5
 50
27.757856617159739
 51
152.2421433828402
  0
LINE
  5
818
  8
0
 10
-560.69696511135817
 20
669.87895623810664
 30
0.0
 11
-533.76958616373258
 21
669.87895623810653
 31
0.0
  0
ARC
  5
819
  8
0
 10
-547.23327563754526
 20
618.37895623810664
 30
0.0
 40
8.5
 50
27.757856617159739
 51
152.2421433828402
  0
LINE
  5
81A
  8
0
 10
-560.69696511135817
 20
618.87895623810653
 30
0.0
 11
-533.76958616373258
 21
618.87895623810664
 31
0.0
  0
LINE
  5
81B
  8
0
  6
CENTER
 10
-602.10710789322479
 20
644.37895623810641
 30
0.0
 11
-492.3594433818659
 21
644.37895623810653
 31
0.0
  0
LINE
  5
81C
  8
0
 10
-559.13341634262565
 20
622.51872191133452
 30
0.0
 11
-554.75512778703785
 21
630.83771112331692
 31
0.0
  0
LINE
  5
81D
  8
0
  6
CENTER
 10
-547.23327563754526
 20
680.37895623810641
 30
0.0
 11
-547.23327563754526
 21
610.87895623810641
 31
0.0
  0
ARC
  5
81E
  8
0
 10
-1061.584802305023
 20
644.3789562381063
 30
0.0
 40
464.4776944117985
 50
355.2252271974566
 51
4.774772802543354
  0
LINE
  5
81F
  8
0
 10
-573.40317492558802
 20
606.42750389181015
 30
0.0
 11
-562.91105154736476
 21
617.90326383674142
 31
0.0
  0
ARC
  5
820
  8
0
 10
-587.98327563754538
 20
613.87895623810653
 30
0.0
 40
4.5
 50
90.0
 51
270.0
  0
LINE
  5
821
  8
0
 10
-576.48327563754538
 20
613.87895623810641
 30
0.0
 11
-596.48327563754538
 21
613.87895623810641
 31
0.0
  0
LINE
  5
822
  8
0
 10
-589.91691106747453
 20
601.51501699978553
 30
0.0
 11
-579.13947317255725
 21
603.31125664893796
 31
0.0
  0
ARC
  5
823
  8
0
 10
-594.73327563754538
 20
605.37895623810675
 30
0.0
 40
4.0
 50
175.16274289233121
 51
270.0
  0
LINE
  5
824
  8
0
 10
-591.56090094052797
 20
601.37895623810675
 30
0.0
 11
-594.73327563754538
 21
601.37895623810675
 31
0.0
  0
ARC
  5
825
  8
0
 10
-591.56090094052797
 20
611.37895623810675
 30
0.0
 40
10.0
 50
270.0
 51
279.4623222080242
  0
LINE
  5
826
  8
0
 10
-586.48327563754526
 20
605.37895623810641
 30
0.0
 11
-586.48327563754526
 21
622.37895623810653
 31
0.0
  0
ARC
  5
827
  8
0
 10
-584.98327563754526
 20
613.87895623810653
 30
0.0
 40
4.5
 50
270.0
 51
90.0
  0
LINE
  5
828
  8
0
 10
-584.98327563754526
 20
609.37895623810653
 30
0.0
 11
-587.98327563754538
 21
609.37895623810653
 31
0.0
  0
ARC
  5
829
  8
0
 10
-580.78346304561057
 20
613.17519588725963
 30
0.0
 40
10.0
 50
279.4623222080242
 51
317.56377021146352
  0
LINE
  5
82A
  8
0
 10
-584.98327563754526
 20
618.37895623810653
 30
0.0
 11
-587.98327563754538
 21
618.37895623810653
 31
0.0
  0
LINE
  5
82B
  8
0
 10
-562.91105154736476
 20
617.90326383674142
 30
0.0
 11
-560.60236604553529
 21
620.42838860436757
 31
0.0
  0
ARC
  5
82C
  8
0
 10
-560.69696511135817
 20
615.87895623810664
 30
0.0
 40
3.0
 50
90.0
 51
137.56377021146349
  0
ARC
  5
82D
  8
0
 10
-567.98265416555785
 20
627.17608059981694
 30
0.0
 40
10.0
 50
317.56377021146579
 51
332.24214338284168
  0
ARC
  5
82E
  8
0
 10
-547.23327563754526
 20
620.08758918505634
 30
0.0
 40
6.2086329469497787
 50
237.0277177378953
 51
302.97228226210461
  0
LINE
  5
82F
  8
0
 10
-552.48860850646543
 20
613.87895623810653
 30
0.0
 11
-541.97794276862533
 21
613.87895623810664
 31
0.0
  0
LINE
  5
830
  8
0
 10
-550.61222013159954
 20
618.87895623810664
 30
0.0
 11
-550.61222013159954
 21
614.87895623810653
 31
0.0
  0
ARC
  5
831
  8
0
 10
-552.48860850646543
 20
616.13937290477224
 30
0.0
 40
2.2604166666656629
 50
213.89023816899669
 51
270.0
  0
LINE
  5
832
  8
0
 10
-554.36499688133097
 20
618.87895623810664
 30
0.0
 11
-554.36499688133097
 21
614.87895623810653
 31
0.0
  0
ARC
  5
833
  8
0
 10
-552.48860850646543
 20
616.13937290477224
 30
0.0
 40
2.2604166666656629
 50
270.0
 51
326.10976183100541
  0
LINE
  5
834
  8
0
 10
-543.85433114349087
 20
618.87895623810664
 30
0.0
 11
-543.85433114349087
 21
614.87895623810664
 31
0.0
  0
ARC
  5
835
  8
0
 10
-541.97794276862533
 20
616.13937290477224
 30
0.0
 40
2.2604166666656629
 50
213.8902381689945
 51
270.0
  0
LINE
  5
836
  8
0
 10
-569.23327563754538
 20
657.37895623810653
 30
0.0
 11
-572.73327563754526
 21
657.37895623810653
 31
0.0
  0
LINE
  5
837
  8
0
 10
-569.23327563754538
 20
631.37895623810641
 30
0.0
 11
-572.73327563754526
 21
631.37895623810641
 31
0.0
  0
LINE
  5
838
  8
0
 10
-573.40317492558802
 20
682.3304085844029
 30
0.0
 11
-562.91105154736476
 21
670.85464863947175
 31
0.0
  0
LINE
  5
839
  8
0
 10
-568.23327563754526
 20
654.87895623810653
 30
0.0
 11
-573.73327563754538
 21
654.87895623810653
 31
0.0
  0
LINE
  5
83A
  8
0
 10
-574.23327563754538
 20
633.87895623810653
 30
0.0
 11
-567.73327563754526
 21
633.87895623810653
 31
0.0
  0
LINE
  5
83B
  8
0
 10
-587.73327563754526
 20
654.87895623810653
 30
0.0
 11
-597.21760335987119
 21
654.87895623810641
 31
0.0
  0
LINE
  5
83C
  8
0
 10
-587.73327563754526
 20
633.87895623810664
 30
0.0
 11
-597.21760335987119
 21
633.87895623810664
 31
0.0
  0
LINE
  5
83D
  8
0
 10
-588.73327563754526
 20
631.37895623810641
 30
0.0
 11
-597.21760335987119
 21
631.37895623810641
 31
0.0
  0
LINE
  5
83E
  8
0
 10
-588.73327563754526
 20
657.37895623810653
 30
0.0
 11
-597.21760335987119
 21
657.37895623810641
 31
0.0
  0
LINE
  5
83F
  8
0
 10
-576.73327563754526
 20
653.37895623810653
 30
0.0
 11
-576.73327563754526
 21
635.37895623810653
 31
0.0
  0
LINE
  5
840
  8
0
 10
-574.23327563754538
 20
654.37895623810653
 30
0.0
 11
-574.23327563754538
 21
633.87895623810653
 31
0.0
  0
LINE
  5
841
  8
0
 10
-584.73327563754526
 20
653.37895623810653
 30
0.0
 11
-584.73327563754526
 21
635.37895623810664
 31
0.0
  0
LINE
  5
842
  8
0
 10
-587.23327563754526
 20
654.37895623810653
 30
0.0
 11
-587.23327563754526
 21
634.37895623810664
 31
0.0
  0
ARC
  5
843
  8
0
 10
-587.73327563754526
 20
634.37895623810664
 30
0.0
 40
0.5
 50
270.0
 51
0.0
  0
ARC
  5
844
  8
0
 10
-587.73327563754526
 20
634.37895623810641
 30
0.0
 40
3.0
 50
270.0
 51
0.0
  0
ARC
  5
845
  8
0
 10
-573.73327563754538
 20
634.37895623810641
 30
0.0
 40
3.0
 50
180.0
 51
270.0
  0
ARC
  5
846
  8
0
 10
-587.73327563754526
 20
654.37895623810653
 30
0.0
 40
0.5
 50
0.0
 51
90.0
  0
ARC
  5
847
  8
0
 10
-587.73327563754526
 20
654.37895623810653
 30
0.0
 40
3.0
 50
0.0
 51
90.0
  0
ARC
  5
848
  8
0
 10
-573.73327563754538
 20
654.37895623810653
 30
0.0
 40
0.5
 50
90.0
 51
180.0
  0
ARC
  5
849
  8
0
 10
-573.73327563754538
 20
654.37895623810653
 30
0.0
 40
3.0
 50
90.0
 51
180.0
  0
LINE
  5
84A
  8
0
 10
-576.48327563754538
 20
674.87895623810664
 30
0.0
 11
-596.48327563754538
 21
674.87895623810664
 31
0.0
  0
ARC
  5
84B
  8
0
 10
-587.98327563754538
 20
674.8789562381063
 30
0.0
 40
4.5
 50
90.0
 51
270.0
  0
LINE
  5
84C
  8
0
 10
-589.91691106747453
 20
687.24289547642775
 30
0.0
 11
-579.13947317255725
 21
685.44665582727498
 31
0.0
  0
ARC
  5
84D
  8
0
 10
-594.73327563754538
 20
683.37895623810618
 30
0.0
 40
4.0
 50
90.0
 51
184.83725710766871
  0
LINE
  5
84E
  8
0
 10
-591.56090094052797
 20
687.37895623810618
 30
0.0
 11
-594.73327563754538
 21
687.37895623810618
 31
0.0
  0
ARC
  5
84F
  8
0
 10
-591.56090094052797
 20
677.37895623810607
 30
0.0
 40
10.0
 50
80.537677791975725
 51
90.0
  0
LINE
  5
850
  8
0
 10
-586.48327563754526
 20
683.37895623810664
 30
0.0
 11
-586.48327563754526
 21
666.37895623810653
 31
0.0
  0
LINE
  5
851
  8
0
 10
-584.98327563754526
 20
670.37895623810653
 30
0.0
 11
-587.98327563754538
 21
670.37895623810653
 31
0.0
  0
LINE
  5
852
  8
0
 10
-584.98327563754526
 20
679.37895623810641
 30
0.0
 11
-587.98327563754538
 21
679.37895623810641
 31
0.0
  0
ARC
  5
853
  8
0
 10
-584.98327563754526
 20
674.8789562381063
 30
0.0
 40
4.5
 50
270.0
 51
90.0
  0
ARC
  5
854
  8
0
 10
-580.78346304561057
 20
675.58271658895364
 30
0.0
 40
10.0
 50
42.436229788536473
 51
80.537677791975725
  0
LINE
  5
855
  8
0
 10
-559.13341634262565
 20
666.23919056487875
 30
0.0
 11
-554.75512778703785
 21
657.92020135289636
 31
0.0
  0
LINE
  5
856
  8
0
 10
-565.23327563754538
 20
635.37895623810664
 30
0.0
 11
-565.23327563754538
 21
653.37895623810664
 31
0.0
  0
LINE
  5
857
  8
0
 10
-567.73327563754526
 20
633.87895623810653
 30
0.0
 11
-567.73327563754526
 21
654.37895623810653
 31
0.0
  0
ARC
  5
858
  8
0
 10
-568.23327563754526
 20
634.37895623810641
 30
0.0
 40
3.0
 50
270.0
 51
0.0
  0
ARC
  5
859
  8
0
 10
-568.23327563754526
 20
654.37895623810653
 30
0.0
 40
3.0
 50
0.0
 51
90.0
  0
ARC
  5
85A
  8
0
 10
-568.23327563754526
 20
654.37895623810653
 30
0.0
 40
0.5
 50
0.0
 51
90.0
  0
ARC
  5
85B
  8
0
 10
-560.69696511135817
 20
672.87895623810641
 30
0.0
 40
3.0
 50
222.43622978853639
 51
270.0
  0
LINE
  5
85C
  8
0
 10
-562.91105154736476
 20
670.85464863947163
 30
0.0
 11
-560.60236604553529
 21
668.32952387184548
 31
0.0
  0
ARC
  5
85D
  8
0
 10
-567.98265416555785
 20
661.581831876396
 30
0.0
 40
10.0
 50
27.7578566171583
 51
42.43622978853417
  0
LINE
  5
85E
  8
0
 10
-551.23327563754526
 20
676.77895623810628
 30
0.0
 11
-543.23327563754526
 21
676.77895623810628
 31
0.0
  0
LINE
  5
85F
  8
0
 10
-550.63327563754547
 20
677.37895623810641
 30
0.0
 11
-543.83327563754517
 21
677.37895623810641
 31
0.0
  0
ARC
  5
860
  8
0
 10
-547.23327563754526
 20
668.67032329115659
 30
0.0
 40
6.2086329469497787
 50
57.027717737895308
 51
122.9722822621046
  0
LINE
  5
861
  8
0
 10
-552.48860850646543
 20
674.8789562381063
 30
0.0
 11
-541.97794276862533
 21
674.8789562381063
 31
0.0
  0
LINE
  5
862
  8
0
 10
-550.63327563754547
 20
677.37895623810641
 30
0.0
 11
-551.23327563754526
 21
676.77895623810628
 31
0.0
  0
LINE
  5
863
  8
0
 10
-550.61222013159954
 20
669.87895623810641
 30
0.0
 11
-550.61222013159954
 21
673.87895623810641
 31
0.0
  0
LINE
  5
864
  8
0
 10
-550.63327563754547
 20
677.37895623810641
 30
0.0
 11
-550.63327563754547
 21
674.8789562381063
 31
0.0
  0
LINE
  5
865
  8
0
 10
-551.23327563754526
 20
676.77895623810628
 30
0.0
 11
-551.23327563754526
 21
674.8789562381063
 31
0.0
  0
ARC
  5
866
  8
0
 10
-552.48860850646543
 20
672.61853957144069
 30
0.0
 40
2.2604166666656629
 50
90.0
 51
146.10976183100311
  0
LINE
  5
867
  8
0
 10
-554.36499688133097
 20
669.87895623810641
 30
0.0
 11
-554.36499688133097
 21
673.87895623810641
 31
0.0
  0
ARC
  5
868
  8
0
 10
-552.48860850646543
 20
672.61853957144069
 30
0.0
 40
2.2604166666656629
 50
33.89023816899455
 51
90.0
  0
LINE
  5
869
  8
0
 10
-543.83327563754517
 20
677.37895623810641
 30
0.0
 11
-543.23327563754526
 21
676.77895623810628
 31
0.0
  0
LINE
  5
86A
  8
0
 10
-543.85433114349087
 20
669.87895623810641
 30
0.0
 11
-543.85433114349087
 21
673.87895623810641
 31
0.0
  0
LINE
  5
86B
  8
0
 10
-543.83327563754517
 20
677.37895623810641
 30
0.0
 11
-543.83327563754517
 21
674.8789562381063
 31
0.0
  0
LINE
  5
86C
  8
0
 10
-543.23327563754526
 20
676.77895623810628
 30
0.0
 11
-543.23327563754526
 21
674.8789562381063
 31
0.0
  0
ARC
  5
86D
  8
0
 10
-541.97794276862533
 20
672.61853957144069
 30
0.0
 40
2.2604166666656629
 50
90.0
 51
146.10976183100539
  0
ARC
  5
86E
  8
0
 10
-32.881748970067967
 20
644.37895623810641
 30
0.0
 40
464.47769441179793
 50
175.2252271974566
 51
184.77477280254331
  0
LINE
  5
86F
  8
0
 10
-535.33313493246499
 20
622.51872191133452
 30
0.0
 11
-539.71142348805301
 21
630.83771112331692
 31
0.0
  0
LINE
  5
870
  8
0
 10
-504.54964020761622
 20
601.51501699978553
 30
0.0
 11
-515.32707810253351
 21
603.31125664893796
 31
0.0
  0
ARC
  5
871
  8
0
 10
-509.48327563754538
 20
613.87895623810653
 30
0.0
 40
4.5
 50
90.0
 51
270.0
  0
LINE
  5
872
  8
0
 10
-517.98327563754538
 20
613.87895623810641
 30
0.0
 11
-497.98327563754532
 21
613.87895623810641
 31
0.0
  0
LINE
  5
873
  8
0
 10
-521.06337634950273
 20
606.42750389181015
 30
0.0
 11
-531.55549972772576
 21
617.90326383674142
 31
0.0
  0
LINE
  5
874
  8
0
 10
-531.55549972772576
 20
617.90326383674142
 30
0.0
 11
-533.86418522955535
 21
620.42838860436757
 31
0.0
  0
LINE
  5
875
  8
0
 10
-540.10155439375956
 20
618.87895623810664
 30
0.0
 11
-540.10155439375956
 21
614.87895623810664
 31
0.0
  0
ARC
  5
876
  8
0
 10
-526.48389710953268
 20
627.17608059981694
 30
0.0
 40
10.0
 50
207.75785661715821
 51
222.43622978853409
  0
ARC
  5
877
  8
0
 10
-533.76958616373258
 20
615.87895623810664
 30
0.0
 40
3.0
 50
42.436229788536473
 51
90.0
  0
ARC
  5
878
  8
0
 10
-513.68308822947995
 20
613.17519588725963
 30
0.0
 40
10.0
 50
222.43622978853639
 51
260.53767779197568
  0
LINE
  5
879
  8
0
 10
-507.98327563754532
 20
605.37895623810641
 30
0.0
 11
-507.98327563754532
 21
622.37895623810653
 31
0.0
  0
ARC
  5
87A
  8
0
 10
-506.48327563754532
 20
613.87895623810653
 30
0.0
 40
4.5
 50
270.0
 51
90.0
  0
LINE
  5
87B
  8
0
 10
-502.90565033456278
 20
601.37895623810675
 30
0.0
 11
-499.73327563754532
 21
601.37895623810675
 31
0.0
  0
LINE
  5
87C
  8
0
 10
-509.48327563754538
 20
609.37895623810653
 30
0.0
 11
-506.48327563754532
 21
609.37895623810653
 31
0.0
  0
ARC
  5
87D
  8
0
 10
-502.90565033456278
 20
611.37895623810675
 30
0.0
 40
10.0
 50
260.53767779197568
 51
270.0
  0
ARC
  5
87E
  8
0
 10
-499.73327563754532
 20
605.37895623810675
 30
0.0
 40
4.0
 50
270.0
 51
4.8372571076687816
  0
LINE
  5
87F
  8
0
 10
-509.48327563754538
 20
618.37895623810653
 30
0.0
 11
-506.48327563754532
 21
618.37895623810653
 31
0.0
  0
LINE
  5
880
  8
0
 10
-504.54964020761622
 20
687.24289547642775
 30
0.0
 11
-515.32707810253351
 21
685.44665582727498
 31
0.0
  0
ARC
  5
881
  8
0
 10
-509.48327563754538
 20
674.8789562381063
 30
0.0
 40
4.5
 50
90.0
 51
270.0
  0
LINE
  5
882
  8
0
 10
-517.98327563754538
 20
674.87895623810664
 30
0.0
 11
-497.98327563754532
 21
674.87895623810664
 31
0.0
  0
LINE
  5
883
  8
0
 10
-535.33313493246499
 20
666.23919056487875
 30
0.0
 11
-539.71142348805301
 21
657.92020135289636
 31
0.0
  0
LINE
  5
884
  8
0
 10
-526.23327563754526
 20
654.87895623810653
 30
0.0
 11
-520.73327563754526
 21
654.87895623810653
 31
0.0
  0
LINE
  5
885
  8
0
 10
-520.23327563754538
 20
633.87895623810653
 30
0.0
 11
-526.73327563754526
 21
633.87895623810653
 31
0.0
  0
LINE
  5
886
  8
0
 10
-526.73327563754526
 20
633.87895623810653
 30
0.0
 11
-526.73327563754526
 21
654.37895623810653
 31
0.0
  0
LINE
  5
887
  8
0
 10
-529.23327563754526
 20
635.37895623810664
 30
0.0
 11
-529.23327563754526
 21
653.37895623810664
 31
0.0
  0
ARC
  5
888
  8
0
 10
-526.23327563754526
 20
634.37895623810641
 30
0.0
 40
3.0
 50
180.0
 51
270.0
  0
ARC
  5
889
  8
0
 10
-526.23327563754526
 20
654.37895623810653
 30
0.0
 40
0.5
 50
90.0
 51
180.0
  0
ARC
  5
88A
  8
0
 10
-526.23327563754526
 20
654.37895623810653
 30
0.0
 40
3.0
 50
90.0
 51
180.0
  0
LINE
  5
88B
  8
0
 10
-517.73327563754526
 20
653.37895623810653
 30
0.0
 11
-517.73327563754526
 21
635.37895623810653
 31
0.0
  0
LINE
  5
88C
  8
0
 10
-520.23327563754538
 20
654.37895623810653
 30
0.0
 11
-520.23327563754538
 21
633.87895623810653
 31
0.0
  0
ARC
  5
88D
  8
0
 10
-520.73327563754526
 20
634.37895623810641
 30
0.0
 40
3.0
 50
270.0
 51
0.0
  0
LINE
  5
88E
  8
0
 10
-525.23327563754526
 20
631.37895623810641
 30
0.0
 11
-521.73327563754526
 21
631.37895623810641
 31
0.0
  0
ARC
  5
88F
  8
0
 10
-520.73327563754526
 20
654.37895623810653
 30
0.0
 40
3.0
 50
0.0
 51
90.0
  0
ARC
  5
890
  8
0
 10
-520.73327563754526
 20
654.37895623810653
 30
0.0
 40
0.5
 50
0.0
 51
90.0
  0
LINE
  5
891
  8
0
 10
-525.23327563754526
 20
657.37895623810653
 30
0.0
 11
-521.73327563754526
 21
657.37895623810653
 31
0.0
  0
LINE
  5
892
  8
0
 10
-521.06337634950273
 20
682.3304085844029
 30
0.0
 11
-531.55549972772576
 21
670.85464863947175
 31
0.0
  0
LINE
  5
893
  8
0
 10
-531.55549972772576
 20
670.85464863947163
 30
0.0
 11
-533.86418522955535
 21
668.32952387184548
 31
0.0
  0
LINE
  5
894
  8
0
 10
-540.10155439375956
 20
669.87895623810641
 30
0.0
 11
-540.10155439375956
 21
673.87895623810641
 31
0.0
  0
ARC
  5
895
  8
0
 10
-526.48389710953268
 20
661.581831876396
 30
0.0
 40
10.0
 50
137.56377021146579
 51
152.2421433828417
  0
ARC
  5
896
  8
0
 10
-533.76958616373258
 20
672.87895623810641
 30
0.0
 40
3.0
 50
270.0
 51
317.56377021146352
  0
ARC
  5
897
  8
0
 10
-513.68308822947995
 20
675.58271658895364
 30
0.0
 40
10.0
 50
99.462322208024275
 51
137.56377021146349
  0
LINE
  5
898
  8
0
 10
-509.73327563754532
 20
653.37895623810653
 30
0.0
 11
-509.73327563754532
 21
635.37895623810664
 31
0.0
  0
LINE
  5
899
  8
0
 10
-507.23327563754538
 20
654.37895623810653
 30
0.0
 11
-507.23327563754538
 21
634.37895623810664
 31
0.0
  0
LINE
  5
89A
  8
0
 10
-505.73327563754532
 20
631.37895623810641
 30
0.0
 11
-497.24894791521979
 21
631.37895623810641
 31
0.0
  0
LINE
  5
89B
  8
0
 10
-506.73327563754538
 20
633.87895623810664
 30
0.0
 11
-497.24894791521979
 21
633.87895623810664
 31
0.0
  0
ARC
  5
89C
  8
0
 10
-506.73327563754538
 20
634.37895623810664
 30
0.0
 40
0.5
 50
180.0
 51
270.0
  0
ARC
  5
89D
  8
0
 10
-506.73327563754538
 20
634.37895623810641
 30
0.0
 40
3.0
 50
180.0
 51
270.0
  0
LINE
  5
89E
  8
0
 10
-506.73327563754538
 20
654.87895623810653
 30
0.0
 11
-497.24894791521979
 21
654.87895623810641
 31
0.0
  0
LINE
  5
89F
  8
0
 10
-505.73327563754532
 20
657.37895623810653
 30
0.0
 11
-497.24894791521979
 21
657.37895623810641
 31
0.0
  0
ARC
  5
8A0
  8
0
 10
-506.73327563754538
 20
654.37895623810653
 30
0.0
 40
0.5
 50
90.0
 51
180.0
  0
ARC
  5
8A1
  8
0
 10
-506.73327563754538
 20
654.37895623810653
 30
0.0
 40
3.0
 50
90.0
 51
180.0
  0
ARC
  5
8A2
  8
0
 10
-499.73327563754532
 20
683.37895623810618
 30
0.0
 40
4.0
 50
355.16274289233121
 51
90.0
  0
LINE
  5
8A3
  8
0
 10
-507.98327563754532
 20
683.37895623810664
 30
0.0
 11
-507.98327563754532
 21
666.37895623810653
 31
0.0
  0
ARC
  5
8A4
  8
0
 10
-506.48327563754532
 20
674.8789562381063
 30
0.0
 40
4.5
 50
270.0
 51
90.0
  0
LINE
  5
8A5
  8
0
 10
-509.48327563754538
 20
679.37895623810641
 30
0.0
 11
-506.48327563754532
 21
679.37895623810641
 31
0.0
  0
LINE
  5
8A6
  8
0
 10
-509.48327563754538
 20
670.37895623810653
 30
0.0
 11
-506.48327563754532
 21
670.37895623810653
 31
0.0
  0
LINE
  5
8A7
  8
0
 10
-502.90565033456278
 20
687.37895623810618
 30
0.0
 11
-499.73327563754532
 21
687.37895623810618
 31
0.0
  0
ARC
  5
8A8
  8
0
 10
-502.90565033456278
 20
677.37895623810607
 30
0.0
 40
10.0
 50
90.0
 51
99.462322208024275
  0
LINE
  5
8A9
  8
0
 10
-515.60710789322479
 20
820.46957805091245
 30
0.0
 11
-515.60710789322479
 21
834.19594031194322
 31
0.0
  0
LINE
  5
8AA
  8
0
 10
-521.60710789322468
 20
820.46957805091245
 30
0.0
 11
-521.60710789322468
 21
834.19594031194322
 31
0.0
  0
ARC
  5
8AB
  8
0
 10
-547.60710789322502
 20
825.19594031194322
 30
0.0
 40
12.99999999999994
 50
8.8498830984295207
 51
30.683417108975171
  0
LINE
  5
8AC
  8
0
  6
CENTER
 10
-547.60710789322479
 20
720.19594031194322
 30
0.0
 11
-547.60710789322479
 21
858.19594031194322
 31
0.0
  0
LINE
  5
8AD
  8
0
 10
-573.60710789322479
 20
820.46957805091245
 30
0.0
 11
-573.60710789322479
 21
834.19594031194322
 31
0.0
  0
LINE
  5
8AE
  8
0
 10
-579.60710789322468
 20
820.46957805091245
 30
0.0
 11
-579.60710789322468
 21
834.19594031194322
 31
0.0
  0
ARC
  5
8AF
  8
0
 10
-547.60710789322479
 20
825.19594031194322
 30
0.0
 40
12.99999999999994
 50
149.31658289102481
 51
171.15011690157041
  0
CIRCLE
  5
8B1
  8
0
 10
-547.60710789322479
 20
775.19594031194322
 30
0.0
 40
6.5
  0
POLYLINE
  5
8B2
  8
0
 66
     1
 10
0.0
 20
0.0
 30
0.0
 70
     1
  0
VERTEX
  5
1905
  8
0
 10
-551.35988464295735
 20
781.69594031194322
 30
0.0
  0
VERTEX
  5
1906
  8
0
 10
-555.11266139268992
 20
775.19594031194322
 30
0.0
  0
VERTEX
  5
1907
  8
0
 10
-551.35988464295735
 20
768.6959403119431
 30
0.0
  0
VERTEX
  5
1908
  8
0
 10
-543.85433114349235
 20
768.6959403119431
 30
0.0
  0
VERTEX
  5
1909
  8
0
 10
-540.10155439375956
 20
775.19594031194322
 30
0.0
  0
VERTEX
  5
190A
  8
0
 10
-543.85433114349235
 20
781.69594031194322
 30
0.0
  0
SEQEND
  5
190B
  8
0
  0
ARC
  5
8B3
  8
0
 10
-541.77723477068992
 20
771.19594031194322
 30
0.0
 40
6.0
 50
270.0
 51
336.87347961125062
  0
ARC
  5
8B4
  8
0
 10
-547.60710789322479
 20
775.19594031194322
 30
0.0
 40
13.0
 50
219.92524649525851
 51
320.07475350474141
  0
ARC
  5
8B5
  8
0
 10
-547.60710789322479
 20
775.19594031194322
 30
0.0
 40
15.0
 50
172.68676129753061
 51
7.3132387024692997
  0
LINE
  5
8B7
  8
0
  6
CENTER
 10
-602.60710789322479
 20
775.19594031194322
 30
0.0
 11
-492.60710789322468
 21
775.19594031194322
 31
0.0
  0
LINE
  5
8BA
  8
0
 10
-559.92410421324689
 20
756.96707305002701
 30
0.0
 11
-555.80609606161829
 21
762.63502501828145
 31
0.0
  0
LINE
  5
8BB
  8
0
 10
-561.13762970480934
 20
757.84875092846562
 30
0.0
 11
-557.0196215531804
 21
763.51670289672018
 31
0.0
  0
LINE
  5
8BD
  8
0
 10
-563.13614300943482
 20
793.90617327274333
 30
0.0
 11
-572.80350587779515
 21
816.54194974500217
 31
0.0
  0
LINE
  5
8BE
  8
0
 10
-558.95481980650197
 20
768.8393633283971
 30
0.0
 11
-578.32134466853756
 21
814.18537276145594
 31
0.0
  0
ARC
  5
8BF
  8
0
 10
-563.60710789322468
 20
820.46957805091245
 30
0.0
 40
16.0
 50
180.0
 51
203.1265203887493
  0
ARC
  5
8C0
  8
0
 10
-563.60710789322468
 20
820.46957805091245
 30
0.0
 40
10.0
 50
180.0
 51
203.1265203887493
  0
LINE
  5
8C1
  8
0
 10
-556.60710789322479
 20
782.52654486863673
 30
0.0
 11
-556.60710789322479
 21
825.19594031194322
 31
0.0
  0
LINE
  5
8C2
  8
0
 10
-560.60710789322479
 20
791.89239852717333
 30
0.0
 11
-560.60710789322502
 21
825.19594031194322
 31
0.0
  0
ARC
  5
8C3
  8
0
 10
-553.43698101575967
 20
771.19594031194333
 30
0.0
 40
6.0
 50
203.1265203887493
 51
270.0
  0
LINE
  5
8C4
  8
0
 10
-568.74995206989024
 20
781.27707015114606
 30
0.0
 11
-563.54439321307609
 21
779.58568154866782
 31
0.0
  0
LINE
  5
8C5
  8
0
 10
-568.28642657832779
 20
782.70365492558892
 30
0.0
 11
-564.32652023663877
 21
781.41700335993664
 31
0.0
  0
LINE
  5
8C7
  8
0
 10
-553.43698101575967
 20
765.19594031194333
 30
0.0
 11
-541.77723477068992
 21
765.19594031194322
 31
0.0
  0
ARC
  5
8C8
  8
0
 10
-547.60710789322479
 20
811.50418585187094
 30
0.0
 40
14.793812042128449
 50
74.312922171133209
 51
105.68707782886671
  0
ARC
  5
8C9
  8
0
 10
-547.60710789322479
 20
825.19594031194322
 30
0.0
 40
8.9999999999999432
 50
139.1782339055421
 51
167.16041159309549
  0
LINE
  5
8CB
  8
0
 10
-535.29011157320292
 20
756.9670730500269
 30
0.0
 11
-539.40811972483152
 21
762.63502501828145
 31
0.0
  0
LINE
  5
8CC
  8
0
 10
-534.07658608164047
 20
757.84875092846562
 30
0.0
 11
-538.19459423326896
 21
763.51670289672018
 31
0.0
  0
LINE
  5
8CE
  8
0
 10
-534.60710789322502
 20
791.89239852717333
 30
0.0
 11
-534.60710789322468
 21
825.19594031194322
 31
0.0
  0
LINE
  5
8CF
  8
0
 10
-538.60710789322502
 20
782.52654486863673
 30
0.0
 11
-538.60710789322502
 21
825.19594031194322
 31
0.0
  0
LINE
  5
8D0
  8
0
 10
-532.07807277701488
 20
793.90617327274333
 30
0.0
 11
-522.41070990865433
 21
816.54194974500217
 31
0.0
  0
LINE
  5
8D1
  8
0
 10
-536.25939597994784
 20
768.83936332839687
 30
0.0
 11
-516.89287111791214
 21
814.18537276145594
 31
0.0
  0
LINE
  5
8D2
  8
0
 10
-526.46426371655934
 20
781.27707015114606
 30
0.0
 11
-531.66982257337395
 21
779.58568154866759
 31
0.0
  0
LINE
  5
8D4
  8
0
 10
-526.92778920812179
 20
782.70365492558903
 30
0.0
 11
-530.88769554981104
 21
781.41700335993653
 31
0.0
  0
ARC
  5
8D5
  8
0
 10
-547.60710789322502
 20
825.19594031194322
 30
0.0
 40
8.9999999999999432
 50
12.83958840690442
 51
40.8217660944578
  0
ARC
  5
8D6
  8
0
 10
-531.60710789322479
 20
820.46957805091245
 30
0.0
 40
16.0
 50
336.87347961125062
 51
0.0
  0
ARC
  5
8D7
  8
0
 10
-531.60710789322479
 20
820.46957805091245
 30
0.0
 40
10.0
 50
336.87347961125062
 51
0.0
  0
LINE
  5
8D8
  8
0
 10
-599.10710789322502
 20
853.1959403119431
 30
0.0
 11
-496.10710789322468
 21
853.1959403119431
 31
0.0
  0
ARC
  5
8D9
  8
0
 10
-598.51379207176137
 20
836.10367333791226
 30
0.0
 40
17.10256162028216
 50
32.608765555733818
 51
91.988083172640785
  0
ARC
  5
8DA
  8
0
 10
-595.60710789322468
 20
834.19594031194322
 30
0.0
 40
16.0
 50
0.0
 51
90.0
  0
LINE
  5
8DB
  8
0
 10
-595.60710789322468
 20
850.19594031194322
 30
0.0
 11
-599.10710789322479
 21
850.19594031194322
 31
0.0
  0
LINE
  5
8DC
  8
0
 10
-599.10710789322479
 20
853.1959403119431
 30
0.0
 11
-599.10710789322479
 21
850.19594031194322
 31
0.0
  0
ARC
  5
8DD
  8
0
 10
-595.60710789322468
 20
834.19594031194322
 30
0.0
 40
22.0
 50
0.0
 51
31.36542454593528
  0
LINE
  5
8DE
  8
0
 10
-557.10710789322491
 20
839.95329113411594
 30
0.0
 11
-557.10710789322479
 21
851.19594031194322
 31
0.0
  0
ARC
  5
8DF
  8
0
 10
-547.60710789322479
 20
851.39425428765594
 30
0.0
 40
14.793812042128449
 50
254.3129221711331
 51
285.68707782886668
  0
ARC
  5
8E0
  8
0
 10
-496.70042371468838
 20
836.10367333791226
 30
0.0
 40
17.10256162028216
 50
88.011916827359201
 51
147.3912344442661
  0
ARC
  5
8E1
  8
0
 10
-499.60710789322468
 20
834.19594031194322
 30
0.0
 40
16.0
 50
90.0
 51
180.0
  0
LINE
  5
8E2
  8
0
 10
-538.10710789322468
 20
839.95329113411594
 30
0.0
 11
-538.10710789322502
 21
851.19594031194322
 31
0.0
  0
ARC
  5
8E3
  8
0
 10
-499.60710789322468
 20
834.19594031194322
 30
0.0
 40
22.0
 50
148.6345754540647
 51
180.0
  0
LINE
  5
8E4
  8
0
 10
-496.10710789322468
 20
853.1959403119431
 30
0.0
 11
-496.10710789322502
 21
850.19594031194322
 31
0.0
  0
LINE
  5
8E5
  8
0
 10
-499.60710789322468
 20
850.19594031194322
 30
0.0
 11
-496.10710789322468
 21
850.19594031194322
 31
0.0
  0
POLYLINE
  5
8E6
  8
0
 66
     1
 10
0.0
 20
0.0
 30
0.0
 70
     1
  0
VERTEX
  5
190C
  8
0
 10
-396.9722026324668
 20
960.21901361919356
 30
0.0
  0
VERTEX
  5
190D
  8
0
 10
-81.11977349060021
 20
960.21901361919356
 30
0.0
  0
VERTEX
  5
190E
  8
0
 10
-81.11977349060021
 20
580.59904131137387
 30
0.0
  0
VERTEX
  5
190F
  8
0
 10
-396.9722026324668
 20
580.59904131137387
 30
0.0
  0
SEQEND
  5
1910
  8
0
  0
ARC
  5
8E7
  8
0
 10
-547.60710789322479
 20
775.19594031194322
 30
0.0
 40
22.0
 50
149.13025185266289
 51
30.869748147337042
  0
ARC
  5
8E8
  8
0
 10
-547.60710789322479
 20
775.19594031194322
 30
0.0
 40
30.0
 50
138.6627129597729
 51
41.337287040227103
  0
ARC
  5
8E9
  8
0
 10
-547.60710789322479
 20
775.19594031194322
 30
0.0
 40
48.0
 50
128.7566172321867
 51
51.24338276781323
  0
ARC
  5
8EA
  8
0
 10
-547.60710789322479
 20
775.19594031194322
 30
0.0
 40
50.0
 50
128.11105821183949
 51
51.888941788160437
  0
POLYLINE
  5
995
  8
0
 66
     1
 10
0.0
 20
0.0
 30
0.0
 70
     1
  0
VERTEX
  5
1911
  8
0
 10
-764.62543300939842
 20
884.06680258107156
 30
0.0
  0
VERTEX
  5
1912
  8
0
 10
-454.78918565275228
 20
884.06680258107156
 30
0.0
  0
VERTEX
  5
1913
  8
0
 10
-454.78918565275228
 20
580.59904131137387
 30
0.0
  0
VERTEX
  5
1914
  8
0
 10
-764.62543300939842
 20
580.59904131137387
 30
0.0
  0
SEQEND
  5
1915
  8
0
  0
ARC
  5
9E8
  8
0
 10
293.41015050116448
 20
856.5157869138701
 30
0.0
 40
80.0
 50
121.8251629816842
 51
58.174837018315799
  0
ARC
  5
9E9
  8
0
 10
293.41015050116448
 20
856.5157869138701
 30
0.0
 40
42.0
 50
134.19921834392261
 51
45.800781656077362
  0
ARC
  5
9ED
  8
0
 10
293.41015050116448
 20
856.5157869138701
 30
0.0
 40
18.0
 50
198.8222848187701
 51
341.17771518122981
  0
LINE
  5
9EE
  8
0
  6
CENTER
 10
293.41015050116448
 20
981.5157869138701
 30
0.0
 11
293.41015050116448
 21
771.5157869138701
 31
0.0
  0
LINE
  5
9F1
  8
0
 10
294.91015050116442
 20
838.5783957992179
 30
0.0
 11
294.91015050116442
 21
814.54258117497045
 31
0.0
  0
LINE
  5
9F2
  8
0
 10
291.91015050116442
 20
838.5783957992179
 30
0.0
 11
291.91015050116442
 21
814.54258117497045
 31
0.0
  0
LINE
  5
9F4
  8
0
 10
361.91015050116448
 20
976.51578691386999
 30
0.0
 11
224.9101505011644
 21
976.51578691386999
 31
0.0
  0
LINE
  5
9F7
  8
0
 10
224.9101505011644
 20
976.51578691386999
 30
0.0
 11
224.9101505011644
 21
973.72318293410729
 31
0.0
  0
ARC
  5
9FA
  8
0
 10
225.3266562438873
 20
965.08402575016055
 30
0.0
 40
11.43934614992563
 50
22.571766425296701
 51
92.086596272436424
  0
LINE
  5
A51
  8
0
 10
235.88974245908761
 20
969.4749083434516
 30
0.0
 11
276.3727212843076
 21
850.70837736394219
 31
0.0
  0
ARC
  5
A53
  8
0
 10
224.8880541209314
 20
957.35365548601862
 30
0.0
 40
16.369542361463449
 50
47.771977221415113
 51
89.922659431376886
  0
ARC
  5
AA6
  8
0
 10
361.93224688139742
 20
957.35365548601862
 30
0.0
 40
16.369542361463449
 50
90.077340568623086
 51
132.2280227785848
  0
ARC
  5
AA7
  8
0
 10
361.49364475844152
 20
965.08402575016055
 30
0.0
 40
11.43934614992563
 50
87.91340372756359
 51
157.4282335747032
  0
LINE
  5
AA8
  8
0
 10
361.91015050116448
 20
976.51578691386999
 30
0.0
 11
361.91015050116448
 21
973.72318293410729
 31
0.0
  0
LINE
  5
AA9
  8
0
 10
350.93055854324132
 20
969.4749083434516
 30
0.0
 11
310.4475797180213
 21
850.70837736394219
 31
0.0
  0
LINE
  5
B4E
  8
0
 10
307.15446156691002
 20
844.89279619168406
 30
0.0
 11
324.15034907905829
 21
827.89690867953584
 31
0.0
  0
LINE
  5
B4F
  8
0
 10
305.03314122335041
 20
842.77147584812428
 30
0.0
 11
322.02902873549863
 21
825.77558833597607
 31
0.0
  0
LINE
  5
B50
  8
0
 10
312.9383968163836
 20
858.01578691386999
 30
0.0
 11
335.38335624006407
 21
858.01578691386999
 31
0.0
  0
LINE
  5
B51
  8
0
 10
311.9158112826139
 20
855.0157869138701
 30
0.0
 11
335.38335624006407
 21
855.0157869138701
 31
0.0
  0
LINE
  5
B53
  8
0
 10
321.1643872008753
 20
882.14870327002154
 30
0.0
 11
324.15034907905829
 21
885.13466514820436
 31
0.0
  0
LINE
  5
B56
  8
0
 10
265.65591380145349
 20
882.14870327002131
 30
0.0
 11
262.6699519232705
 21
885.13466514820425
 31
0.0
  0
LINE
  5
B58
  8
0
 10
274.90448971971489
 20
855.0157869138701
 30
0.0
 11
251.4369447622648
 21
855.0157869138701
 31
0.0
  0
LINE
  5
B59
  8
0
 10
273.8819041859453
 20
858.01578691386999
 30
0.0
 11
251.4369447622648
 21
858.01578691386999
 31
0.0
  0
LINE
  5
B5A
  8
0
 10
281.78715977897849
 20
842.77147584812428
 30
0.0
 11
264.79127226683022
 21
825.77558833597607
 31
0.0
  0
LINE
  5
B5B
  8
0
 10
279.66583943541872
 20
844.89279619168417
 30
0.0
 11
262.6699519232705
 21
827.89690867953595
 31
0.0
  0
ARC
  5
B5C
  8
0
 10
293.41015050116448
 20
856.5157869138701
 30
0.0
 40
60.0
 50
126.27988794249229
 51
53.72011205750762
  0
ARC
  5
B5D
  8
0
 10
293.41015050116448
 20
856.5157869138701
 30
0.0
 40
52.0
 50
129.07453156095801
 51
50.92546843904212
  0
LINE
  5
BB4
  8
0
 10
277.91015050116442
 20
969.47490834345138
 30
0.0
 11
277.91015050116442
 21
858.59591450904395
 31
0.0
  0
LINE
  5
BB5
  8
0
 10
264.91015050116442
 20
969.4749083434516
 30
0.0
 11
264.91015050116442
 21
896.73453344317625
 31
0.0
  0
POLYLINE
  5
C08
  8
0
 66
     1
 10
0.0
 20
0.0
 30
0.0
 70
     1
  0
VERTEX
  5
1916
  8
0
 10
287.92532294386308
 20
866.01578691386999
 30
0.0
  0
VERTEX
  5
1917
  8
0
 10
282.44049538656151
 20
856.5157869138701
 30
0.0
  0
VERTEX
  5
1918
  8
0
 10
287.92532294386302
 20
847.01578691386999
 30
0.0
  0
VERTEX
  5
1919
  8
0
 10
298.89497805846582
 20
847.01578691386999
 30
0.0
  0
VERTEX
  5
191A
  8
0
 10
304.37980561576728
 20
856.5157869138701
 30
0.0
  0
VERTEX
  5
191B
  8
0
 10
298.89497805846588
 20
866.01578691386999
 30
0.0
  0
SEQEND
  5
191C
  8
0
  0
CIRCLE
  5
C09
  8
0
 10
293.41015050116448
 20
856.5157869138701
 30
0.0
 40
9.5000000000000142
  0
LINE
  5
D05
  8
0
 10
308.91015050116442
 20
969.47490834345138
 30
0.0
 11
308.91015050116442
 21
858.59591450904395
 31
0.0
  0
LINE
  5
D06
  8
0
 10
321.91015050116442
 20
969.4749083434516
 30
0.0
 11
321.91015050116442
 21
896.73453344317625
 31
0.0
  0
LINE
  5
D5B
  8
0
 10
236.64137436020681
 20
713.01361457981
 30
0.0
 11
255.2870605441247
 21
713.01361457981
 31
0.0
  0
ARC
  5
D5F
  8
0
 10
887.41015050116778
 20
655.51361457981034
 30
0.0
 40
662.50000000000341
 50
175.8253501337222
 51
184.17464986627769
  0
ARC
  5
D62
  8
0
 10
236.64137436020681
 20
703.01361457981022
 30
0.0
 40
10.0
 50
90.0
 51
175.8253501337214
  0
LINE
  5
D66
  8
0
  6
CENTER
 10
210.41015050116459
 20
655.51361457981045
 30
0.0
 11
376.41015050116431
 21
655.51361457981045
 31
0.0
  0
LINE
  5
D68
  8
0
 10
287.53324045820432
 20
688.51361457981034
 30
0.0
 11
299.28706054412459
 21
688.51361457981034
 31
0.0
  0
LINE
  5
D6A
  8
0
 10
269.42064487524351
 20
704.51306749019966
 30
0.0
 11
273.39965612708539
 21
697.01416166942056
 31
0.0
  0
ARC
  5
D6B
  8
0
 10
255.2870605441247
 20
697.01361457981
 30
0.0
 40
16.0
 50
27.950969027890508
 51
90.000000000000057
  0
ARC
  5
D6C
  8
0
 10
287.53324045820432
 20
704.51361457981034
 30
0.0
 40
16.0
 50
207.9509690278903
 51
270.0
  0
ARC
  5
D6D
  8
0
 10
236.64137436020681
 20
608.01361457981068
 30
0.0
 40
10.0
 50
184.17464986627849
 51
270.0
  0
ARC
  5
D6E
  8
0
 10
287.53324045820432
 20
606.51361457981045
 30
0.0
 40
16.0
 50
90.000000000000028
 51
152.04903097210959
  0
ARC
  5
D6F
  8
0
 10
255.2870605441247
 20
614.01361457981068
 30
0.0
 40
16.0
 50
269.99999999999989
 51
332.04903097210939
  0
LINE
  5
D70
  8
0
 10
269.42064487524351
 20
606.51416166942113
 30
0.0
 11
273.39965612708539
 21
614.01306749020023
 31
0.0
  0
LINE
  5
D71
  8
0
 10
236.64137436020681
 20
598.01361457981068
 30
0.0
 11
255.2870605441247
 21
598.01361457981068
 31
0.0
  0
ARC
  5
D73
  8
0
 10
350.17892664212218
 20
608.01361457981068
 30
0.0
 40
10.0
 50
270.0
 51
355.82535013372137
  0
ARC
  5
D74
  8
0
 10
350.17892664212218
 20
703.01361457981022
 30
0.0
 40
10.0
 50
4.1746498662785312
 51
90.0
  0
ARC
  5
D75
  8
0
 10
-300.58984949883887
 20
655.51361457981034
 30
0.0
 40
662.50000000000341
 50
355.82535013372228
 51
4.1746498662777434
  0
ARC
  5
D76
  8
0
 10
299.28706054412459
 20
606.51361457981045
 30
0.0
 40
16.0
 50
27.950969027890391
 51
89.999999999999986
  0
LINE
  5
D77
  8
0
 10
350.17892664212218
 20
598.01361457981068
 30
0.0
 11
331.5332404582042
 21
598.01361457981068
 31
0.0
  0
LINE
  5
D78
  8
0
 10
317.39965612708539
 20
606.51416166942113
 30
0.0
 11
313.4206448752434
 21
614.01306749020023
 31
0.0
  0
ARC
  5
D79
  8
0
 10
331.5332404582042
 20
614.01361457981068
 30
0.0
 40
16.0
 50
207.95096902789041
 51
270.0
  0
ARC
  5
D7A
  8
0
 10
299.28706054412459
 20
704.51361457981034
 30
0.0
 40
16.0
 50
270.0
 51
332.04903097210962
  0
ARC
  5
D7B
  8
0
 10
331.5332404582042
 20
697.01361457981
 30
0.0
 40
16.0
 50
89.999999999999943
 51
152.04903097210951
  0
LINE
  5
D7C
  8
0
 10
317.39965612708539
 20
704.51306749019966
 30
0.0
 11
313.4206448752434
 21
697.01416166942056
 31
0.0
  0
LINE
  5
D7D
  8
0
 10
350.17892664212218
 20
713.01361457981
 30
0.0
 11
331.5332404582042
 21
713.01361457981
 31
0.0
  0
LINE
  5
D7E
  8
0
 10
287.53324045820432
 20
622.51361457981056
 30
0.0
 11
299.28706054412459
 21
622.51361457981056
 31
0.0
  0
LINE
  5
DD6
  8
0
  6
CENTER
 10
240.9101505011644
 20
707.26361457981045
 30
0.0
 11
240.9101505011644
 21
681.26361457981045
 31
0.0
  0
LINE
  5
DD7
  8
0
  6
CENTER
 10
230.4101505011644
 20
694.26361457981045
 30
0.0
 11
251.4101505011644
 21
694.26361457981045
 31
0.0
  0
ARC
  5
DD9
  8
0
 10
240.91015050116451
 20
696.76361457981045
 30
0.0
 40
5.5
 50
0.0
 51
180.0
  0
ARC
  5
DDA
  8
0
 10
240.91015050116451
 20
691.76361457981045
 30
0.0
 40
5.5
 50
180.0
 51
0.0
  0
LINE
  5
DDB
  8
0
 10
235.4101505011644
 20
691.76361457981045
 30
0.0
 11
235.4101505011644
 21
696.76361457981045
 31
0.0
  0
LINE
  5
DDC
  8
0
 10
246.4101505011644
 20
691.76361457981045
 30
0.0
 11
246.4101505011644
 21
696.76361457981045
 31
0.0
  0
LINE
  5
DE2
  8
0
  6
CENTER
 10
345.91015050116442
 20
707.26361457981045
 30
0.0
 11
345.91015050116442
 21
681.26361457981045
 31
0.0
  0
LINE
  5
DE3
  8
0
 10
351.41015050116448
 20
691.76361457981045
 30
0.0
 11
351.41015050116448
 21
696.76361457981045
 31
0.0
  0
LINE
  5
DE4
  8
0
 10
340.41015050116442
 20
691.76361457981045
 30
0.0
 11
340.41015050116442
 21
696.76361457981045
 31
0.0
  0
LINE
  5
DE5
  8
0
  6
CENTER
 10
356.41015050116442
 20
694.26361457981045
 30
0.0
 11
335.41015050116442
 21
694.26361457981045
 31
0.0
  0
ARC
  5
DE6
  8
0
 10
345.91015050116442
 20
691.76361457981045
 30
0.0
 40
5.5
 50
180.0
 51
0.000000000000007
  0
ARC
  5
DE7
  8
0
 10
345.91015050116442
 20
696.76361457981045
 30
0.0
 40
5.5
 50
0.000000000000007
 51
180.0
  0
LINE
  5
DE8
  8
0
  6
CENTER
 10
356.41015050116442
 20
616.76361457981045
 30
0.0
 11
335.41015050116442
 21
616.76361457981045
 31
0.0
  0
LINE
  5
DE9
  8
0
 10
340.41015050116442
 20
619.26361457981045
 30
0.0
 11
340.41015050116442
 21
614.26361457981045
 31
0.0
  0
LINE
  5
DEA
  8
0
 10
351.41015050116448
 20
619.26361457981045
 30
0.0
 11
351.41015050116448
 21
614.26361457981045
 31
0.0
  0
LINE
  5
DEB
  8
0
  6
CENTER
 10
345.91015050116442
 20
603.76361457981045
 30
0.0
 11
345.91015050116442
 21
629.76361457981045
 31
0.0
  0
ARC
  5
DEC
  8
0
 10
345.91015050116442
 20
619.26361457981045
 30
0.0
 40
5.5
 50
0.0
 51
180.0
  0
ARC
  5
DED
  8
0
 10
345.91015050116442
 20
614.26361457981045
 30
0.0
 40
5.5
 50
180.0
 51
0.0
  0
LINE
  5
DEE
  8
0
  6
CENTER
 10
240.9101505011644
 20
603.76361457981045
 30
0.0
 11
240.9101505011644
 21
629.76361457981045
 31
0.0
  0
LINE
  5
DEF
  8
0
 10
235.4101505011644
 20
619.26361457981045
 30
0.0
 11
235.4101505011644
 21
614.26361457981045
 31
0.0
  0
LINE
  5
DF0
  8
0
 10
246.4101505011644
 20
619.26361457981045
 30
0.0
 11
246.4101505011644
 21
614.26361457981045
 31
0.0
  0
LINE
  5
DF1
  8
0
  6
CENTER
 10
230.4101505011644
 20
616.76361457981045
 30
0.0
 11
251.4101505011644
 21
616.76361457981045
 31
0.0
  0
ARC
  5
DF2
  8
0
 10
240.91015050116451
 20
619.26361457981045
 30
0.0
 40
5.5
 50
0.0
 51
180.0
  0
ARC
  5
DF3
  8
0
 10
240.91015050116451
 20
614.26361457981045
 30
0.0
 40
5.5
 50
180.0
 51
0.0
  0
ARC
  5
DF6
  8
0
 10
293.41015050116448
 20
655.51361457981045
 30
0.0
 40
49.5
 50
152.96430821058769
 51
207.0356917894122
  0
ARC
  5
DF9
  8
0
 10
293.41015050116448
 20
655.51361457981045
 30
0.0
 40
43.5
 50
152.96430821058769
 51
207.0356917894122
  0
ARC
  5
DFA
  8
0
 10
251.99150575955801
 20
676.64997821617408
 30
0.0
 40
3.0000000000000111
 50
332.96430821058931
 51
152.96430821058951
  0
ARC
  5
DFB
  8
0
 10
251.99150575955801
 20
634.37725094344682
 30
0.0
 40
3.0000000000000111
 50
207.03569178941049
 51
27.035691789410709
  0
ARC
  5
DFC
  8
0
 10
293.41015050116448
 20
655.51361457981045
 30
0.0
 40
43.5
 50
332.96430821058772
 51
27.03569178941229
  0
ARC
  5
DFD
  8
0
 10
293.41015050116448
 20
655.51361457981045
 30
0.0
 40
49.5
 50
332.96430821058772
 51
27.03569178941229
  0
ARC
  5
DFE
  8
0
 10
334.82879524277092
 20
676.64997821617408
 30
0.0
 40
3.0000000000000111
 50
27.035691789410478
 51
207.03569178941069
  0
ARC
  5
DFF
  8
0
 10
334.82879524277092
 20
634.37725094344682
 30
0.0
 40
3.0000000000000111
 50
152.96430821058931
 51
332.96430821058948
  0
LINE
  5
E00
  8
0
 10
120.0976904290759
 20
976.51578691386999
 30
0.0
 11
25.09769042907601
 21
976.51578691386999
 31
0.0
  0
LINE
  5
E01
  8
0
 10
15.09769042907601
 20
966.51578691386987
 30
0.0
 11
15.09769042907601
 21
942.58153779655845
 31
0.0
  0
LINE
  5
E03
  8
0
 10
120.0976904290759
 20
973.51578691386987
 30
0.0
 11
25.09769042907601
 21
973.51578691386987
 31
0.0
  0
LINE
  5
EAA
  8
0
  6
CENTER
 10
72.59769042907601
 20
981.5157869138701
 30
0.0
 11
72.59769042907601
 21
771.51578691387033
 31
0.0
  0
LINE
  5
EAB
  8
0
 10
41.597690429075989
 20
852.09606164906359
 30
0.0
 11
41.597690429075989
 21
838.5157869138701
 31
0.0
  0
LINE
  5
EAE
  8
0
 10
17.633944169609009
 20
926.85917184811012
 30
0.0
 11
40.836814306916082
 21
856.81277143359819
 31
0.0
  0
LINE
  5
EB0
  8
0
 10
44.597690429075982
 20
838.51578691386999
 30
0.0
 11
41.597690429076003
 21
838.5157869138701
 31
0.0
  0
ARC
  5
EB1
  8
0
 10
26.597690429075989
 20
852.09606164906359
 30
0.0
 40
15.0
 50
0.0000000000000509
 51
18.32745217698255
  0
LINE
  5
EB2
  8
0
 10
44.59769042907589
 20
973.51578691386987
 30
0.0
 11
44.597690429075982
 21
838.5157869138701
 31
0.0
  0
ARC
  5
EB3
  8
0
 10
26.597690429075989
 20
852.09606164906359
 30
0.0
 40
18.0
 50
0.0000000000000509
 51
18.32745217698255
  0
ARC
  5
EB6
  8
0
 10
65.09769042907601
 20
942.58153779655845
 30
0.0
 40
50.0
 50
180.0
 51
198.32745217698249
  0
LINE
  5
EB7
  8
0
 10
20.481768945177031
 20
927.80251380501693
 30
0.0
 11
43.684639082484097
 21
857.75611339050511
 31
0.0
  0
ARC
  5
EB8
  8
0
 10
65.09769042907601
 20
942.58153779655845
 30
0.0
 40
47.0
 50
180.0
 51
198.32745217698249
  0
LINE
  5
EB9
  8
0
 10
18.09769042907601
 20
966.51578691386987
 30
0.0
 11
18.09769042907601
 21
942.58153779655845
 31
0.0
  0
ARC
  5
EBA
  8
0
 10
25.09769042907601
 20
966.51578691386987
 30
0.0
 40
10.0
 50
90.0
 51
180.0
  0
ARC
  5
EBB
  8
0
 10
25.09769042907601
 20
966.51578691386987
 30
0.0
 40
7.0
 50
90.0
 51
180.0
  0
LINE
  5
F0E
  8
0
 10
127.0976904290759
 20
966.51578691386987
 30
0.0
 11
127.0976904290759
 21
942.58153779655845
 31
0.0
  0
LINE
  5
F0F
  8
0
 10
130.0976904290759
 20
966.51578691386987
 30
0.0
 11
130.0976904290759
 21
942.58153779655845
 31
0.0
  0
LINE
  5
F10
  8
0
 10
124.7136119129749
 20
927.80251380501693
 30
0.0
 11
101.5107417756679
 21
857.75611339050511
 31
0.0
  0
LINE
  5
F11
  8
0
 10
127.5614366885429
 20
926.85917184811012
 30
0.0
 11
104.3585665512359
 21
856.81277143359819
 31
0.0
  0
LINE
  5
F12
  8
0
 10
100.597690429076
 20
973.51578691386987
 30
0.0
 11
100.597690429076
 21
838.5157869138701
 31
0.0
  0
LINE
  5
F13
  8
0
 10
103.597690429076
 20
852.09606164906359
 30
0.0
 11
103.597690429076
 21
838.5157869138701
 31
0.0
  0
LINE
  5
F14
  8
0
 10
100.597690429076
 20
838.51578691386999
 30
0.0
 11
103.597690429076
 21
838.5157869138701
 31
0.0
  0
ARC
  5
F15
  8
0
 10
118.597690429076
 20
852.09606164906359
 30
0.0
 40
18.0
 50
161.6725478230174
 51
179.99999999999989
  0
ARC
  5
F16
  8
0
 10
118.597690429076
 20
852.09606164906359
 30
0.0
 40
15.0
 50
161.6725478230174
 51
179.99999999999989
  0
ARC
  5
F17
  8
0
 10
80.097690429075968
 20
942.58153779655845
 30
0.0
 40
50.0
 50
341.6725478230174
 51
0.000000000000007
  0
ARC
  5
F19
  8
0
 10
80.097690429075968
 20
942.58153779655845
 30
0.0
 40
47.0
 50
341.6725478230174
 51
0.000000000000007
  0
ARC
  5
F1A
  8
0
 10
120.0976904290759
 20
966.51578691386987
 30
0.0
 40
7.0
 50
0.000000000000007
 51
90.0
  0
ARC
  5
F1B
  8
0
 10
120.0976904290759
 20
966.51578691386987
 30
0.0
 40
10.0
 50
0.000000000000007
 51
90.0
  0
LINE
  5
FC1
  8
0
 10
37.788315429075922
 20
866.01578691386999
 30
0.0
 11
35.597690429075968
 21
866.01578691387022
 31
0.0
  0
LINE
  5
FC2
  8
0
 10
41.597690429075989
 20
847.01578691387022
 30
0.0
 11
35.597690429075961
 21
847.01578691387022
 31
0.0
  0
LINE
  5
FC3
  8
0
 10
40.931776677722333
 20
856.5157869138701
 30
0.0
 11
35.597690429076088
 21
856.5157869138701
 31
0.0
  0
LINE
  5
FC4
  8
0
 10
33.597690429075989
 20
861.26578691387022
 30
0.0
 11
33.597690429075989
 21
851.76578691386999
 31
0.0
  0
ARC
  5
FC8
  8
0
 10
40.238315429075939
 20
861.26578691387022
 30
0.0
 40
6.640624999999984
 50
134.33269164416481
 51
225.66730835583601
  0
ARC
  5
FC9
  8
0
 10
40.238315429075797
 20
851.76578691386999
 30
0.0
 40
6.6406249999998108
 50
134.33269164416319
 51
225.66730835583621
  0
ARC
  5
FCA
  8
0
 10
105.957065429076
 20
861.26578691387022
 30
0.0
 40
6.640624999999984
 50
314.33269164416402
 51
45.667308355835189
  0
LINE
  5
FCB
  8
0
 10
112.597690429076
 20
861.26578691387022
 30
0.0
 11
112.597690429076
 21
851.76578691386999
 31
0.0
  0
ARC
  5
FCC
  8
0
 10
105.9570654290761
 20
851.76578691386999
 30
0.0
 40
6.6406249999998108
 50
314.33269164416367
 51
45.667308355836752
  0
LINE
  5
FCD
  8
0
 10
107.407065429076
 20
866.01578691386999
 30
0.0
 11
110.597690429076
 21
866.01578691387022
 31
0.0
  0
LINE
  5
FCE
  8
0
 10
104.2636041804296
 20
856.5157869138701
 30
0.0
 11
110.5976904290759
 21
856.5157869138701
 31
0.0
  0
LINE
  5
FCF
  8
0
 10
103.597690429076
 20
847.01578691387022
 30
0.0
 11
110.597690429076
 21
847.01578691387022
 31
0.0
  0
LINE
  5
FD1
  8
0
 10
112.4789823551511
 20
850.51578691387022
 30
0.0
 11
117.697690429076
 21
850.51578691387022
 31
0.0
  0
LINE
  5
FD2
  8
0
 10
118.5976904290759
 20
861.6157869138699
 30
0.0
 11
118.597690429076
 21
851.41578691387031
 31
0.0
  0
LINE
  5
FD3
  8
0
 10
117.697690429076
 20
850.51578691387022
 30
0.0
 11
118.597690429076
 21
851.41578691387031
 31
0.0
  0
LINE
  5
FD4
  8
0
 10
117.697690429076
 20
862.51578691386976
 30
0.0
 11
118.597690429076
 21
861.6157869138699
 31
0.0
  0
LINE
  5
FD5
  8
0
 10
112.4789823551512
 20
862.51578691386976
 30
0.0
 11
117.697690429076
 21
862.51578691386976
 31
0.0
  0
LINE
  5
FD6
  8
0
 10
117.697690429076
 20
862.51578691386976
 30
0.0
 11
117.697690429076
 21
850.51578691387022
 31
0.0
  0
LINE
  5
FD8
  8
0
 10
118.597690429076
 20
851.41578691387031
 30
0.0
 11
112.58846048521799
 21
851.41578691387031
 31
0.0
  0
LINE
  5
FD9
  8
0
 10
118.597690429076
 20
861.6157869138699
 30
0.0
 11
112.58846048521799
 21
861.6157869138699
 31
0.0
  0
LINE
  5
FDC
  8
0
  6
CENTER
 10
123.597690429076
 20
856.5157869138701
 30
0.0
 11
21.597690429076
 21
856.51578691387033
 31
0.0
  0
LINE
  5
102F
  8
0
 10
94.597690429075996
 20
971.01578691386987
 30
0.0
 11
50.597690429076003
 21
971.01578691386987
 31
0.0
  0
LINE
  5
1030
  8
0
 10
48.59769042907601
 20
973.51578691386987
 30
0.0
 11
48.59769042907601
 21
973.01578691386999
 31
0.0
  0
LINE
  5
1031
  8
0
 10
96.59769042907601
 20
973.51578691386987
 30
0.0
 11
96.59769042907601
 21
973.01578691386999
 31
0.0
  0
ARC
  5
1033
  8
0
 10
50.597690429076003
 20
973.01578691386999
 30
0.0
 40
2.0
 50
180.0
 51
270.0
  0
ARC
  5
1034
  8
0
 10
94.597690429075996
 20
973.01578691386999
 30
0.0
 40
2.0
 50
270.0
 51
0.0
  0
LINE
  5
10DA
  8
0
 10
100.597690429076
 20
842.01578691387022
 30
0.0
 11
92.59769042907601
 21
842.01578691387022
 31
0.0
  0
LINE
  5
10DB
  8
0
 10
100.597690429076
 20
871.0157869138701
 30
0.0
 11
92.59769042907601
 21
871.01578691387022
 31
0.0
  0
LINE
  5
10DC
  8
0
 10
92.59769042907601
 20
916.5157869138701
 30
0.0
 11
92.59769042907601
 21
796.51578691387033
 31
0.0
  0
LINE
  5
10E3
  8
0
 10
84.597690429075996
 20
934.0157869138701
 30
0.0
 11
84.597690429075996
 21
779.01578691387033
 31
0.0
  0
LINE
  5
10E4
  8
0
 10
92.59769042907601
 20
916.5157869138701
 30
0.0
 11
84.597690429075996
 21
934.0157869138701
 31
0.0
  0
LINE
  5
1139
  8
0
 10
60.597690429076003
 20
934.0157869138701
 30
0.0
 11
60.597690429076003
 21
779.01578691387033
 31
0.0
  0
LINE
  5
113A
  8
0
 10
52.597690429075989
 20
916.5157869138701
 30
0.0
 11
60.597690429075989
 21
934.0157869138701
 31
0.0
  0
ARC
  5
113B
  8
0
 10
72.59769042907601
 20
906.46578691386992
 30
0.0
 40
30.050000000000161
 50
66.463422135958879
 51
113.53657786404111
  0
ARC
  5
113C
  8
0
 10
72.59769042907601
 20
806.56578691387051
 30
0.0
 40
30.050000000000161
 50
246.46342213595881
 51
293.53657786404108
  0
LINE
  5
113D
  8
0
 10
52.597690429075989
 20
796.51578691387033
 30
0.0
 11
60.597690429075989
 21
779.01578691387033
 31
0.0
  0
LINE
  5
113E
  8
0
 10
92.59769042907601
 20
796.51578691387033
 30
0.0
 11
84.597690429075996
 21
779.01578691387033
 31
0.0
  0
LINE
  5
1140
  8
0
 10
52.597690429075989
 20
916.5157869138701
 30
0.0
 11
52.597690429075989
 21
796.51578691387033
 31
0.0
  0
LINE
  5
1141
  8
0
 10
44.597690429075982
 20
871.0157869138701
 30
0.0
 11
52.597690429075989
 21
871.01578691387022
 31
0.0
  0
LINE
  5
1142
  8
0
 10
44.597690429075982
 20
842.01578691387022
 30
0.0
 11
52.597690429075989
 21
842.01578691387022
 31
0.0
  0
LINE
  5
1196
  8
0
 10
215.91015050116451
 20
643.51361457981045
 30
0.0
 11
225.01883866200691
 21
643.51361457981045
 31
0.0
  0
LINE
  5
1197
  8
0
 10
215.91015050116451
 20
667.51361457981045
 30
0.0
 11
225.01883866200691
 21
667.51361457981045
 31
0.0
  0
ARC
  5
1199
  8
0
 10
343.36015050116413
 20
655.51361457981045
 30
0.0
 40
30.050000000000161
 50
336.46342213595881
 51
23.536577864041089
  0
LINE
  5
119A
  8
0
 10
361.71193310181621
 20
639.30871519725133
 30
0.0
 11
370.91015050116431
 21
643.51361457981045
 31
0.0
  0
LINE
  5
119B
  8
0
 10
361.71193310181621
 20
671.71851396236946
 30
0.0
 11
370.91015050116431
 21
667.51361457981045
 31
0.0
  0
ARC
  5
119C
  8
0
 10
243.4601505011648
 20
655.51361457981045
 30
0.0
 40
30.050000000000161
 50
156.46342213595881
 51
203.53657786404111
  0
LINE
  5
119D
  8
0
 10
225.10836790051249
 20
639.30871519725133
 30
0.0
 11
215.91015050116451
 21
643.51361457981045
 31
0.0
  0
LINE
  5
119E
  8
0
 10
225.1083679005126
 20
671.71851396236946
 30
0.0
 11
215.91015050116451
 21
667.51361457981045
 31
0.0
  0
LINE
  5
11A1
  8
0
 10
361.80146234032202
 20
667.51361457981045
 30
0.0
 11
370.91015050116431
 21
667.51361457981045
 31
0.0
  0
LINE
  5
11A2
  8
0
 10
361.80146234032202
 20
643.51361457981045
 30
0.0
 11
370.91015050116431
 21
643.51361457981045
 31
0.0
  0
POLYLINE
  5
11A3
  8
0
 66
     1
 10
0.0
 20
0.0
 30
0.0
 70
     1
  0
VERTEX
  5
191D
  8
0
 10
-17.174690317272042
 20
1000.176410940493
 30
0.0
  0
VERTEX
  5
191E
  8
0
 10
388.92079552538962
 20
1000.176410940493
 30
0.0
  0
VERTEX
  5
191F
  8
0
 10
388.92079552538962
 20
580.59904131137387
 30
0.0
  0
VERTEX
  5
1920
  8
0
 10
-17.174690317272042
 20
580.59904131137387
 30
0.0
  0
SEQEND
  5
1921
  8
0
  0
LINE
  5
11F6
  8
0
 10
532.50333742470718
 20
950.16437899083962
 30
0.0
 11
555.70620756201436
 21
880.11797857632769
 31
0.0
  0
LINE
  5
11F7
  8
0
 10
529.65551264913927
 20
949.2210370339327
 30
0.0
 11
552.85838278644633
 21
879.17463661942065
 31
0.0
  0
LINE
  5
11F8
  8
0
 10
639.58300516807321
 20
949.2210370339327
 30
0.0
 11
616.38013503076627
 21
879.17463661942065
 31
0.0
  0
LINE
  5
11F9
  8
0
 10
636.73518039250519
 20
950.16437899083962
 30
0.0
 11
613.53231025519813
 21
880.11797857632769
 31
0.0
  0
LINE
  5
11FA
  8
0
 10
612.6192589086063
 20
1015.877652099692
 30
0.0
 11
612.6192589086063
 21
860.87765209969257
 31
0.0
  0
LINE
  5
11FB
  8
0
 10
556.61925890860607
 20
1015.877652099692
 30
0.0
 11
556.6192589086063
 21
860.87765209969257
 31
0.0
  0
LINE
  5
11FC
  8
0
 10
562.1192589086063
 20
958.87765209969257
 30
0.0
 11
562.1192589086063
 21
798.87765209969291
 31
0.0
  0
LINE
  5
11FD
  8
0
  6
CENTER
 10
584.61925890860618
 20
1023.877652099693
 30
0.0
 11
584.61925890860618
 21
773.87765209969291
 31
0.0
  0
LINE
  5
11FE
  8
0
 10
570.1192589086063
 20
976.37765209969268
 30
0.0
 11
570.1192589086063
 21
781.3776520996928
 31
0.0
  0
LINE
  5
11FF
  8
0
 10
599.1192589086063
 20
976.37765209969268
 30
0.0
 11
599.1192589086063
 21
781.3776520996928
 31
0.0
  0
LINE
  5
1200
  8
0
 10
607.1192589086063
 20
958.87765209969257
 30
0.0
 11
607.1192589086063
 21
798.87765209969291
 31
0.0
  0
LINE
  5
1201
  8
0
  6
CENTER
 10
635.6192589086063
 20
878.87765209969268
 30
0.0
 11
533.6192589086063
 21
878.87765209969291
 31
0.0
  0
LINE
  5
1202
  8
0
 10
616.28517265995993
 20
878.87765209969268
 30
0.0
 11
622.61925890860607
 21
878.87765209969268
 31
0.0
  0
LINE
  5
1203
  8
0
 10
615.6192589086063
 20
869.3776520996928
 30
0.0
 11
622.61925890860618
 21
869.3776520996928
 31
0.0
  0
LINE
  5
1204
  8
0
 10
562.1192589086063
 20
798.87765209969291
 30
0.0
 11
570.1192589086063
 21
781.3776520996928
 31
0.0
  0
ARC
  5
1205
  8
0
 10
584.61925890860618
 20
822.1776520996932
 30
0.0
 40
43.300000000000388
 50
250.43518593638549
 51
289.56481406361439
  0
LINE
  5
1206
  8
0
 10
607.1192589086063
 20
798.87765209969291
 30
0.0
 11
599.1192589086063
 21
781.3776520996928
 31
0.0
  0
ARC
  5
1207
  8
0
 10
552.25988390860596
 20
874.12765209969257
 30
0.0
 40
6.6406249999998108
 50
134.33269164416319
 51
225.66730835583621
  0
LINE
  5
1208
  8
0
 10
553.6192589086063
 20
874.45792683488628
 30
0.0
 11
553.6192589086063
 21
860.87765209969257
 31
0.0
  0
LINE
  5
1209
  8
0
 10
553.6192589086063
 20
869.3776520996928
 30
0.0
 11
547.61925890860618
 21
869.3776520996928
 31
0.0
  0
LINE
  5
120A
  8
0
 10
556.6192589086063
 20
864.3776520996928
 30
0.0
 11
562.1192589086063
 21
864.3776520996928
 31
0.0
  0
LINE
  5
120B
  8
0
 10
556.6192589086063
 20
860.87765209969257
 30
0.0
 11
553.6192589086063
 21
860.87765209969257
 31
0.0
  0
LINE
  5
120C
  8
0
 10
552.95334515725256
 20
878.87765209969268
 30
0.0
 11
547.61925890860641
 21
878.87765209969268
 31
0.0
  0
LINE
  5
120D
  8
0
 10
549.80988390860625
 20
888.37765209969257
 30
0.0
 11
547.61925890860618
 21
888.3776520996928
 31
0.0
  0
LINE
  5
120E
  8
0
 10
545.6192589086063
 20
883.6276520996928
 30
0.0
 11
545.6192589086063
 21
874.12765209969257
 31
0.0
  0
ARC
  5
120F
  8
0
 10
552.25988390860618
 20
883.6276520996928
 30
0.0
 40
6.640624999999984
 50
134.33269164416481
 51
225.66730835583601
  0
ARC
  5
1210
  8
0
 10
538.61925890860618
 20
874.45792683488628
 30
0.0
 40
18.0
 50
0.0000000000000509
 51
18.32745217698255
  0
ARC
  5
1211
  8
0
 10
538.61925890860618
 20
874.45792683488628
 30
0.0
 40
15.0
 50
0.0000000000000509
 51
18.32745217698255
  0
LINE
  5
1212
  8
0
 10
556.6192589086063
 20
893.37765209969268
 30
0.0
 11
562.1192589086063
 21
893.37765209969268
 31
0.0
  0
LINE
  5
1213
  8
0
 10
615.6192589086063
 20
874.45792683488628
 30
0.0
 11
615.6192589086063
 21
860.87765209969257
 31
0.0
  0
LINE
  5
1214
  8
0
 10
612.6192589086063
 20
864.3776520996928
 30
0.0
 11
607.1192589086063
 21
864.3776520996928
 31
0.0
  0
LINE
  5
1215
  8
0
 10
612.6192589086063
 20
860.87765209969257
 30
0.0
 11
615.6192589086063
 21
860.87765209969257
 31
0.0
  0
ARC
  5
1216
  8
0
 10
630.61925890860618
 20
874.45792683488628
 30
0.0
 40
15.0
 50
161.6725478230174
 51
179.99999999999989
  0
ARC
  5
1217
  8
0
 10
630.61925890860618
 20
874.45792683488628
 30
0.0
 40
18.0
 50
161.6725478230174
 51
179.99999999999989
  0
LINE
  5
1218
  8
0
 10
612.6192589086063
 20
893.37765209969268
 30
0.0
 11
607.1192589086063
 21
893.37765209969268
 31
0.0
  0
ARC
  5
1219
  8
0
 10
617.97863390860653
 20
874.12765209969257
 30
0.0
 40
6.6406249999998108
 50
314.33269164416367
 51
45.667308355836752
  0
LINE
  5
121A
  8
0
 10
630.61925890860618
 20
883.97765209969236
 30
0.0
 11
624.61002896474827
 21
883.97765209969236
 31
0.0
  0
LINE
  5
121B
  8
0
 10
630.61925890860618
 20
873.77765209969289
 30
0.0
 11
624.61002896474827
 21
873.77765209969289
 31
0.0
  0
LINE
  5
121C
  8
0
 10
624.50055083468135
 20
872.87765209969291
 30
0.0
 11
629.71925890860632
 21
872.87765209969291
 31
0.0
  0
LINE
  5
121D
  8
0
 10
624.50055083468135
 20
884.87765209969245
 30
0.0
 11
629.71925890860632
 21
884.87765209969245
 31
0.0
  0
LINE
  5
121E
  8
0
 10
619.42863390860634
 20
888.37765209969257
 30
0.0
 11
622.61925890860618
 21
888.3776520996928
 31
0.0
  0
LINE
  5
121F
  8
0
 10
624.6192589086063
 20
883.6276520996928
 30
0.0
 11
624.6192589086063
 21
874.12765209969257
 31
0.0
  0
ARC
  5
1220
  8
0
 10
617.9786339086063
 20
883.6276520996928
 30
0.0
 40
6.640624999999984
 50
314.33269164416402
 51
45.667308355835189
  0
LINE
  5
1221
  8
0
 10
629.71925890860632
 20
884.87765209969245
 30
0.0
 11
629.71925890860632
 21
872.87765209969291
 31
0.0
  0
LINE
  5
1222
  8
0
 10
630.61925890860618
 20
883.97765209969236
 30
0.0
 11
630.61925890860618
 21
873.77765209969289
 31
0.0
  0
LINE
  5
1223
  8
0
 10
629.71925890860632
 20
884.87765209969245
 30
0.0
 11
630.61925890860618
 21
883.97765209969236
 31
0.0
  0
LINE
  5
1224
  8
0
 10
629.71925890860632
 20
872.87765209969291
 30
0.0
 11
630.61925890860618
 21
873.77765209969289
 31
0.0
  0
LINE
  5
1225
  8
0
 10
632.1192589086063
 20
1015.877652099692
 30
0.0
 11
537.1192589086063
 21
1015.877652099692
 31
0.0
  0
LINE
  5
1226
  8
0
 10
632.1192589086063
 20
1018.877652099692
 30
0.0
 11
537.1192589086063
 21
1018.877652099692
 31
0.0
  0
LINE
  5
1227
  8
0
 10
530.11925890860618
 20
1008.877652099692
 30
0.0
 11
530.11925890860618
 21
964.94340298238114
 31
0.0
  0
LINE
  5
1228
  8
0
 10
527.11925890860618
 20
1008.877652099692
 30
0.0
 11
527.11925890860618
 21
964.94340298238114
 31
0.0
  0
LINE
  5
1229
  8
0
 10
562.1192589086063
 20
958.87765209969257
 30
0.0
 11
570.1192589086063
 21
976.37765209969268
 31
0.0
  0
ARC
  5
122A
  8
0
 10
577.11925890860618
 20
964.94340298238114
 30
0.0
 40
50.0
 50
180.0
 51
198.32745217698249
  0
ARC
  5
122B
  8
0
 10
577.11925890860618
 20
964.94340298238114
 30
0.0
 40
47.0
 50
180.0
 51
198.32745217698249
  0
LINE
  5
122C
  8
0
 10
607.1192589086063
 20
958.87765209969257
 30
0.0
 11
599.1192589086063
 21
976.37765209969268
 31
0.0
  0
ARC
  5
122D
  8
0
 10
584.61925890860618
 20
935.57765209969239
 30
0.0
 40
43.300000000000281
 50
70.435185936385565
 51
109.56481406361441
  0
LINE
  5
122E
  8
0
 10
606.6192589086063
 20
1013.377652099693
 30
0.0
 11
562.6192589086063
 21
1013.377652099693
 31
0.0
  0
ARC
  5
122F
  8
0
 10
537.1192589086063
 20
1008.877652099692
 30
0.0
 40
10.0
 50
90.0
 51
180.0
  0
ARC
  5
1230
  8
0
 10
537.1192589086063
 20
1008.877652099692
 30
0.0
 40
7.0
 50
90.0
 51
180.0
  0
LINE
  5
1231
  8
0
 10
560.61925890860618
 20
1015.877652099692
 30
0.0
 11
560.61925890860618
 21
1015.377652099693
 31
0.0
  0
ARC
  5
1232
  8
0
 10
562.6192589086063
 20
1015.377652099693
 30
0.0
 40
2.0
 50
180.0
 51
270.0
  0
LINE
  5
1233
  8
0
 10
608.6192589086063
 20
1015.877652099692
 30
0.0
 11
608.6192589086063
 21
1015.377652099693
 31
0.0
  0
ARC
  5
1234
  8
0
 10
606.6192589086063
 20
1015.377652099693
 30
0.0
 40
2.0
 50
270.0
 51
0.0
  0
LINE
  5
1235
  8
0
 10
642.1192589086063
 20
1008.877652099692
 30
0.0
 11
642.1192589086063
 21
964.94340298238114
 31
0.0
  0
LINE
  5
1236
  8
0
 10
639.11925890860618
 20
1008.877652099692
 30
0.0
 11
639.11925890860618
 21
964.94340298238114
 31
0.0
  0
ARC
  5
1237
  8
0
 10
592.1192589086063
 20
964.94340298238114
 30
0.0
 40
50.0
 50
341.6725478230174
 51
0.000000000000007
  0
ARC
  5
1238
  8
0
 10
592.1192589086063
 20
964.94340298238114
 30
0.0
 40
47.0
 50
341.6725478230174
 51
0.000000000000007
  0
ARC
  5
1239
  8
0
 10
632.1192589086063
 20
1008.877652099692
 30
0.0
 40
7.0
 50
0.000000000000007
 51
90.0
  0
ARC
  5
123A
  8
0
 10
632.1192589086063
 20
1008.877652099692
 30
0.0
 40
10.0
 50
0.000000000000007
 51
90.0
  0
ARC
  5
123B
  8
0
 10
843.55480893773449
 20
636.37547976563337
 30
0.0
 40
16.0
 50
207.95096902789041
 51
270.0
  0
ARC
  5
123C
  8
0
 10
862.20049512165235
 20
630.37547976563314
 30
0.0
 40
10.0
 50
270.0
 51
355.82535013372137
  0
ARC
  5
123D
  8
0
 10
767.30862902365504
 20
636.37547976563337
 30
0.0
 40
16.0
 50
269.99999999999989
 51
332.04903097210939
  0
ARC
  5
123E
  8
0
 10
748.66294283973696
 20
630.37547976563314
 30
0.0
 40
10.0
 50
184.17464986627849
 51
270.0
  0
LINE
  5
123F
  8
0
 10
748.66294283973696
 20
620.37547976563326
 30
0.0
 11
767.30862902365504
 21
620.37547976563326
 31
0.0
  0
LINE
  5
1240
  8
0
 10
862.20049512165235
 20
620.37547976563326
 30
0.0
 11
843.55480893773449
 21
620.37547976563326
 31
0.0
  0
LINE
  5
1241
  8
0
 10
799.55480893773449
 20
710.87547976563292
 30
0.0
 11
811.30862902365482
 21
710.87547976563292
 31
0.0
  0
LINE
  5
1242
  8
0
  6
CENTER
 10
702.43171898069477
 20
677.87547976563303
 30
0.0
 11
908.43171898069465
 21
677.87547976563303
 31
0.0
  0
LINE
  5
1243
  8
0
 10
799.55480893773449
 20
644.87547976563314
 30
0.0
 11
811.30862902365482
 21
644.87547976563314
 31
0.0
  0
ARC
  5
1245
  8
0
 10
1399.431718980698
 20
677.87547976563292
 30
0.0
 40
662.50000000000341
 50
175.8253501337222
 51
184.17464986627769
  0
ARC
  5
1246
  8
0
 10
805.43171898069477
 20
677.87547976563303
 30
0.0
 40
43.5
 50
152.96430821058769
 51
207.0356917894122
  0
ARC
  5
1247
  8
0
 10
805.43171898069477
 20
677.87547976563303
 30
0.0
 40
49.5
 50
152.96430821058769
 51
207.0356917894122
  0
ARC
  5
1248
  8
0
 10
752.93171898069465
 20
641.62547976563303
 30
0.0
 40
5.5
 50
0.0
 51
180.0
  0
ARC
  5
1249
  8
0
 10
752.93171898069465
 20
636.62547976563303
 30
0.0
 40
5.5
 50
180.0
 51
0.0
  0
LINE
  5
124A
  8
0
  6
CENTER
 10
742.43171898069477
 20
639.12547976563303
 30
0.0
 11
763.43171898069477
 21
639.12547976563303
 31
0.0
  0
LINE
  5
124B
  8
0
 10
747.43171898069477
 20
641.62547976563303
 30
0.0
 11
747.43171898069477
 21
636.62547976563303
 31
0.0
  0
LINE
  5
124C
  8
0
  6
CENTER
 10
752.93171898069465
 20
626.12547976563303
 30
0.0
 11
752.93171898069465
 21
652.12547976563303
 31
0.0
  0
ARC
  5
1251
  8
0
 10
764.01307423908827
 20
656.73911612926941
 30
0.0
 40
3.0000000000000111
 50
207.03569178941049
 51
27.035691789410709
  0
LINE
  5
1252
  8
0
 10
758.43171898069465
 20
641.62547976563303
 30
0.0
 11
758.43171898069465
 21
636.62547976563303
 31
0.0
  0
ARC
  5
1253
  8
0
 10
799.55480893773449
 20
628.87547976563314
 30
0.0
 40
16.0
 50
90.000000000000028
 51
152.04903097210959
  0
LINE
  5
1254
  8
0
 10
781.44221335477391
 20
628.87602685524371
 30
0.0
 11
785.42122460661585
 21
636.37493267602281
 31
0.0
  0
ARC
  5
1255
  8
0
 10
752.93171898069465
 20
714.12547976563303
 30
0.0
 40
5.5
 50
180.0
 51
0.0
  0
ARC
  5
1256
  8
0
 10
752.93171898069465
 20
719.12547976563303
 30
0.0
 40
5.5
 50
0.0
 51
180.0
  0
LINE
  5
1257
  8
0
  6
CENTER
 10
742.43171898069477
 20
716.62547976563303
 30
0.0
 11
763.43171898069477
 21
716.62547976563303
 31
0.0
  0
LINE
  5
1258
  8
0
 10
748.66294283973696
 20
735.37547976563269
 30
0.0
 11
767.30862902365504
 21
735.37547976563269
 31
0.0
  0
ARC
  5
1259
  8
0
 10
748.66294283973696
 20
725.3754797656328
 30
0.0
 40
10.0
 50
90.0
 51
175.8253501337214
  0
LINE
  5
125A
  8
0
  6
CENTER
 10
752.93171898069465
 20
729.62547976563303
 30
0.0
 11
752.93171898069465
 21
703.62547976563303
 31
0.0
  0
LINE
  5
125B
  8
0
 10
747.43171898069477
 20
714.12547976563303
 30
0.0
 11
747.43171898069477
 21
719.12547976563303
 31
0.0
  0
ARC
  5
125C
  8
0
 10
767.30862902365504
 20
719.37547976563258
 30
0.0
 40
16.0
 50
27.950969027890508
 51
90.000000000000057
  0
ARC
  5
125D
  8
0
 10
764.01307423908827
 20
699.01184340199654
 30
0.0
 40
3.0000000000000111
 50
332.96430821058931
 51
152.96430821058951
  0
LINE
  5
125E
  8
0
 10
758.43171898069465
 20
714.12547976563303
 30
0.0
 11
758.43171898069465
 21
719.12547976563303
 31
0.0
  0
ARC
  5
125F
  8
0
 10
799.55480893773449
 20
726.8754797656328
 30
0.0
 40
16.0
 50
207.9509690278903
 51
270.0
  0
LINE
  5
1260
  8
0
 10
781.44221335477391
 20
726.87493267602235
 30
0.0
 11
785.42122460661585
 21
719.37602685524325
 31
0.0
  0
ARC
  5
1262
  8
0
 10
211.4317189806913
 20
677.87547976563292
 30
0.0
 40
662.50000000000341
 50
355.82535013372228
 51
4.1746498662777434
  0
ARC
  5
1264
  8
0
 10
805.43171898069477
 20
677.87547976563303
 30
0.0
 40
49.5
 50
332.96430821058772
 51
27.03569178941229
  0
ARC
  5
1265
  8
0
 10
805.43171898069477
 20
677.87547976563303
 30
0.0
 40
43.5
 50
332.96430821058772
 51
27.03569178941229
  0
ARC
  5
1266
  8
0
 10
846.85036372230115
 20
656.73911612926941
 30
0.0
 40
3.0000000000000111
 50
152.96430821058931
 51
332.96430821058948
  0
LINE
  5
1267
  8
0
  6
CENTER
 10
868.43171898069465
 20
639.12547976563303
 30
0.0
 11
847.43171898069477
 21
639.12547976563303
 31
0.0
  0
LINE
  5
1268
  8
0
 10
829.42122460661551
 20
628.87602685524371
 30
0.0
 11
825.44221335477357
 21
636.37493267602281
 31
0.0
  0
ARC
  5
1269
  8
0
 10
811.30862902365482
 20
628.87547976563314
 30
0.0
 40
16.0
 50
27.950969027890391
 51
89.999999999999986
  0
LINE
  5
126A
  8
0
 10
863.43171898069477
 20
641.62547976563303
 30
0.0
 11
863.43171898069477
 21
636.62547976563303
 31
0.0
  0
LINE
  5
126B
  8
0
 10
852.43171898069465
 20
641.62547976563303
 30
0.0
 11
852.43171898069465
 21
636.62547976563303
 31
0.0
  0
LINE
  5
126C
  8
0
  6
CENTER
 10
857.93171898069477
 20
626.12547976563303
 30
0.0
 11
857.93171898069477
 21
652.12547976563303
 31
0.0
  0
ARC
  5
126D
  8
0
 10
857.93171898069477
 20
636.62547976563303
 30
0.0
 40
5.5
 50
180.0
 51
0.0
  0
ARC
  5
126E
  8
0
 10
857.93171898069477
 20
641.62547976563303
 30
0.0
 40
5.5
 50
0.0
 51
180.0
  0
LINE
  5
1273
  8
0
  6
CENTER
 10
868.43171898069465
 20
716.62547976563303
 30
0.0
 11
847.43171898069477
 21
716.62547976563303
 31
0.0
  0
ARC
  5
1274
  8
0
 10
846.85036372230115
 20
699.01184340199654
 30
0.0
 40
3.0000000000000111
 50
27.035691789410478
 51
207.03569178941069
  0
LINE
  5
1275
  8
0
 10
862.20049512165235
 20
735.37547976563269
 30
0.0
 11
843.55480893773449
 21
735.37547976563269
 31
0.0
  0
ARC
  5
1276
  8
0
 10
843.55480893773449
 20
719.37547976563258
 30
0.0
 40
16.0
 50
89.999999999999943
 51
152.04903097210951
  0
ARC
  5
1277
  8
0
 10
811.30862902365482
 20
726.8754797656328
 30
0.0
 40
16.0
 50
270.0
 51
332.04903097210962
  0
LINE
  5
1278
  8
0
 10
829.42122460661551
 20
726.87493267602235
 30
0.0
 11
825.44221335477357
 21
719.37602685524325
 31
0.0
  0
ARC
  5
1279
  8
0
 10
862.20049512165235
 20
725.3754797656328
 30
0.0
 40
10.0
 50
4.1746498662785312
 51
90.0
  0
LINE
  5
127A
  8
0
  6
CENTER
 10
857.93171898069477
 20
729.62547976563303
 30
0.0
 11
857.93171898069477
 21
703.62547976563303
 31
0.0
  0
ARC
  5
127B
  8
0
 10
857.93171898069477
 20
714.12547976563303
 30
0.0
 40
5.5
 50
180.0
 51
0.000000000000007
  0
ARC
  5
127C
  8
0
 10
857.93171898069477
 20
719.12547976563303
 30
0.0
 40
5.5
 50
0.000000000000007
 51
180.0
  0
LINE
  5
127D
  8
0
 10
852.43171898069465
 20
714.12547976563303
 30
0.0
 11
852.43171898069465
 21
719.12547976563303
 31
0.0
  0
LINE
  5
127E
  8
0
 10
863.43171898069477
 20
714.12547976563303
 30
0.0
 11
863.43171898069477
 21
719.12547976563303
 31
0.0
  0
LINE
  5
127F
  8
0
 10
833.18595568040564
 20
904.51056845584412
 30
0.0
 11
843.95402620649497
 21
915.27863898193334
 31
0.0
  0
LINE
  5
1280
  8
0
 10
777.6774822809839
 20
904.5105684558439
 30
0.0
 11
766.90941175489434
 21
915.27863898193311
 31
0.0
  0
LINE
  5
1282
  8
0
 10
862.95212702277172
 20
1011.836773529274
 30
0.0
 11
822.46914819755148
 21
873.07024254976477
 31
0.0
  0
LINE
  5
1283
  8
0
 10
747.91131093861782
 20
1011.836773529274
 30
0.0
 11
788.39428976383795
 21
873.07024254976477
 31
0.0
  0
LINE
  5
1284
  8
0
 10
789.93171898069465
 20
1011.836773529274
 30
0.0
 11
789.93171898069465
 21
880.95777969486664
 31
0.0
  0
LINE
  5
1285
  8
0
 10
820.93171898069465
 20
1011.836773529274
 30
0.0
 11
820.93171898069465
 21
880.95777969486664
 31
0.0
  0
LINE
  5
1289
  8
0
  6
CENTER
 10
805.43171898069477
 20
1023.877652099693
 30
0.0
 11
805.43171898069477
 21
793.87765209969268
 31
0.0
  0
ARC
  5
128A
  8
0
 10
805.43171898069477
 20
878.87765209969268
 30
0.0
 40
18.0
 50
198.8222848187701
 51
341.17771518122981
  0
CIRCLE
  5
128B
  8
0
 10
805.43171898069477
 20
878.87765209969268
 30
0.0
 40
9.5000000000000142
  0
POLYLINE
  5
128C
  8
0
 66
     1
 10
0.0
 20
0.0
 30
0.0
 70
     1
  0
VERTEX
  5
1922
  8
0
 10
799.94689142339337
 20
888.37765209969257
 30
0.0
  0
VERTEX
  5
1923
  8
0
 10
794.46206386609185
 20
878.87765209969268
 30
0.0
  0
VERTEX
  5
1924
  8
0
 10
799.94689142339325
 20
869.37765209969268
 30
0.0
  0
VERTEX
  5
1925
  8
0
 10
810.91654653799606
 20
869.37765209969268
 30
0.0
  0
VERTEX
  5
1926
  8
0
 10
816.40137409529768
 20
878.87765209969268
 30
0.0
  0
VERTEX
  5
1927
  8
0
 10
810.91654653799617
 20
888.37765209969257
 30
0.0
  0
SEQEND
  5
1928
  8
0
  0
LINE
  5
128D
  8
0
 10
791.68740791494895
 20
867.25466137750664
 30
0.0
 11
766.90941175489445
 21
842.47666521745225
 31
0.0
  0
LINE
  5
128E
  8
0
 10
793.80872825850884
 20
865.13334103394698
 30
0.0
 11
769.030732098454
 21
840.35534487389225
 31
0.0
  0
LINE
  5
128F
  8
0
 10
785.90347266547565
 20
880.37765209969257
 30
0.0
 11
752.45294964806487
 21
880.3776520996928
 31
0.0
  0
LINE
  5
1290
  8
0
 10
786.92605819924529
 20
877.37765209969268
 30
0.0
 11
752.45294964806487
 21
877.37765209969268
 31
0.0
  0
LINE
  5
1291
  8
0
 10
819.17603004644025
 20
867.25466137750664
 30
0.0
 11
843.95402620649497
 21
842.4766652174518
 31
0.0
  0
LINE
  5
1292
  8
0
 10
817.0547097028807
 20
865.13334103394698
 30
0.0
 11
841.83270586293554
 21
840.35534487389225
 31
0.0
  0
LINE
  5
1293
  8
0
 10
803.93171898069465
 20
860.94026098504048
 30
0.0
 11
803.93171898069488
 21
825.89888276706267
 31
0.0
  0
LINE
  5
1294
  8
0
 10
806.93171898069477
 20
860.94026098504048
 30
0.0
 11
806.93171898069477
 21
825.89888276706267
 31
0.0
  0
LINE
  5
1295
  8
0
 10
824.95996529591389
 20
880.37765209969257
 30
0.0
 11
858.41048831332455
 21
880.3776520996928
 31
0.0
  0
LINE
  5
1296
  8
0
 10
823.93737976214425
 20
877.37765209969268
 30
0.0
 11
858.41048831332455
 21
877.37765209969268
 31
0.0
  0
LINE
  5
1297
  8
0
 10
873.93171898069477
 20
1018.877652099692
 30
0.0
 11
736.93171898069465
 21
1018.877652099692
 31
0.0
  0
LINE
  5
1298
  8
0
 10
776.93171898069465
 20
1011.836773529274
 30
0.0
 11
776.93171898069465
 21
919.09639862899905
 31
0.0
  0
LINE
  5
1299
  8
0
 10
736.93171898069465
 20
1018.877652099692
 30
0.0
 11
736.93171898069465
 21
1016.08504811993
 31
0.0
  0
ARC
  5
129A
  8
0
 10
736.90962260046172
 20
999.71552067184155
 30
0.0
 40
16.369542361463449
 50
47.771977221415113
 51
89.922659431376886
  0
ARC
  5
129B
  8
0
 10
737.34822472341762
 20
1007.445890935983
 30
0.0
 40
11.43934614992563
 50
22.571766425296701
 51
92.086596272436424
  0
LINE
  5
129C
  8
0
 10
833.93171898069477
 20
1011.836773529274
 30
0.0
 11
833.93171898069477
 21
919.09639862899905
 31
0.0
  0
ARC
  5
129D
  8
0
 10
873.95381536092771
 20
999.71552067184155
 30
0.0
 40
16.369542361463449
 50
90.077340568623086
 51
132.2280227785848
  0
ARC
  5
129E
  8
0
 10
873.51521323797181
 20
1007.445890935983
 30
0.0
 40
11.43934614992563
 50
87.91340372756359
 51
157.4282335747032
  0
LINE
  5
129F
  8
0
 10
873.93171898069477
 20
1018.877652099692
 30
0.0
 11
873.93171898069477
 21
1016.08504811993
 31
0.0
  0
ARC
  5
12F4
  8
0
 10
805.43171898069477
 20
878.87765209969268
 30
0.0
 40
53.0
 50
126.0970475198335
 51
53.902952480166128
  0
LINE
  5
12F5
  8
0
 10
775.48347436523215
 20
910.94721705871484
 30
0.0
 11
769.030732098454
 21
917.39995932549277
 31
0.0
  0
LINE
  5
12F6
  8
0
 10
835.37996359615727
 20
910.94721705871495
 30
0.0
 11
841.83270586293554
 21
917.39995932549289
 31
0.0
  0
ARC
  5
1349
  8
0
 10
805.43171898069477
 20
878.87765209969268
 30
0.0
 40
64.0
 50
122.5818686958264
 51
57.418131304173258
  0
ARC
  5
134A
  8
0
 10
805.43171898069477
 20
878.87765209969268
 30
0.0
 40
76.0
 50
119.9500949736329
 51
60.049905026366787
  0
ARC
  5
134B
  8
0
 10
805.43171898069477
 20
878.87765209969268
 30
0.0
 40
100.0
 50
116.6230929970165
 51
63.376907002983273
  0
ARC
  5
1443
  8
0
 10
862.13171898069425
 20
677.87547976563314
 30
0.0
 40
43.300000000000388
 50
340.43518593638561
 51
19.564814063614381
  0
ARC
  5
1444
  8
0
 10
748.73171898069506
 20
677.87547976563314
 30
0.0
 40
43.300000000000281
 50
160.43518593638549
 51
199.56481406361439
  0
LINE
  5
1445
  8
0
 10
725.43171898069488
 20
655.37547976563303
 30
0.0
 11
737.31390469082078
 21
655.37547976563303
 31
0.0
  0
LINE
  5
1446
  8
0
 10
707.93171898069488
 20
663.37547976563303
 30
0.0
 11
737.09041723362714
 21
663.37547976563303
 31
0.0
  0
LINE
  5
1447
  8
0
 10
885.43171898069465
 20
655.37547976563303
 30
0.0
 11
902.93171898069454
 21
663.37547976563303
 31
0.0
  0
LINE
  5
1448
  8
0
 10
725.43171898069488
 20
655.37547976563303
 30
0.0
 11
707.93171898069488
 21
663.37547976563303
 31
0.0
  0
LINE
  5
1449
  8
0
 10
707.93171898069488
 20
692.37547976563303
 30
0.0
 11
737.09041723362714
 21
692.37547976563303
 31
0.0
  0
LINE
  5
144A
  8
0
 10
725.43171898069488
 20
700.37547976563303
 30
0.0
 11
737.31390469082078
 21
700.37547976563303
 31
0.0
  0
LINE
  5
144B
  8
0
 10
885.43171898069465
 20
700.37547976563303
 30
0.0
 11
902.93171898069454
 21
692.37547976563303
 31
0.0
  0
LINE
  5
144C
  8
0
 10
725.43171898069488
 20
700.37547976563303
 30
0.0
 11
707.93171898069488
 21
692.37547976563303
 31
0.0
  0
LINE
  5
144F
  8
0
 10
873.54953327056865
 20
700.37547976563303
 30
0.0
 11
885.43171898069465
 21
700.37547976563303
 31
0.0
  0
LINE
  5
1450
  8
0
 10
873.77302072776229
 20
692.37547976563303
 30
0.0
 11
902.93171898069454
 21
692.37547976563303
 31
0.0
  0
LINE
  5
1451
  8
0
 10
873.77302072776229
 20
663.37547976563303
 30
0.0
 11
902.93171898069454
 21
663.37547976563303
 31
0.0
  0
LINE
  5
1452
  8
0
 10
873.54953327056865
 20
655.37547976563303
 30
0.0
 11
885.43171898069465
 21
655.37547976563303
 31
0.0
  0
LINE
  5
1512
  8
0
 10
800.68171898069477
 20
638.87547976563303
 30
0.0
 11
810.18171898069488
 21
638.87547976563303
 31
0.0
  0
ARC
  5
1514
  8
0
 10
810.18171898069488
 20
645.51610476563292
 30
0.0
 40
6.6406249999998108
 50
224.33269164416319
 51
315.66730835583621
  0
LINE
  5
1516
  8
0
 10
814.93171898069477
 20
644.4598700059729
 30
0.0
 11
814.93171898069465
 21
640.87547976563303
 31
0.0
  0
ARC
  5
1519
  8
0
 10
800.68171898069477
 20
645.51610476563303
 30
0.0
 40
6.640624999999984
 50
224.33269164416481
 51
315.66730835583593
  0
LINE
  5
151A
  8
0
 10
795.931718980695
 20
644.4598700059729
 30
0.0
 11
795.93171898069465
 21
640.87547976563303
 31
0.0
  0
LINE
  5
151B
  8
0
 10
805.43171898069488
 20
644.87547976563314
 30
0.0
 11
805.43171898069477
 21
640.87547976563314
 31
0.0
  0
LINE
  5
151C
  8
0
 10
800.68171898069477
 20
717.87547976563303
 30
0.0
 11
810.18171898069488
 21
717.87547976563303
 31
0.0
  0
LINE
  5
151F
  8
0
 10
800.33171898069509
 20
723.87547976563303
 30
0.0
 11
810.53171898069456
 21
723.87547976563303
 31
0.0
  0
LINE
  5
1520
  8
0
 10
799.43171898069511
 20
722.97547976563305
 30
0.0
 11
811.43171898069465
 21
722.97547976563305
 31
0.0
  0
ARC
  5
1521
  8
0
 10
810.18171898069488
 20
711.23485476563326
 30
0.0
 40
6.6406249999998108
 50
44.332691644163802
 51
135.6673083558367
  0
LINE
  5
1522
  8
0
 10
811.43171898069465
 20
717.75677169170808
 30
0.0
 11
811.43171898069465
 21
722.97547976563305
 31
0.0
  0
LINE
  5
1523
  8
0
 10
810.53171898069456
 20
723.87547976563303
 30
0.0
 11
810.53171898069456
 21
717.86624982177511
 31
0.0
  0
LINE
  5
1524
  8
0
 10
814.93171898069465
 20
711.29108952529305
 30
0.0
 11
814.93171898069465
 21
715.87547976563303
 31
0.0
  0
LINE
  5
1527
  8
0
 10
811.43171898069465
 20
722.97547976563305
 30
0.0
 11
810.53171898069456
 21
723.87547976563303
 31
0.0
  0
LINE
  5
1528
  8
0
 10
799.43171898069511
 20
717.75677169170808
 30
0.0
 11
799.43171898069511
 21
722.97547976563305
 31
0.0
  0
LINE
  5
1529
  8
0
 10
800.33171898069509
 20
723.87547976563303
 30
0.0
 11
800.33171898069509
 21
717.86624982177511
 31
0.0
  0
LINE
  5
152A
  8
0
 10
795.931718980695
 20
711.29108952529305
 30
0.0
 11
795.93171898069465
 21
715.87547976563303
 31
0.0
  0
LINE
  5
152B
  8
0
 10
805.43171898069477
 20
710.87547976563292
 30
0.0
 11
805.43171898069477
 21
715.87547976563292
 31
0.0
  0
ARC
  5
152C
  8
0
 10
800.68171898069477
 20
711.23485476563314
 30
0.0
 40
6.640624999999984
 50
44.332691644164044
 51
135.6673083558351
  0
LINE
  5
152D
  8
0
 10
799.43171898069511
 20
722.97547976563305
 30
0.0
 11
800.33171898069509
 21
723.87547976563303
 31
0.0
  0
LINE
  5
152E
  8
0
  6
CENTER
 10
805.43171898069477
 20
728.87547976563303
 30
0.0
 11
805.43171898069465
 21
626.87547976563303
 31
0.0
  0
LINE
  5
1581
  8
0
 10
287.41015050116482
 20
695.39490650588561
 30
0.0
 11
287.41015050116482
 21
700.61361457981036
 31
0.0
  0
LINE
  5
1582
  8
0
 10
288.3101505011648
 20
701.51361457981045
 30
0.0
 11
288.3101505011648
 21
695.50438463595253
 31
0.0
  0
LINE
  5
1583
  8
0
 10
299.41015050116442
 20
695.39490650588561
 30
0.0
 11
299.41015050116442
 21
700.61361457981036
 31
0.0
  0
LINE
  5
1584
  8
0
 10
298.51015050116439
 20
701.51361457981045
 30
0.0
 11
298.51015050116439
 21
695.50438463595253
 31
0.0
  0
ARC
  5
1585
  8
0
 10
298.16015050116459
 20
688.87298957981079
 30
0.0
 40
6.6406249999998108
 50
44.332691644163802
 51
135.6673083558367
  0
LINE
  5
1586
  8
0
 10
288.66015050116448
 20
695.51361457981045
 30
0.0
 11
298.16015050116459
 21
695.51361457981045
 31
0.0
  0
ARC
  5
1587
  8
0
 10
288.66015050116448
 20
688.87298957981045
 30
0.0
 40
6.640624999999984
 50
44.332691644164044
 51
135.6673083558351
  0
LINE
  5
1588
  8
0
 10
288.3101505011648
 20
701.51361457981045
 30
0.0
 11
298.51015050116439
 21
701.51361457981045
 31
0.0
  0
LINE
  5
1589
  8
0
 10
287.41015050116482
 20
700.61361457981036
 30
0.0
 11
299.41015050116442
 21
700.61361457981036
 31
0.0
  0
LINE
  5
158A
  8
0
 10
287.41015050116482
 20
700.61361457981036
 30
0.0
 11
288.3101505011648
 21
701.51361457981045
 31
0.0
  0
LINE
  5
158B
  8
0
 10
299.41015050116442
 20
700.61361457981036
 30
0.0
 11
298.51015050116439
 21
701.51361457981045
 31
0.0
  0
LINE
  5
158C
  8
0
 10
283.91015050116471
 20
688.92922433947035
 30
0.0
 11
283.91015050116448
 21
693.51361457981045
 31
0.0
  0
LINE
  5
158D
  8
0
 10
302.91015050116448
 20
688.92922433947058
 30
0.0
 11
302.91015050116448
 21
693.51361457981045
 31
0.0
  0
LINE
  5
158E
  8
0
  6
CENTER
 10
293.41015050116459
 20
706.51361457981045
 30
0.0
 11
293.41015050116442
 21
604.51361457981045
 31
0.0
  0
LINE
  5
158F
  8
0
 10
293.41015050116459
 20
688.51361457981034
 30
0.0
 11
293.41015050116459
 21
693.51361457981034
 31
0.0
  0
LINE
  5
1590
  8
0
 10
302.91015050116459
 20
622.09800482015032
 30
0.0
 11
302.91015050116448
 21
618.51361457981045
 31
0.0
  0
ARC
  5
1591
  8
0
 10
298.16015050116459
 20
623.15423957981034
 30
0.0
 40
6.6406249999998108
 50
224.33269164416319
 51
315.66730835583621
  0
ARC
  5
1592
  8
0
 10
288.66015050116448
 20
623.15423957981045
 30
0.0
 40
6.640624999999984
 50
224.33269164416481
 51
315.66730835583593
  0
LINE
  5
1593
  8
0
 10
288.66015050116448
 20
616.51361457981045
 30
0.0
 11
298.16015050116459
 21
616.51361457981045
 31
0.0
  0
LINE
  5
1594
  8
0
 10
293.41015050116471
 20
622.51361457981056
 30
0.0
 11
293.41015050116459
 21
618.51361457981045
 31
0.0
  0
LINE
  5
1595
  8
0
 10
283.91015050116471
 20
622.09800482015032
 30
0.0
 11
283.91015050116448
 21
618.51361457981045
 31
0.0
  0
POLYLINE
  5
15E8
  8
0
 66
     1
 10
0.0
 20
0.0
 30
0.0
 70
     1
  0
VERTEX
  5
1929
  8
0
 10
481.88241734122118
 20
1104.4297187634429
 30
0.0
  0
VERTEX
  5
192A
  8
0
 10
960.63583000891674
 20
1104.4297187634429
 30
0.0
  0
VERTEX
  5
192B
  8
0
 10
960.63583000891674
 20
580.59904131137387
 30
0.0
  0
VERTEX
  5
192C
  8
0
 10
481.88241734122118
 20
580.59904131137387
 30
0.0
  0
SEQEND
  5
192D
  8
0
  0
LINE
  5
16D1
  8
0
  6
CENTER
 10
-586.48327563754526
 20
840.34050579456471
 30
0.0
 11
-586.48327563754526
 21
858.19594031194322
 31
0.0
  0
LINE
  5
16D3
  8
0
  6
CENTER
 10
-508.73094014890421
 20
840.34050579456471
 30
0.0
 11
-508.73094014890421
 21
858.19594031194322
 31
0.0
  0
LINE
  5
16D4
  8
0
  6
CENTER
 10
-740.58933812684768
 20
858.19594031194299
 30
0.0
 11
-740.58933812684768
 21
845.1959403119431
 31
0.0
  0
LINE
  5
16D8
  8
0
  6
CENTER
 10
-679.58933812684757
 20
858.19594031194299
 30
0.0
 11
-679.58933812684757
 21
845.1959403119431
 31
0.0
  0
LINE
  5
16D9
  8
0
  6
CENTER
 10
-363.90985184412563
 20
882.19973819250527
 30
0.0
 11
-363.90985184412563
 21
869.19973819250515
 31
0.0
  0
LINE
  5
16DA
  8
0
  6
CENTER
 10
-302.90985184412563
 20
882.19973819250527
 30
0.0
 11
-302.90985184412563
 21
869.19973819250515
 31
0.0
  0
ARC
  5
16DB
  8
0
 10
-294.40985184412591
 20
873.19973819250538
 30
0.0
 40
1.0
 50
359.99999999999977
 51
90.0
  0
LINE
  5
16DC
  8
0
  6
CENTER
 10
-209.80378935482329
 20
864.34430367512675
 30
0.0
 11
-209.80378935482329
 21
882.19973819250538
 31
0.0
  0
LINE
  5
16DD
  8
0
  6
CENTER
 10
-132.05145386618219
 20
864.34430367512675
 30
0.0
 11
-132.05145386618219
 21
882.19973819250538
 31
0.0
  0
ARC
  5
1759
  8
0
 10
-170.9276216105028
 20
784.69973819250538
 30
0.0
 40
62.5
 50
120.7971407982451
 51
59.202859201754869
  0
ARC
  5
175B
  8
0
 10
-170.9276216105028
 20
784.69973819250538
 30
0.0
 40
60.5
 50
121.9328919932159
 51
58.067108006784011
  0
ARC
  5
175C
  8
0
 10
-170.9276216105028
 20
784.69973819250538
 30
0.0
 40
29.579383127136449
 50
139.0525937357753
 51
40.947406264224632
  0
ARC
  5
175D
  8
0
 10
-170.9276216105028
 20
784.69973819250538
 30
0.0
 40
26.5
 50
142.33680903082939
 51
37.663190969170799
  0
ARC
  5
17AB
  8
0
 10
-333.40985184412568
 20
796.40590676154375
 30
0.0
 40
50.793831430961639
 50
78.476250810290381
 51
101.5237491897096
  0
ARC
  5
17AC
  8
0
 10
-342.95782138874199
 20
843.23630928411683
 30
0.0
 40
3.0
 50
101.5237491897098
 51
163.2741400436995
  0
ARC
  5
17AD
  8
0
 10
-323.8618822995092
 20
843.23630928411683
 30
0.0
 40
3.0
 50
16.725859956300742
 51
78.476250810290196
  0
ARC
  5
17B1
  8
0
 10
-333.40985184412568
 20
772.99356962346712
 30
0.0
 40
50.793831430961639
 50
258.47625081029042
 51
281.52374918970952
  0
LINE
  5
17B2
  8
0
 10
-352.40985184412563
 20
747.19267394831456
 30
0.0
 11
-345.8308994875332
 21
725.29978871441085
 31
0.0
  0
ARC
  5
17B3
  8
0
 10
-342.95782138874199
 20
726.16316710089427
 30
0.0
 40
3.0
 50
196.72585995630041
 51
258.47625081029008
  0
LINE
  5
17B4
  8
0
 10
-314.40985184412568
 20
747.19267394831456
 30
0.0
 11
-320.98880420071811
 21
725.29978871441085
 31
0.0
  0
ARC
  5
17B5
  8
0
 10
-323.8618822995092
 20
726.16316710089427
 30
0.0
 40
3.0
 50
281.52374918970969
 51
343.27414004369922
  0
ARC
  5
17B6
  8
0
 10
-112.4448993802668
 20
650.54432616755605
 30
0.0
 40
3.0
 50
11.523749189709809
 51
73.274140043699205
  0
ARC
  5
17B7
  8
0
 10
-112.4448993802668
 20
631.44838707832321
 30
0.0
 40
3.0
 50
286.72585995630038
 51
348.47625081029008
  0
ARC
  5
17B8
  8
0
 10
-159.27530190283969
 20
640.99635662293963
 30
0.0
 40
50.793831430961639
 50
348.47625081029042
 51
11.52374918970958
  0
LINE
  5
17B9
  8
0
 10
-230.39113142471589
 20
652.99635662293974
 30
0.0
 11
-220.58266031174901
 21
652.99635662293974
 31
0.0
  0
LINE
  5
17BD
  8
0
 10
-120.43504299986429
 20
625.91476886141891
 30
0.0
 11
-111.5815209937834
 21
628.57530897953211
 31
0.0
  0
LINE
  5
17BE
  8
0
 10
-120.43504299986429
 20
656.07794438446035
 30
0.0
 11
-111.5815209937834
 21
653.41740426634715
 31
0.0
  0
ARC
  5
17BF
  8
0
 10
-181.83227680680699
 20
640.99635662293963
 30
0.0
 40
50.793831430961639
 50
168.4762508102904
 51
191.52374918970949
  0
LINE
  5
17C0
  8
0
 10
-220.67253570978221
 20
625.91476886141891
 30
0.0
 11
-229.52605771586329
 21
628.57530897953211
 31
0.0
  0
ARC
  5
17C1
  8
0
 10
-228.6626793293799
 20
631.44838707832321
 30
0.0
 40
3.0
 50
191.5237491897098
 51
253.2741400436995
  0
LINE
  5
17C2
  8
0
 10
-220.67253570978221
 20
656.07794438446047
 30
0.0
 11
-229.52605771586329
 21
653.41740426634715
 31
0.0
  0
ARC
  5
17C3
  8
0
 10
-228.6626793293799
 20
650.54432616755605
 30
0.0
 40
3.0
 50
106.7258599563007
 51
168.4762508102902
  0
LINE
  5
17C6
  8
0
 10
-120.52491839789749
 20
652.99635662293974
 30
0.0
 11
-110.71644728493089
 21
652.99635662293974
 31
0.0
  0
VIEWPORT
  5
8D
 67
     1
  8
0
 10
143.47825622558591
 20
99.980751991271987
 30
0.0
 40
339.12752973873143
 41
222.1965796813964
 68
     1
 69
     1
1001
ACAD
1000
MVIEW
1002
{
1070
    16
1010
0.0
1020
0.0
1030
0.0
1010
0.0
1020
0.0
1030
1.0
1040
0.0
1040
222.1965796813964
1040
143.47825622558591
1040
99.980751991271987
1040
50.0
1040
0.0
1040
0.0
1070
     0
1070
   100
1070
     1
1070
     1
1070
     0
1070
     0
1070
     0
1070
     0
1040
0.0
1040
0.0
1040
0.0
1040
10.0
1040
10.0
1040
10.0
1040
10.0
1070
     0
1002
{
1002
}
1002
}
  0
VIEWPORT
  5
8F
 67
     1
  8
0
 10
143.37242841720581
 20
99.874916553497314
 30
0.0
 40
229.3958854675293
 41
159.79986648559569
 68
     2
 69
     2
1001
ACAD
1000
MVIEW
1002
{
1070
    16
1010
0.0
1020
0.0
1030
0.0
1010
0.0
1020
0.0
1030
1.0
1040
0.0
1040
300.10452961672468
1040
210.0
1040
148.5
1040
50.0
1040
0.0
1040
0.0
1070
     0
1070
   100
1070
     1
1070
     2
1070
     0
1070
     0
1070
     0
1070
     0
1040
0.0
1040
0.0
1040
0.0
1040
10.0
1040
10.0
1040
10.0
1040
10.0
1070
     0
1002
{
1002
}
1002
}
  0
ENDSEC
  0
EOF
