  0
SECTION
  2
HEADER
  9
$ACADVER
  1
AC1009
  9
$INSBASE
 10
0.0
 20
0.0
 30
0.0
  9
$EXTMIN
 10
-462.10158373004111
 20
576.3292910897444
 30
-0.0000000349181948
  9
$EXTMAX
 10
1981.3487467249161
 20
1099.8338995447771
 30
0.0000000814935746
  9
$LIMMIN
 10
0.0
 20
0.0
  9
$LIMMAX
 10
420.0
 20
297.0
  9
$ORTHOMODE
 70
     1
  9
$REGENMODE
 70
     1
  9
$FILLMODE
 70
     1
  9
$QTEXTMODE
 70
     0
  9
$MIRRTEXT
 70
     1
  9
$DRAGMODE
 70
     2
  9
$LTSCALE
 40
1.0
  9
$OSMODE
 70
    40
  9
$ATTMODE
 70
     1
  9
$TEXTSIZE
 40
2.5
  9
$TRACEWID
 40
1.0
  9
$TEXTSTYLE
  7
STANDARD
  9
$CLAYER
  8
0
  9
$CELTYPE
  6
BYLAYER
  9
$CECOLOR
 62
   256
  9
$DIMSCALE
 40
1.0
  9
$DIMASZ
 40
2.5
  9
$DIMEXO
 40
0.625
  9
$DIMDLI
 40
3.75
  9
$DIMRND
 40
0.0
  9
$DIMDLE
 40
0.0
  9
$DIMEXE
 40
1.25
  9
$DIMTP
 40
0.0
  9
$DIMTM
 40
0.0
  9
$DIMTXT
 40
2.5
  9
$DIMCEN
 40
2.5
  9
$DIMTSZ
 40
0.0
  9
$DIMTOL
 70
     0
  9
$DIMLIM
 70
     0
  9
$DIMTIH
 70
     1
  9
$DIMTOH
 70
     1
  9
$DIMSE1
 70
     0
  9
$DIMSE2
 70
     0
  9
$DIMTAD
 70
     1
  9
$DIMZIN
 70
     8
  9
$DIMBLK
  1

  9
$DIMASO
 70
     1
  9
$DIMSHO
 70
     1
  9
$DIMPOST
  1

  9
$DIMAPOST
  1

  9
$DIMALT
 70
     0
  9
$DIMALTD
 70
     3
  9
$DIMALTF
 40
0.03937007874016
  9
$DIMLFAC
 40
1.0
  9
$DIMTOFL
 70
     1
  9
$DIMTVP
 40
0.0
  9
$DIMTIX
 70
     0
  9
$DIMSOXD
 70
     0
  9
$DIMSAH
 70
     0
  9
$DIMBLK1
  1

  9
$DIMBLK2
  1

  9
$DIMSTYLE
  2
ISO-25
  9
$DIMCLRD
 70
     0
  9
$DIMCLRE
 70
     0
  9
$DIMCLRT
 70
     0
  9
$DIMTFAC
 40
1.0
  9
$DIMGAP
 40
0.625
  9
$LUNITS
 70
     2
  9
$LUPREC
 70
     4
  9
$SKETCHINC
 40
1.0
  9
$FILLETRAD
 40
2.5
  9
$AUNITS
 70
     0
  9
$AUPREC
 70
     0
  9
$MENU
  1
.
  9
$ELEVATION
 40
0.0
  9
$PELEVATION
 40
0.0
  9
$THICKNESS
 40
0.0
  9
$LIMCHECK
 70
     0
  9
$BLIPMODE
 70
     0
  9
$CHAMFERA
 40
10.0
  9
$CHAMFERB
 40
10.0
  9
$SKPOLY
 70
     0
  9
$TDCREATE
 40
2453684.4494884261
  9
$TDUPDATE
 40
2453686.3359658099
  9
$TDINDWG
 40
1.8190446644
  9
$TDUSRTIMER
 40
1.8190446644
  9
$USRTIMER
 70
     1
  9
$ANGBASE
 50
0.0
  9
$ANGDIR
 70
     0
  9
$PDMODE
 70
     3
  9
$PDSIZE
 40
2.0
  9
$PLINEWID
 40
0.0
  9
$COORDS
 70
     0
  9
$SPLFRAME
 70
     0
  9
$SPLINETYPE
 70
     6
  9
$SPLINESEGS
 70
     8
  9
$ATTDIA
 70
     0
  9
$ATTREQ
 70
     1
  9
$HANDLING
 70
-16383
  9
$HANDSEED
  5
4179
  9
$SURFTAB1
 70
     6
  9
$SURFTAB2
 70
     6
  9
$SURFTYPE
 70
     6
  9
$SURFU
 70
     6
  9
$SURFV
 70
     6
  9
$UCSNAME
  2

  9
$UCSORG
 10
0.0
 20
0.0
 30
0.0
  9
$UCSXDIR
 10
1.0
 20
0.0
 30
0.0
  9
$UCSYDIR
 10
0.0
 20
1.0
 30
0.0
  9
$PUCSNAME
  2

  9
$PUCSORG
 10
0.0
 20
0.0
 30
0.0
  9
$PUCSXDIR
 10
1.0
 20
0.0
 30
0.0
  9
$PUCSYDIR
 10
0.0
 20
1.0
 30
0.0
  9
$USERI1
 70
     0
  9
$USERI2
 70
     0
  9
$USERI3
 70
     0
  9
$USERI4
 70
     0
  9
$USERI5
 70
     0
  9
$USERR1
 40
0.0
  9
$USERR2
 40
0.0
  9
$USERR3
 40
0.0
  9
$USERR4
 40
0.0
  9
$USERR5
 40
0.0
  9
$WORLDVIEW
 70
     1
  9
$SHADEDGE
 70
     3
  9
$SHADEDIF
 70
    70
  9
$TILEMODE
 70
     1
  9
$MAXACTVP
 70
    48
  9
$PLIMCHECK
 70
     0
  9
$PEXTMIN
 10
28.674485683441159
 20
19.97498331069945
 30
0.0
  9
$PEXTMAX
 10
258.0703711509704
 20
179.77484979629509
 30
0.0
  9
$PLIMMIN
 10
-5.027069091796875
 20
-5.0270833969116211
  9
$PLIMMAX
 10
291.98358154296869
 20
204.98858737945551
  9
$UNITMODE
 70
     0
  9
$VISRETAIN
 70
     1
  9
$PLINEGEN
 70
     0
  9
$PSLTSCALE
 70
     1
  0
ENDSEC
  0
SECTION
  2
TABLES
  0
TABLE
  2
VPORT
 70
    48
  0
VPORT
  2
*ACTIVE
 70
     0
 10
0.0
 20
0.0
 11
1.0
 21
1.0
 12
759.62358149743739
 22
838.08159531726085
 13
0.0
 23
0.0
 14
10.0
 24
10.0
 15
10.0
 25
10.0
 16
0.0
 26
0.0
 36
1.0
 17
0.0
 27
0.0
 37
0.0
 40
1606.7964916734991
 41
1.5281602002503121
 42
50.0
 43
0.0
 44
0.0
 50
0.0
 51
0.0
 71
     0
 72
   100
 73
     1
 74
     2
 75
     0
 76
     0
 77
     0
 78
     0
  0
ENDTAB
  0
TABLE
  2
LTYPE
 70
     2
  0
LTYPE
  2
CONTINUOUS
 70
     0
  3
Solid line
 72
    65
 73
     0
 40
0.0
  0
LTYPE
  2
CENTER
 70
     0
  3
Center (.5x) ___ _ ___ _ ___ _ ___ _ ___ _ ___
 72
    65
 73
     4
 40
28.574999999999989
 49
19.050000000000001
 49
-3.1749999999999989
 49
3.1749999999999989
 49
-3.1749999999999989
  0
ENDTAB
  0
TABLE
  2
LAYER
 70
     2
  0
LAYER
  2
0
 70
     0
 62
     7
  6
CONTINUOUS
  0
ENDTAB
  0
TABLE
  2
STYLE
 70
     2
  0
STYLE
  2
STANDARD
 70
     0
 40
0.0
 41
1.0
 50
0.0
 71
     0
 42
2.5
  3
txt
  4

  0
STYLE
  2
ISOCP
 70
     0
 40
0.0
 41
1.0
 50
0.0
 71
     0
 42
2.5
  3
isocp.shx
  4

  0
ENDTAB
  0
TABLE
  2
VIEW
 70
     0
  0
ENDTAB
  0
TABLE
  2
UCS
 70
     0
  0
ENDTAB
  0
TABLE
  2
APPID
 70
     1
  0
APPID
  2
ACAD
 70
     0
  0
ENDTAB
  0
TABLE
  2
DIMSTYLE
 70
     1
  0
DIMSTYLE
  2
ISO-25
 70
     0
  3

  4

  5

  6

  7

 40
1.0
 41
2.5
 42
0.625
 43
3.75
 44
1.25
 45
0.0
 46
0.0
 47
0.0
 48
0.0
140
2.5
141
2.5
142
0.0
143
0.03937007874016
144
1.0
145
0.0
146
1.0
147
0.625
 71
     0
 72
     0
 73
     1
 74
     1
 75
     0
 76
     0
 77
     1
 78
     8
170
     0
171
     3
172
     1
173
     0
174
     0
175
     0
176
     0
177
     0
178
     0
  0
ENDTAB
  0
ENDSEC
  0
SECTION
  2
BLOCKS
  0
BLOCK
  8
0
  2
$MODEL_SPACE
 70
     0
 10
0.0
 20
0.0
 30
0.0
  3
$MODEL_SPACE
  1

  0
ENDBLK
  5
21
  8
0
  0
BLOCK
 67
     1
  8
0
  2
$PAPER_SPACE
 70
     0
 10
0.0
 20
0.0
 30
0.0
  3
$PAPER_SPACE
  1

  0
ENDBLK
  5
53
 67
     1
  8
0
  0
ENDSEC
  0
SECTION
  2
ENTITIES
  0
LINE
  5
417
  8
0
 10
-95.028476382232043
 20
907.39089145653475
 30
0.0
 11
-10.028476382232039
 21
907.39089145653486
 31
0.0
  0
LINE
  5
418
  8
0
 10
-95.028476382232043
 20
907.39089145653475
 30
0.0
 11
-95.028476382232043
 21
904.39089145653463
 31
0.0
  0
LINE
  5
419
  8
0
 10
-95.028476382232043
 20
904.39089145653475
 30
0.0
 11
-10.028476382232039
 21
904.39089145653475
 31
0.0
  0
LINE
  5
41A
  8
0
 10
-10.028476382232039
 20
907.39089145653475
 30
0.0
 11
-10.028476382232039
 21
904.39089145653463
 31
0.0
  0
LINE
  5
41B
  8
0
 10
-91.028476382232085
 20
897.39089145653486
 30
0.0
 11
-91.028476382232085
 21
904.39089145653486
 31
0.0
  0
LINE
  5
41C
  8
0
 10
-14.028476382232091
 20
897.39089145653486
 30
0.0
 11
-14.028476382232091
 21
904.39089145653486
 31
0.0
  0
LINE
  5
41D
  8
0
 10
-14.028476382232091
 20
897.39089145653486
 30
0.0
 11
-91.028476382232085
 21
897.39089145653486
 31
0.0
  0
LINE
  5
41F
  8
0
  6
CENTER
 10
-52.52847638223205
 20
910.39089145653475
 30
0.0
 11
-52.52847638223205
 21
776.39089145653475
 31
0.0
  0
ARC
  5
421
  8
0
 10
-86.028476382232085
 20
892.39089145653475
 30
0.0
 40
5.0
 50
89.999999999999915
 51
180.0
  0
LINE
  5
426
  8
0
 10
-91.028476382232085
 20
892.39089145653475
 30
0.0
 11
-91.028476382232043
 21
851.39089145653463
 31
0.0
  0
ARC
  5
42B
  8
0
 10
-57.704008297125689
 20
854.33902975440708
 30
0.0
 40
33.454621393443631
 50
90.0
 51
174.94433746809909
  0
ARC
  5
42C
  8
0
 10
-47.352944467338411
 20
854.33902975440708
 30
0.0
 40
33.454621393443631
 50
310.20709532120941
 51
354.94433746809909
  0
LINE
  5
42D
  8
0
 10
-14.028476382232
 20
892.39089145653475
 30
0.0
 11
-14.02847638223205
 21
851.39089145653463
 31
0.0
  0
LINE
  5
42E
  8
0
 10
-77.528476382232057
 20
817.39089145653475
 30
0.0
 11
-74.528476382232071
 21
817.39089145653475
 31
0.0
  0
ARC
  5
430
  8
0
 10
-55.884651227408227
 20
855.23927849397671
 30
0.0
 40
32.296004576585261
 50
89.999999999999034
 51
230.446553962964
  0
ARC
  5
485
  8
0
 10
-49.172301537055873
 20
855.23927849397671
 30
0.0
 40
32.296004576585148
 50
309.55344603703588
 51
89.999999999999034
  0
LINE
  5
486
  8
0
 10
-74.528476382232071
 20
881.61046912328243
 30
0.0
 11
-74.528476382232057
 21
816.39089145653497
 31
0.0
  0
LINE
  5
487
  8
0
 10
-77.528476382232071
 20
824.97061660686734
 30
0.0
 11
-77.528476382232071
 21
817.39089145653475
 31
0.0
  0
ARC
  5
489
  8
0
 10
-79.528476382232071
 20
826.39761298727535
 30
0.0
 40
5.0
 50
0.0
 51
52.00733407827282
  0
ARC
  5
48A
  8
0
 10
-82.528476382232057
 20
824.97061660686734
 30
0.0
 40
5.0
 50
0.0
 51
49.792904678790812
  0
ARC
  5
48B
  8
0
 10
-22.528476382232029
 20
824.97061660686734
 30
0.0
 40
5.0
 50
130.2070953212091
 51
180.0
  0
ARC
  5
48C
  8
0
 10
-25.528476382232039
 20
826.39761298727535
 30
0.0
 40
5.0
 50
127.99266592172719
 51
180.0
  0
LINE
  5
48D
  8
0
 10
-27.528476382232039
 20
817.39089145653475
 30
0.0
 11
-30.528476382232039
 21
817.39089145653475
 31
0.0
  0
LINE
  5
48E
  8
0
 10
-27.528476382232029
 20
824.97061660686734
 30
0.0
 11
-27.528476382232039
 21
817.39089145653475
 31
0.0
  0
LINE
  5
48F
  8
0
 10
-30.528476382232039
 20
881.61046912328231
 30
0.0
 11
-30.528476382232039
 21
816.39089145653475
 31
0.0
  0
LINE
  5
CDA
  8
0
 10
-22.528476382231979
 20
831.91231628876096
 30
0.0
 11
-22.528476382232071
 21
824.13555858761458
 31
0.0
  0
ARC
  5
CDB
  8
0
 10
-28.737109329181799
 20
829.39089145653463
 30
0.0
 40
6.2086329469497787
 50
327.02771773789391
 51
19.931570944191499
  0
LINE
  5
CDC
  8
0
 10
-27.528476382232039
 20
822.25917021274881
 30
0.0
 11
-23.528476382232071
 21
822.25917021274893
 31
0.0
  0
LINE
  5
CDD
  8
0
 10
-27.418837421100118
 20
826.01194696248024
 30
0.0
 11
-23.528476382232071
 21
826.01194696248024
 31
0.0
  0
ARC
  5
CDE
  8
0
 10
-24.788893048897702
 20
824.13555858761458
 30
0.0
 40
2.2604166666656629
 50
303.8902381689968
 51
0.0
  0
ARC
  5
CDF
  8
0
 10
-24.788893048897702
 20
824.13555858761458
 30
0.0
 40
2.2604166666656629
 50
0.0
 51
56.109761831004519
  0
LINE
  5
CE2
  8
0
  6
CENTER
 10
-88.028476382231986
 20
829.39089145653475
 30
0.0
 11
-17.028476382232121
 21
829.39089145653475
 31
0.0
  0
LINE
  5
CE3
  8
0
 10
-82.528476382231986
 20
831.91231628876096
 30
0.0
 11
-82.528476382231986
 21
824.13555858761458
 31
0.0
  0
ARC
  5
CE4
  8
0
 10
-76.31984343528228
 20
829.39089145653463
 30
0.0
 40
6.2086329469497787
 50
160.0684290558095
 51
212.97228226210601
  0
LINE
  5
CE5
  8
0
 10
-85.028476382231986
 20
832.79089145653461
 30
0.0
 11
-85.028476382231986
 21
825.99089145653454
 31
0.0
  0
LINE
  5
CE6
  8
0
 10
-84.428476382231963
 20
833.39089145653475
 30
0.0
 11
-84.428476382231963
 21
825.39089145653475
 31
0.0
  0
LINE
  5
CE7
  8
0
 10
-77.528476382232071
 20
822.25917021274893
 30
0.0
 11
-81.528476382231986
 21
822.25917021274893
 31
0.0
  0
LINE
  5
CE8
  8
0
 10
-77.638115343364092
 20
826.01194696248069
 30
0.0
 11
-81.528476382231986
 21
826.01194696248024
 31
0.0
  0
ARC
  5
CE9
  8
0
 10
-80.268059715566395
 20
824.13555858761458
 30
0.0
 40
2.2604166666656629
 50
180.0
 51
236.10976183100311
  0
LINE
  5
CEA
  8
0
 10
-84.428476382231963
 20
825.39089145653475
 30
0.0
 11
-82.528476382231986
 21
825.39089145653475
 31
0.0
  0
LINE
  5
CEB
  8
0
 10
-85.028476382231986
 20
825.99089145653454
 30
0.0
 11
-82.528476382231986
 21
825.99089145653454
 31
0.0
  0
LINE
  5
CEC
  8
0
 10
-85.028476382231986
 20
825.99089145653454
 30
0.0
 11
-84.428476382231963
 21
825.39089145653475
 31
0.0
  0
ARC
  5
CED
  8
0
 10
-80.268059715566395
 20
824.13555858761458
 30
0.0
 40
2.2604166666656629
 50
123.8902381689954
 51
180.0
  0
LINE
  5
CF0
  8
0
 10
-84.428476382231963
 20
833.39089145653475
 30
0.0
 11
-83.788240975735661
 21
833.39089145653475
 31
0.0
  0
LINE
  5
CF1
  8
0
 10
-85.028476382231986
 20
832.79089145653461
 30
0.0
 11
-83.294815796585553
 21
832.7908914565345
 31
0.0
  0
LINE
  5
CF2
  8
0
 10
-85.028476382231986
 20
832.79089145653461
 30
0.0
 11
-84.428476382231963
 21
833.39089145653475
 31
0.0
  0
ARC
  5
DEF
  8
0
 10
-47.352944467338411
 20
854.33902975440708
 30
0.0
 40
33.454621393443631
 50
5.0556625319006434
 51
90.0
  0
ARC
  5
DF0
  8
0
 10
-57.704008297125689
 20
854.33902975440708
 30
0.0
 40
33.454621393443631
 50
185.05566253190099
 51
229.79290467879051
  0
ARC
  5
EEE
  8
0
 10
-19.028476382232
 20
892.39089145653475
 30
0.0
 40
5.0
 50
0.000000000000007
 51
90.000000000000071
  0
LINE
  5
F43
  8
0
 10
-57.704008297125682
 20
887.79365114785071
 30
0.0
 11
-47.352944467338411
 21
887.79365114785071
 31
0.0
  0
LINE
  5
F44
  8
0
 10
-55.884651227408227
 20
887.53528307056206
 30
0.0
 11
-49.172301537055873
 21
887.53528307056195
 31
0.0
  0
ARC
  5
F9A
  8
0
 10
-38.528476382231929
 20
801.89089145653475
 30
0.0
 40
2.5
 50
269.94315010549752
 51
0.0
  0
LINE
  5
F9B
  8
0
 10
-38.530956926421169
 20
799.39089268715475
 30
0.0
 11
-41.308971840325079
 21
782.55709463803487
 31
0.0
  0
LINE
  5
F9C
  8
0
 10
-49.02847638223195
 20
879.19521156756844
 30
0.0
 11
-49.028476382231958
 21
779.58657134550128
 31
0.0
  0
LINE
  5
F9D
  8
0
 10
-46.028476382231773
 20
878.71073174541402
 30
0.0
 11
-46.028476382232071
 21
780.07105116765558
 31
0.0
  0
LINE
  5
F9E
  8
0
 10
-42.653267148493711
 20
780.98423224461396
 30
0.0
 11
-42.653267148493711
 21
877.79755066845507
 31
0.0
  0
LINE
  5
F9F
  8
0
 10
-38.530956926421169
 20
799.39089268715475
 30
0.0
 11
-38.530956926421169
 21
859.39089022591475
 31
0.0
  0
LINE
  5
FA0
  8
0
 10
-36.02847638223195
 20
856.89089145653497
 30
0.0
 11
-36.02847638223195
 21
801.89089145653475
 31
0.0
  0
ARC
  5
FA1
  8
0
 10
-52.528476382232043
 20
810.78985300501802
 30
0.0
 40
31.398961548483211
 50
263.60001600476852
 51
276.39998399523142
  0
ARC
  5
FA2
  8
0
 10
-52.528476382232043
 20
810.78985300501802
 30
0.0
 40
31.398961548483211
 50
281.94737622972667
 51
288.3310852295906
  0
ARC
  5
FA3
  8
0
 10
-47.169331344211528
 20
777.60491035339965
 30
0.0
 40
2.7172413510788478
 50
65.17439018310823
 51
133.17297004185161
  0
ARC
  5
FA4
  8
0
 10
-43.282282169802102
 20
782.88274221376628
 30
0.0
 40
2.0
 50
288.33108522959208
 51
350.62916285550517
  0
ARC
  5
FA5
  8
0
 10
-66.528476382232157
 20
801.89089145653475
 30
0.0
 40
2.5
 50
180.0
 51
270.05684989450242
  0
LINE
  5
FA6
  8
0
 10
-66.525995838042974
 20
799.39089268715475
 30
0.0
 11
-63.747980924139057
 21
782.55709463803487
 31
0.0
  0
LINE
  5
FA7
  8
0
 10
-56.028476382232178
 20
879.19521156756821
 30
0.0
 11
-56.028476382232178
 21
779.58657134550128
 31
0.0
  0
LINE
  5
FA8
  8
0
 10
-62.403685615970431
 20
780.98423224461396
 30
0.0
 11
-62.403685615970431
 21
877.79755066845553
 31
0.0
  0
LINE
  5
FA9
  8
0
 10
-59.028476382232363
 20
878.7107317454138
 30
0.0
 11
-59.028476382232071
 21
780.07105116765558
 31
0.0
  0
LINE
  5
FAB
  8
0
 10
-69.028476382232185
 20
856.89089145653497
 30
0.0
 11
-69.028476382232185
 21
801.89089145653475
 31
0.0
  0
LINE
  5
FAC
  8
0
 10
-66.525995838042974
 20
799.39089268715475
 30
0.0
 11
-66.525995838042974
 21
859.39089022591475
 31
0.0
  0
ARC
  5
FAD
  8
0
 10
-57.887621420252593
 20
777.60491035339965
 30
0.0
 40
2.7172413510788478
 50
46.827029958148337
 51
114.8256098168917
  0
ARC
  5
FAE
  8
0
 10
-61.774670594661998
 20
782.88274221376628
 30
0.0
 40
2.0
 50
189.3708371444946
 51
251.66891477040781
  0
ARC
  5
FAF
  8
0
 10
-52.528476382232043
 20
810.78985300501802
 30
0.0
 40
31.398961548483211
 50
251.66891477040781
 51
258.05262377027333
  0
ARC
  5
FB1
  8
0
 10
-57.887621420252593
 20
881.17687255966985
 30
0.0
 40
2.7172413510788478
 50
245.17439018310819
 51
313.17297004185161
  0
LINE
  5
FB6
  8
0
 10
-66.525995838042974
 20
859.39089022591475
 30
0.0
 11
-63.747980924139057
 21
876.22468827503485
 31
0.0
  0
ARC
  5
FB7
  8
0
 10
-61.774670594661998
 20
875.89904069930333
 30
0.0
 40
2.0
 50
108.33108522959211
 51
170.62916285550531
  0
ARC
  5
FB8
  8
0
 10
-52.528476382232043
 20
847.9919299080517
 30
0.0
 40
31.398961548483211
 50
101.9473762297266
 51
108.33108522959211
  0
ARC
  5
FB9
  8
0
 10
-66.528476382232157
 20
856.89089145653497
 30
0.0
 40
2.5
 50
89.94315010549758
 51
180.0
  0
ARC
  5
FC0
  8
0
 10
-52.528476382232043
 20
847.9919299080517
 30
0.0
 40
31.398961548483211
 50
71.668914770409444
 51
78.052623770273357
  0
ARC
  5
FC1
  8
0
 10
-52.528476382232043
 20
847.9919299080517
 30
0.0
 40
31.398961548483211
 50
83.600016004768605
 51
96.399983995231466
  0
ARC
  5
FC2
  8
0
 10
-47.169331344211528
 20
881.17687255966985
 30
0.0
 40
2.7172413510788478
 50
226.8270299581483
 51
294.8256098168917
  0
LINE
  5
FC3
  8
0
 10
-38.530956926421169
 20
859.39089022591475
 30
0.0
 11
-41.308971840325079
 21
876.22468827503485
 31
0.0
  0
ARC
  5
FC4
  8
0
 10
-43.282282169802102
 20
875.89904069930333
 30
0.0
 40
2.0
 50
9.3708371444947538
 51
71.668914770407866
  0
ARC
  5
FC5
  8
0
 10
-38.528476382231929
 20
856.89089145653497
 30
0.0
 40
2.5
 50
0.0
 51
90.056849894502434
  0
LINE
  5
1070
  8
0
  6
CENTER
 10
-74.528476382232071
 20
842.39089145653497
 30
0.0
 11
-69.028476382232185
 21
842.39089145653463
 31
0.0
  0
LINE
  5
1071
  8
0
  6
CENTER
 10
-74.528476382232071
 20
816.39089145653475
 30
0.0
 11
-69.028476382232185
 21
816.39089145653497
 31
0.0
  0
LINE
  5
10C7
  8
0
  6
CENTER
 10
-30.528476382232039
 20
842.39089145653497
 30
0.0
 11
-36.028476382231922
 21
842.39089145653463
 31
0.0
  0
LINE
  5
10C8
  8
0
  6
CENTER
 10
-30.528476382232039
 20
816.39089145653475
 30
0.0
 11
-36.028476382231922
 21
816.39089145653497
 31
0.0
  0
ARC
  5
11D6
  8
0
 10
-370.89843139052277
 20
777.60491035339965
 30
0.0
 40
2.7172413510788478
 50
46.827029958148337
 51
114.8256098168917
  0
LINE
  5
11D9
  8
0
  6
CENTER
 10
-402.0392863525023
 20
829.39089145653475
 30
0.0
 11
-330.03928635250242
 21
829.39089145653475
 31
0.0
  0
LINE
  5
11DA
  8
0
 10
-327.03928635250242
 20
897.39089145653486
 30
0.0
 11
-404.03928635250242
 21
897.39089145653486
 31
0.0
  0
LINE
  5
11DB
  8
0
 10
-408.0392863525023
 20
904.39089145653475
 30
0.0
 11
-323.0392863525023
 21
904.39089145653475
 31
0.0
  0
LINE
  5
11DC
  8
0
 10
-408.0392863525023
 20
907.39089145653475
 30
0.0
 11
-323.0392863525023
 21
907.39089145653486
 31
0.0
  0
LINE
  5
11DE
  8
0
 10
-404.03928635250242
 20
892.39089145653475
 30
0.0
 11
-404.0392863525023
 21
851.39089145653463
 31
0.0
  0
LINE
  5
11DF
  8
0
 10
-372.03928635250259
 20
876.6764159975055
 30
0.0
 11
-372.0392863525023
 21
780.07105116765558
 31
0.0
  0
LINE
  5
11E0
  8
0
 10
-375.41449558624072
 20
780.98423224461396
 30
0.0
 11
-375.41449558624072
 21
876.6764159975055
 31
0.0
  0
LINE
  5
11E1
  8
0
 10
-379.5368058083132
 20
799.39089268715475
 30
0.0
 11
-379.5368058083132
 21
859.39089022591475
 31
0.0
  0
LINE
  5
11E2
  8
0
 10
-382.03928635250242
 20
856.89089145653497
 30
0.0
 11
-382.03928635250242
 21
801.89089145653475
 31
0.0
  0
LINE
  5
11E3
  8
0
 10
-379.5368058083132
 20
799.39089268715475
 30
0.0
 11
-376.75879089440929
 21
782.55709463803487
 31
0.0
  0
ARC
  5
11E4
  8
0
 10
-374.7854805649323
 20
782.88274221376628
 30
0.0
 40
2.0
 50
189.3708371444946
 51
251.66891477040781
  0
ARC
  5
11E5
  8
0
 10
-365.5392863525023
 20
810.78985300501802
 30
0.0
 40
31.398961548483211
 50
251.66891477040781
 51
258.05262377027333
  0
ARC
  5
11E6
  8
0
 10
-379.53928635250242
 20
801.89089145653475
 30
0.0
 40
2.5
 50
180.0
 51
270.05684989450242
  0
LINE
  5
11E8
  8
0
 10
-399.03928635250219
 20
832.79089145653461
 30
0.0
 11
-396.53928635250219
 21
832.79089145653427
 31
0.0
  0
LINE
  5
11E9
  8
0
 10
-399.03928635250219
 20
825.99089145653454
 30
0.0
 11
-396.5392863525023
 21
825.99089145653454
 31
0.0
  0
LINE
  5
11EA
  8
0
 10
-398.43928635250222
 20
825.39089145653475
 30
0.0
 11
-396.5392863525023
 21
825.39089145653475
 31
0.0
  0
LINE
  5
11EB
  8
0
 10
-399.03928635250219
 20
832.79089145653461
 30
0.0
 11
-399.03928635250219
 21
825.99089145653454
 31
0.0
  0
LINE
  5
11EC
  8
0
 10
-398.43928635250222
 20
833.39089145653475
 30
0.0
 11
-398.43928635250222
 21
825.39089145653475
 31
0.0
  0
LINE
  5
11ED
  8
0
 10
-399.03928635250219
 20
825.99089145653454
 30
0.0
 11
-398.43928635250222
 21
825.39089145653475
 31
0.0
  0
LINE
  5
11EE
  8
0
 10
-398.43928635250222
 20
833.39089145653475
 30
0.0
 11
-396.53928635250219
 21
833.39089145653475
 31
0.0
  0
LINE
  5
11EF
  8
0
 10
-399.03928635250219
 20
832.79089145653461
 30
0.0
 11
-398.43928635250222
 21
833.39089145653475
 31
0.0
  0
LINE
  5
11F1
  8
0
  6
CENTER
 10
-388.5392863525023
 20
816.39089145653475
 30
0.0
 11
-382.03928635250242
 21
816.39089145653497
 31
0.0
  0
LINE
  5
11F2
  8
0
  6
CENTER
 10
-388.5392863525023
 20
842.39089145653497
 30
0.0
 11
-382.03928635250242
 21
842.39089145653463
 31
0.0
  0
ARC
  5
11F3
  8
0
 10
-390.3306534055526
 20
829.39089145653463
 30
0.0
 40
6.2086329469497787
 50
147.02771773790769
 51
212.97228226210601
  0
LINE
  5
11F4
  8
0
 10
-396.53928635250219
 20
834.64622432545514
 30
0.0
 11
-396.5392863525023
 21
824.13555858761458
 31
0.0
  0
LINE
  5
11F7
  8
0
 10
-391.5392863525023
 20
817.39089145653475
 30
0.0
 11
-388.5392863525023
 21
817.39089145653475
 31
0.0
  0
LINE
  5
11F8
  8
0
 10
-391.64892531363438
 20
826.01194696248069
 30
0.0
 11
-395.5392863525023
 21
826.01194696248024
 31
0.0
  0
LINE
  5
11F9
  8
0
 10
-391.5392863525023
 20
822.25917021274893
 30
0.0
 11
-395.5392863525023
 21
822.25917021274893
 31
0.0
  0
ARC
  5
11FA
  8
0
 10
-394.2788696858367
 20
824.13555858761458
 30
0.0
 40
2.2604166666656629
 50
180.0
 51
236.10976183100311
  0
ARC
  5
11FB
  8
0
 10
-394.2788696858367
 20
824.13555858761458
 30
0.0
 40
2.2604166666656629
 50
123.8902381689954
 51
180.0
  0
LINE
  5
11FC
  8
0
 10
-391.5392863525023
 20
889.39089145653475
 30
0.0
 11
-391.5392863525023
 21
817.39089145653475
 31
0.0
  0
LINE
  5
11FD
  8
0
 10
-379.5368058083132
 20
859.39089022591475
 30
0.0
 11
-376.75879089440929
 21
876.22468827503485
 31
0.0
  0
ARC
  5
11FE
  8
0
 10
-379.53928635250242
 20
856.89089145653497
 30
0.0
 40
2.5
 50
89.94315010549758
 51
180.0
  0
ARC
  5
11FF
  8
0
 10
-374.7854805649323
 20
875.89904069930333
 30
0.0
 40
2.0
 50
157.127134286689
 51
170.62916285550531
  0
LINE
  5
1201
  8
0
 10
-404.03928635250242
 20
897.39089145653486
 30
0.0
 11
-404.03928635250242
 21
904.39089145653486
 31
0.0
  0
ARC
  5
1202
  8
0
 10
-399.03928635250242
 20
892.39089145653475
 30
0.0
 40
5.0
 50
89.999999999999915
 51
180.0
  0
LINE
  5
1203
  8
0
 10
-408.0392863525023
 20
907.39089145653475
 30
0.0
 11
-408.0392863525023
 21
904.39089145653463
 31
0.0
  0
LINE
  5
1204
  8
0
  6
CENTER
 10
-365.5392863525023
 20
910.39089145653475
 30
0.0
 11
-365.5392863525023
 21
776.39089145653475
 31
0.0
  0
LINE
  5
1207
  8
0
 10
-327.0392863525023
 20
892.39089145653475
 30
0.0
 11
-327.0392863525023
 21
851.39089145653463
 31
0.0
  0
LINE
  5
1208
  8
0
 10
-349.03928635250219
 20
856.89089145653497
 30
0.0
 11
-349.03928635250219
 21
801.89089145653475
 31
0.0
  0
LINE
  5
1209
  8
0
 10
-351.5417668966914
 20
799.39089268715475
 30
0.0
 11
-351.5417668966914
 21
859.39089022591475
 31
0.0
  0
LINE
  5
120A
  8
0
 10
-355.664077118764
 20
780.98423224461396
 30
0.0
 11
-355.664077118764
 21
876.67641599750596
 31
0.0
  0
LINE
  5
120B
  8
0
 10
-359.03928635250202
 20
876.67641599750596
 30
0.0
 11
-359.0392863525023
 21
780.07105116765558
 31
0.0
  0
LINE
  5
120C
  8
0
 10
-362.03928635250219
 20
876.67641599750573
 30
0.0
 11
-362.03928635250219
 21
779.58657134550128
 31
0.0
  0
LINE
  5
120D
  8
0
 10
-369.03928635250242
 20
876.67641599750573
 30
0.0
 11
-369.03928635250242
 21
779.58657134550128
 31
0.0
  0
ARC
  5
120E
  8
0
 10
-365.5392863525023
 20
810.78985300501802
 30
0.0
 40
31.398961548483211
 50
281.94737622972667
 51
288.3310852295906
  0
ARC
  5
120F
  8
0
 10
-365.5392863525023
 20
810.78985300501802
 30
0.0
 40
31.398961548483211
 50
263.60001600476852
 51
276.39998399523142
  0
ARC
  5
1210
  8
0
 10
-360.18014131448177
 20
777.60491035339965
 30
0.0
 40
2.7172413510788478
 50
65.17439018310823
 51
133.17297004185161
  0
LINE
  5
1211
  8
0
 10
-351.5417668966914
 20
799.39089268715475
 30
0.0
 11
-354.31978181059532
 21
782.55709463803487
 31
0.0
  0
ARC
  5
1212
  8
0
 10
-356.29309214007242
 20
782.88274221376628
 30
0.0
 40
2.0
 50
288.33108522959208
 51
350.62916285550517
  0
ARC
  5
1213
  8
0
 10
-351.53928635250219
 20
801.89089145653475
 30
0.0
 40
2.5
 50
269.94315010549752
 51
0.0
  0
LINE
  5
1214
  8
0
  6
CENTER
 10
-342.5392863525023
 20
816.39089145653475
 30
0.0
 11
-349.03928635250219
 21
816.39089145653497
 31
0.0
  0
LINE
  5
1215
  8
0
  6
CENTER
 10
-342.5392863525023
 20
842.39089145653497
 30
0.0
 11
-349.03928635250219
 21
842.39089145653463
 31
0.0
  0
LINE
  5
121A
  8
0
 10
-351.5417668966914
 20
859.39089022591475
 30
0.0
 11
-354.31978181059532
 21
876.22468827503485
 31
0.0
  0
ARC
  5
121B
  8
0
 10
-351.53928635250219
 20
856.89089145653497
 30
0.0
 40
2.5
 50
0.0
 51
90.056849894502434
  0
ARC
  5
121C
  8
0
 10
-356.29309214007242
 20
875.89904069930333
 30
0.0
 40
2.0
 50
9.3708371444947538
 51
22.87286571331525
  0
ARC
  5
121F
  8
0
 10
-340.74791929945212
 20
829.39089145653463
 30
0.0
 40
6.2086329469497787
 50
327.02771773789391
 51
32.972282262085812
  0
LINE
  5
1220
  8
0
 10
-334.53928635250219
 20
834.64622432545457
 30
0.0
 11
-334.5392863525023
 21
824.13555858761458
 31
0.0
  0
LINE
  5
1222
  8
0
 10
-339.42964739137039
 20
826.01194696248024
 30
0.0
 11
-335.5392863525023
 21
826.01194696248024
 31
0.0
  0
LINE
  5
1223
  8
0
 10
-339.5392863525023
 20
822.25917021274881
 30
0.0
 11
-335.5392863525023
 21
822.25917021274893
 31
0.0
  0
LINE
  5
1224
  8
0
 10
-339.5392863525023
 20
824.97061660686734
 30
0.0
 11
-339.5392863525023
 21
817.39089145653475
 31
0.0
  0
LINE
  5
1225
  8
0
 10
-339.5392863525023
 20
817.39089145653475
 30
0.0
 11
-342.5392863525023
 21
817.39089145653475
 31
0.0
  0
ARC
  5
1226
  8
0
 10
-336.79970301916802
 20
824.13555858761458
 30
0.0
 40
2.2604166666656629
 50
303.8902381689968
 51
0.0
  0
ARC
  5
1227
  8
0
 10
-336.79970301916802
 20
824.13555858761458
 30
0.0
 40
2.2604166666656629
 50
0.0
 51
56.109761831004519
  0
ARC
  5
1229
  8
0
 10
-332.0392863525023
 20
892.39089145653475
 30
0.0
 40
5.0
 50
0.000000000000007
 51
90.000000000000071
  0
LINE
  5
122A
  8
0
 10
-327.03928635250242
 20
897.39089145653486
 30
0.0
 11
-327.03928635250242
 21
904.39089145653486
 31
0.0
  0
LINE
  5
122B
  8
0
 10
-323.0392863525023
 20
907.39089145653475
 30
0.0
 11
-323.0392863525023
 21
904.39089145653463
 31
0.0
  0
LINE
  5
122F
  8
0
 10
-339.5392863525023
 20
889.39089145653486
 30
0.0
 11
-339.5392863525023
 21
817.39089145653475
 31
0.0
  0
LINE
  5
1230
  8
0
 10
-391.5392863525023
 20
836.52261270032068
 30
0.0
 11
-395.5392863525023
 21
836.52261270032068
 31
0.0
  0
ARC
  5
1231
  8
0
 10
-394.2788696858367
 20
834.64622432545514
 30
0.0
 40
2.2604166666656629
 50
123.8902381689968
 51
180.0
  0
ARC
  5
1233
  8
0
 10
-371.77587412056113
 20
852.49428136652921
 30
0.0
 40
32.28227436445043
 50
181.958718892326
 51
216.28207162503179
  0
ARC
  5
1234
  8
0
 10
-336.79970301916802
 20
834.64622432545457
 30
0.0
 40
2.2604166666656629
 50
0.0
 51
56.10976183100319
  0
LINE
  5
1235
  8
0
 10
-339.5392863525023
 20
836.52261270032045
 30
0.0
 11
-335.5392863525023
 21
836.52261270032045
 31
0.0
  0
LINE
  5
1236
  8
0
 10
-339.42964739137039
 20
832.76983595058891
 30
0.0
 11
-335.5392863525023
 21
832.76983595058891
 31
0.0
  0
ARC
  5
1237
  8
0
 10
-336.79970301916802
 20
834.64622432545457
 30
0.0
 40
2.2604166666656629
 50
303.89023816899538
 51
0.0
  0
ARC
  5
1238
  8
0
 10
-359.31550062422411
 20
852.63529262786415
 30
0.0
 40
32.300194147857731
 50
320.09068412943452
 51
357.79206947428759
  0
LINE
  5
138D
  8
0
  6
CENTER
 10
-335.5392863525023
 20
910.39089145653475
 30
0.0
 11
-335.5392863525023
 21
901.39089145653463
 31
0.0
  0
LINE
  5
138F
  8
0
  6
CENTER
 10
-395.5392863525023
 20
910.39089145653475
 30
0.0
 11
-395.53928635250242
 21
901.39089145653463
 31
0.0
  0
LINE
  5
1390
  8
0
  6
CENTER
 10
-22.528476382232039
 20
910.39089145653475
 30
0.0
 11
-22.528476382231979
 21
901.39089145653463
 31
0.0
  0
LINE
  5
1391
  8
0
  6
CENTER
 10
-82.528476382232043
 20
910.39089145653475
 30
0.0
 11
-82.5284763822321
 21
901.39089145653463
 31
0.0
  0
LINE
  5
1C2C
  8
0
 10
873.27278137811231
 20
753.61086034757102
 30
0.0
 11
979.27278137811254
 21
753.61086034757068
 31
0.0
  0
LINE
  5
1C2D
  8
0
 10
857.2727813781122
 20
737.61086034757102
 30
0.0
 11
857.27278137811243
 21
664.61086034757091
 31
0.0
  0
LINE
  5
1C30
  8
0
 10
873.27278137811243
 20
648.61086034757091
 30
0.0
 11
979.27278137811254
 21
648.61086034757091
 31
0.0
  0
LINE
  5
1C31
  8
0
 10
995.27278137811254
 20
737.61086034757068
 30
0.0
 11
995.27278137811254
 21
664.61086034757091
 31
0.0
  0
ARC
  5
1C32
  8
0
 10
873.27278137811231
 20
737.61086034757102
 30
0.0
 40
16.0
 50
90.0
 51
180.0
  0
ARC
  5
1C33
  8
0
 10
979.27278137811254
 20
737.61086034757068
 30
0.0
 40
16.0
 50
0.0
 51
89.999999999999943
  0
ARC
  5
1C34
  8
0
 10
979.27278137811254
 20
664.61086034757091
 30
0.0
 40
16.0
 50
270.0
 51
0.0000000000000636
  0
ARC
  5
1C35
  8
0
 10
873.27278137811243
 20
664.61086034757091
 30
0.0
 40
16.0
 50
180.0
 51
270.0
  0
LINE
  5
1C39
  8
0
  6
CENTER
 10
926.27278137811243
 20
758.61086034757079
 30
0.0
 11
926.27278137811243
 21
643.61086034757091
 31
0.0
  0
LINE
  5
1C3A
  8
0
  6
CENTER
 10
848.84197335037197
 20
701.11086034757091
 30
0.0
 11
1217.607940256969
 21
701.11086034757091
 31
0.0
  0
LINE
  5
1C8F
  8
0
  6
CENTER
 10
978.77278137811265
 20
750.86086034757091
 30
0.0
 11
978.77278137811265
 21
728.86086034757091
 31
0.0
  0
LINE
  5
1C90
  8
0
  6
CENTER
 10
970.27278137811254
 20
739.86086034757079
 30
0.0
 11
987.27278137811254
 21
739.86086034757068
 31
0.0
  0
LINE
  5
1C91
  8
0
 10
984.27278137811265
 20
742.36086034757091
 30
0.0
 11
984.27278137811265
 21
737.36086034757091
 31
0.0
  0
LINE
  5
1C92
  8
0
 10
973.27278137811243
 20
742.36086034757091
 30
0.0
 11
973.27278137811243
 21
737.36086034757091
 31
0.0
  0
ARC
  5
1CE8
  8
0
 10
978.77278137811265
 20
742.36086034757091
 30
0.0
 40
5.5
 50
0.0
 51
180.0
  0
ARC
  5
1CE9
  8
0
 10
978.77278137811265
 20
737.36086034757091
 30
0.0
 40
5.5
 50
180.0
 51
0.0
  0
LINE
  5
1CEF
  8
0
  6
CENTER
 10
873.77278137811231
 20
750.86086034757091
 30
0.0
 11
873.77278137811231
 21
728.86086034757091
 31
0.0
  0
LINE
  5
1CF0
  8
0
 10
879.27278137811231
 20
742.36086034757091
 30
0.0
 11
879.27278137811231
 21
737.36086034757091
 31
0.0
  0
ARC
  5
1CF1
  8
0
 10
873.77278137811231
 20
737.36086034757091
 30
0.0
 40
5.5
 50
180.0
 51
0.000000000000007
  0
LINE
  5
1CF2
  8
0
  6
CENTER
 10
882.2727813781122
 20
739.86086034757079
 30
0.0
 11
865.2727813781122
 21
739.86086034757068
 31
0.0
  0
ARC
  5
1CF3
  8
0
 10
873.77278137811231
 20
742.36086034757091
 30
0.0
 40
5.5
 50
0.000000000000007
 51
180.0
  0
LINE
  5
1CF4
  8
0
 10
868.27278137811243
 20
742.36086034757091
 30
0.0
 11
868.27278137811243
 21
737.36086034757091
 31
0.0
  0
LINE
  5
1CF5
  8
0
 10
868.27278137811243
 20
659.86086034757079
 30
0.0
 11
868.27278137811243
 21
664.86086034757079
 31
0.0
  0
LINE
  5
1CF6
  8
0
 10
879.27278137811231
 20
659.86086034757079
 30
0.0
 11
879.27278137811231
 21
664.86086034757079
 31
0.0
  0
LINE
  5
1CF7
  8
0
  6
CENTER
 10
873.77278137811231
 20
651.36086034757091
 30
0.0
 11
873.77278137811231
 21
673.36086034757079
 31
0.0
  0
ARC
  5
1CF8
  8
0
 10
873.77278137811231
 20
664.86086034757079
 30
0.0
 40
5.5
 50
0.0
 51
180.0
  0
LINE
  5
1CF9
  8
0
  6
CENTER
 10
882.2727813781122
 20
662.36086034757091
 30
0.0
 11
865.2727813781122
 21
662.36086034757102
 31
0.0
  0
ARC
  5
1CFA
  8
0
 10
873.77278137811231
 20
659.86086034757079
 30
0.0
 40
5.5
 50
180.0
 51
0.0
  0
LINE
  5
1CFB
  8
0
  6
CENTER
 10
978.77278137811265
 20
651.36086034757091
 30
0.0
 11
978.77278137811265
 21
673.36086034757079
 31
0.0
  0
LINE
  5
1CFC
  8
0
 10
984.27278137811265
 20
659.86086034757079
 30
0.0
 11
984.27278137811265
 21
664.86086034757079
 31
0.0
  0
LINE
  5
1CFD
  8
0
 10
973.27278137811243
 20
659.86086034757079
 30
0.0
 11
973.27278137811243
 21
664.86086034757079
 31
0.0
  0
ARC
  5
1CFE
  8
0
 10
978.77278137811265
 20
664.86086034757079
 30
0.0
 40
5.5
 50
0.0
 51
180.0
  0
LINE
  5
1CFF
  8
0
  6
CENTER
 10
970.27278137811254
 20
662.36086034757091
 30
0.0
 11
987.27278137811254
 21
662.36086034757102
 31
0.0
  0
ARC
  5
1D00
  8
0
 10
978.77278137811265
 20
659.86086034757079
 30
0.0
 40
5.5
 50
180.0
 51
0.0
  0
CIRCLE
  5
1D55
  8
0
 10
926.27278137811243
 20
701.11086034757091
 30
0.0
 40
10.0
  0
CIRCLE
  5
1D56
  8
0
 10
926.27278137811243
 20
701.11086034757091
 30
0.0
 40
44.0
  0
CIRCLE
  5
1D57
  8
0
 10
926.27278137811243
 20
701.11086034757091
 30
0.0
 40
41.0
  0
CIRCLE
  5
1D58
  8
0
 10
926.27278137811243
 20
701.11086034757091
 30
0.0
 40
24.0
  0
LINE
  5
1D59
  8
0
 10
857.2727813781122
 20
1010.226656520102
 30
0.0
 11
857.2727813781122
 21
1014.226656520102
 31
0.0
  0
LINE
  5
1D5A
  8
0
 10
995.27278137811231
 20
1010.226656520102
 30
0.0
 11
995.27278137811231
 21
1014.226656520102
 31
0.0
  0
LINE
  5
1D5B
  8
0
 10
857.2727813781122
 20
1014.226656520102
 30
0.0
 11
995.27278137811231
 21
1014.226656520102
 31
0.0
  0
LINE
  5
1D5C
  8
0
 10
857.2727813781122
 20
1010.226656520102
 30
0.0
 11
995.27278137811231
 21
1010.226656520102
 31
0.0
  0
LINE
  5
1D5D
  8
0
 10
878.7727813781122
 20
1000.226656520102
 30
0.0
 11
973.77278137811254
 21
1000.226656520102
 31
0.0
  0
LINE
  5
1DB3
  8
0
  6
CENTER
 10
926.27278137811243
 20
1019.226656520102
 30
0.0
 11
926.27278137811243
 21
979.88457747972427
 31
0.0
  0
LINE
  5
1DB4
  8
0
 10
876.27278137811243
 20
1007.226656520102
 30
0.0
 11
876.27278137811243
 21
1007.226656520102
 31
0.0
  0
LINE
  5
1E0E
  8
0
 10
878.77278137811243
 20
993.22665652010267
 30
0.0
 11
973.77278137811254
 21
993.22665652010267
 31
0.0
  0
LINE
  5
1E0F
  8
0
 10
878.7727813781122
 20
1000.226656520102
 30
0.0
 11
878.77278137811243
 21
993.22665652010267
 31
0.0
  0
LINE
  5
1E10
  8
0
 10
973.77278137811254
 20
1000.226656520102
 30
0.0
 11
973.77278137811231
 21
993.22665652010267
 31
0.0
  0
ARC
  5
1EB9
  8
0
 10
873.27278137811231
 20
1007.226656520102
 30
0.0
 40
3.0
 50
353.62062979155849
 51
90.0
  0
LINE
  5
1F14
  8
0
  6
CENTER
 10
981.27278137811231
 20
979.22665652010267
 30
0.0
 11
981.27278137811231
 21
809.22665652010255
 31
0.0
  0
LINE
  5
1F15
  8
0
  6
CENTER
 10
896.27278137811231
 20
894.22665652010267
 30
0.0
 11
1066.2727813781121
 21
894.22665652010267
 31
0.0
  0
POLYLINE
  5
1F16
  8
0
 66
     1
 10
0.0
 20
0.0
 30
0.0
 70
     1
  0
VERTEX
  5
4137
  8
0
 10
975.7879538208108
 20
903.72665652010255
 30
0.0
  0
VERTEX
  5
4138
  8
0
 10
970.30312626350951
 20
894.22665652010267
 30
0.0
  0
VERTEX
  5
4139
  8
0
 10
975.7879538208108
 20
884.72665652010255
 30
0.0
  0
VERTEX
  5
413A
  8
0
 10
986.75760893541371
 20
884.72665652010255
 30
0.0
  0
VERTEX
  5
413B
  8
0
 10
992.24243649271511
 20
894.22665652010267
 30
0.0
  0
VERTEX
  5
413C
  8
0
 10
986.75760893541371
 20
903.72665652010255
 30
0.0
  0
SEQEND
  5
413D
  8
0
  0
ARC
  5
1F18
  8
0
 10
981.27278137811231
 20
894.22665652010267
 30
0.0
 40
80.0
 50
146.60093148518561
 51
50.444301558912983
  0
LINE
  5
1F1B
  8
0
 10
983.19960892673203
 20
875.23711746956963
 30
0.0
 11
970.66226038765762
 21
877.44779028355435
 31
0.0
  0
LINE
  5
1F1F
  8
0
 10
997.0778533019469
 20
889.26627292631838
 30
0.0
 11
990.79807758107165
 21
934.5580000592322
 31
0.0
  0
ARC
  5
1F20
  8
0
 10
985.28338705873512
 20
887.05481050571598
 30
0.0
 40
12.0
 50
260.0
 51
10.61965527615518
  0
LINE
  5
1F30
  8
0
 10
964.73829773313707
 20
880.86799171681105
 30
0.0
 11
876.84090947964785
 21
981.25712878088063
 31
0.0
  0
ARC
  5
1F33
  8
0
 10
972.39874216432679
 20
887.29586781367652
 30
0.0
 40
10.0
 50
219.99999999999989
 51
260.0
  0
LINE
  5
1F36
  8
0
 10
973.77278137811231
 20
993.22665652010267
 30
0.0
 11
978.7727813781122
 21
988.22665652010255
 31
0.0
  0
LINE
  5
1F37
  8
0
 10
877.96578550469383
 20
988.22665652010278
 30
0.0
 11
978.7727813781122
 21
988.22665652010255
 31
0.0
  0
LINE
  5
1F38
  8
0
 10
878.77278137811243
 20
993.22665652010267
 30
0.0
 11
876.84090947964785
 21
981.25712878088018
 31
0.0
  0
ARC
  5
2035
  8
0
 10
981.27278137811231
 20
894.22665652010267
 30
0.0
 40
41.5
 50
161.9884985495477
 51
76.74322469602518
  0
LINE
  5
2036
  8
0
 10
982.77278137811209
 20
875.31237868250116
 30
0.0
 11
982.77278137811231
 21
852.75377381344708
 31
0.0
  0
LINE
  5
2037
  8
0
 10
979.7727813781122
 20
875.84135962462653
 30
0.0
 11
979.7727813781122
 21
852.75377381344708
 31
0.0
  0
LINE
  5
2038
  8
0
 10
994.272682423481
 20
879.105435131175
 30
0.0
 11
1009.537877803562
 21
863.84023975109255
 31
0.0
  0
LINE
  5
2039
  8
0
 10
995.98839098967096
 20
881.63236725210356
 30
0.0
 11
1011.659198147122
 21
865.9615600946521
 31
0.0
  0
LINE
  5
203A
  8
0
 10
996.42903137811231
 20
892.72665652010255
 30
0.0
 11
1022.745664084767
 21
892.72665652010255
 31
0.0
  0
LINE
  5
203B
  8
0
 10
995.86653137811254
 20
895.72665652010267
 30
0.0
 11
1022.745664084767
 21
895.72665652010255
 31
0.0
  0
LINE
  5
203C
  8
0
 10
994.80758811819419
 20
905.64014291662568
 30
0.0
 11
1011.659198147122
 21
922.49175294555334
 31
0.0
  0
LINE
  5
203D
  8
0
 10
994.29096885164097
 20
909.36616433719109
 30
0.0
 11
1009.537877803562
 21
924.61307328911289
 31
0.0
  0
LINE
  5
2042
  8
0
 10
951.72854521071224
 20
895.72665652010255
 30
0.0
 11
939.79989867145684
 21
895.72665652010255
 31
0.0
  0
LINE
  5
2043
  8
0
 10
954.35524539434016
 20
892.72665652010255
 30
0.0
 11
939.79989867145684
 21
892.72665652010255
 31
0.0
  0
LINE
  5
2044
  8
0
 10
965.23919999544489
 20
880.31439548099468
 30
0.0
 11
950.88636460910243
 21
865.9615600946521
 31
0.0
  0
LINE
  5
2045
  8
0
 10
967.65830170212007
 20
878.49085650055065
 30
0.0
 11
953.00768495266198
 21
863.84023975109244
 31
0.0
  0
ARC
  5
209A
  8
0
 10
981.27278137811231
 20
894.22665652010267
 30
0.0
 40
52.5
 50
155.0685131164839
 51
72.67619065309465
  0
ARC
  5
209B
  8
0
 10
981.27278137811231
 20
894.22665652010267
 30
0.0
 40
62.5
 50
151.07137900031211
 51
61.30637082523311
  0
ARC
  5
209C
  8
0
 10
981.27278137811231
 20
894.22665652010267
 30
0.0
 40
78.0
 50
147.0058995227887
 51
51.378445107477013
  0
LINE
  5
20F5
  8
0
  6
CENTER
 10
1225.8412509783541
 20
894.22665652010267
 30
0.0
 11
1123.8412509783541
 21
894.22665652010267
 31
0.0
  0
LINE
  5
20F8
  8
0
 10
1194.8412509783541
 20
835.72665652010278
 30
0.0
 11
1194.8412509783541
 21
952.72665652010255
 31
0.0
  0
LINE
  5
20F9
  8
0
 10
1154.8412509783541
 20
835.72665652010278
 30
0.0
 11
1154.8412509783529
 21
952.72665652010255
 31
0.0
  0
LINE
  5
20FE
  8
0
  6
CENTER
 10
1174.8412509783541
 20
1019.226656520102
 30
0.0
 11
1174.8412509783541
 21
809.22665652010255
 31
0.0
  0
LINE
  5
20FF
  8
0
 10
1185.3412509783541
 20
970.82993499504835
 30
0.0
 11
1185.3412509783541
 21
817.25611235560541
 31
0.0
  0
LINE
  5
2107
  8
0
 10
1164.3412509783541
 20
970.82993499504835
 30
0.0
 11
1164.3412509783541
 21
817.25611235560564
 31
0.0
  0
ARC
  5
210A
  8
0
 10
1174.8412509783541
 20
945.66415652010335
 30
0.0
 40
28.562499999999361
 50
71.33707511505709
 51
74.776672407630443
  0
ARC
  5
210B
  8
0
 10
1166.3412509783541
 20
970.82993499504835
 30
0.0
 40
2.0
 50
108.6629248849413
 51
180.0
  0
ARC
  5
210C
  8
0
 10
1183.3412509783541
 20
970.82993499504835
 30
0.0
 40
2.0
 50
0.0
 51
71.337075115057644
  0
LINE
  5
210F
  8
0
 10
1190.8412509783541
 20
956.72665652010255
 30
0.0
 11
1190.8412509783541
 21
831.72665652010267
 31
0.0
  0
LINE
  5
2110
  8
0
 10
1190.8412509783541
 20
956.72665652010267
 30
0.0
 11
1185.210766946499
 21
971.54050522018383
 31
0.0
  0
ARC
  5
2111
  8
0
 10
1190.8412509783541
 20
952.72665652010255
 30
0.0
 40
4.0
 50
359.99999999999989
 51
90.0
  0
ARC
  5
2112
  8
0
 10
1158.8412509783529
 20
952.72665652010255
 30
0.0
 40
4.0
 50
90.0
 51
180.0
  0
LINE
  5
2113
  8
0
 10
1158.8412509783541
 20
956.72665652010267
 30
0.0
 11
1164.471735010208
 21
971.54050522018383
 31
0.0
  0
LINE
  5
2114
  8
0
 10
1158.8412509783541
 20
956.72665652010255
 30
0.0
 11
1158.8412509783541
 21
831.72665652010267
 31
0.0
  0
LINE
  5
211D
  8
0
 10
1178.3412509783541
 20
974.01140341023302
 30
0.0
 11
1178.3412509783541
 21
814.4419096299722
 31
0.0
  0
LINE
  5
211F
  8
0
 10
1182.3412509783541
 20
973.22438885312181
 30
0.0
 11
1182.3412509783541
 21
815.22892418708341
 31
0.0
  0
ARC
  5
2120
  8
0
 10
1181.8162716465411
 20
981.11468589171011
 30
0.0
 40
7.9077424500286071
 50
243.93150219919599
 51
273.80655277007668
  0
ARC
  5
2121
  8
0
 10
1174.8412509783541
 20
945.66415652010335
 30
0.0
 40
28.562499999999361
 50
82.961382561643717
 51
97.038617438356283
  0
ARC
  5
2122
  8
0
 10
1167.8662303101671
 20
981.11468589171011
 30
0.0
 40
7.9077424500286071
 50
266.19344722992321
 51
296.06849780080393
  0
ARC
  5
2123
  8
0
 10
1174.8412509783541
 20
945.66415652010335
 30
0.0
 40
28.562499999999361
 50
105.2233275923695
 51
108.6629248849418
  0
LINE
  5
2124
  8
0
 10
1171.3412509783541
 20
974.01140341023302
 30
0.0
 11
1171.3412509783529
 21
814.44190962997243
 31
0.0
  0
LINE
  5
2125
  8
0
 10
1167.3412509783541
 20
973.22438885312181
 30
0.0
 11
1167.3412509783529
 21
815.22892418708341
 31
0.0
  0
LINE
  5
2126
  8
0
 10
1164.3412509783529
 20
970.82993499504835
 30
0.0
 11
1164.3412509783529
 21
817.25611235560541
 31
0.0
  0
ARC
  5
2127
  8
0
 10
1181.8162716465411
 20
807.33862714849522
 30
0.0
 40
7.9077424500286071
 50
86.193447229923294
 51
116.0684978008039
  0
LINE
  5
2128
  8
0
 10
1158.8412509783541
 20
831.72665652010267
 30
0.0
 11
1164.471735010208
 21
816.91280782002161
 31
0.0
  0
ARC
  5
2129
  8
0
 10
1158.8412509783529
 20
835.72665652010278
 30
0.0
 40
4.0
 50
179.99999999999989
 51
270.0
  0
ARC
  5
212A
  8
0
 10
1174.8412509783541
 20
842.78915652010187
 30
0.0
 40
28.562499999999361
 50
251.3370751150581
 51
254.7766724076304
  0
ARC
  5
212B
  8
0
 10
1166.3412509783541
 20
817.62337804515687
 30
0.0
 40
2.0
 50
180.0
 51
251.3370751150587
  0
ARC
  5
212C
  8
0
 10
1174.8412509783541
 20
842.78915652010187
 30
0.0
 40
28.562499999999361
 50
262.96138256164369
 51
277.0386174383562
  0
ARC
  5
212D
  8
0
 10
1167.8662303101671
 20
807.33862714849522
 30
0.0
 40
7.9077424500286071
 50
63.931502199196089
 51
93.806552770076735
  0
ARC
  5
212E
  8
0
 10
1190.8412509783541
 20
835.72665652010278
 30
0.0
 40
4.0
 50
270.0
 51
0.0000000000000649
  0
LINE
  5
212F
  8
0
 10
1190.8412509783541
 20
831.72665652010267
 30
0.0
 11
1185.210766946499
 21
816.91280782002161
 31
0.0
  0
ARC
  5
2130
  8
0
 10
1174.8412509783541
 20
842.78915652010187
 30
0.0
 40
28.562499999999361
 50
285.2233275923694
 51
288.66292488494292
  0
ARC
  5
2131
  8
0
 10
1183.3412509783541
 20
817.6233780451571
 30
0.0
 40
2.0
 50
288.6629248849423
 51
0.0
  0
LINE
  5
22AC
  8
0
 10
1126.8412509783541
 20
925.67984817102922
 30
0.0
 11
1126.8412509783541
 21
987.22665652010278
 31
0.0
  0
ARC
  5
22B5
  8
0
 10
1175.8654714135901
 20
931.8560135993331
 30
0.0
 40
49.411731488386678
 50
91.187728290794965
 51
172.8195960136317
  0
ARC
  5
22B6
  8
0
 10
1178.0742488613089
 20
932.79152196228267
 30
0.0
 40
48.573319009576522
 50
93.816378650197237
 51
227.55292681404771
  0
LINE
  5
22B8
  8
0
 10
1148.542596807408
 20
874.22665652010255
 30
0.0
 11
1143.84125097836
 21
874.22665652010255
 31
0.0
  0
LINE
  5
22BA
  8
0
 10
1143.84125097836
 20
889.85936212258423
 30
0.0
 11
1143.84125097836
 21
874.22665652010255
 31
0.0
  0
LINE
  5
22BB
  8
0
 10
1148.542596807408
 20
971.35638740446268
 30
0.0
 11
1148.542596807408
 21
874.22665652010255
 31
0.0
  0
ARC
  5
22BC
  8
0
 10
1133.84125097836
 20
889.85936212258423
 30
0.0
 40
10.0
 50
0.0
 51
44.98120008905039
  0
ARC
  5
22BD
  8
0
 10
1138.542596807408
 20
889.57020562778075
 30
0.0
 40
10.0
 50
0.0000000000006514
 51
47.552926814047517
  0
ARC
  5
22BF
  8
0
 10
1171.608253095399
 20
932.79152196228267
 30
0.0
 40
48.573319009576522
 50
312.44707318595232
 51
86.183621349802763
  0
LINE
  5
22C0
  8
0
 10
1201.139905149299
 20
971.35638740446268
 30
0.0
 11
1201.139905149299
 21
874.22665652010255
 31
0.0
  0
LINE
  5
22C1
  8
0
 10
1205.8412509783479
 20
889.85936212258423
 30
0.0
 11
1205.8412509783479
 21
874.22665652010255
 31
0.0
  0
LINE
  5
22C2
  8
0
 10
1201.139905149299
 20
874.22665652010255
 30
0.0
 11
1205.8412509783479
 21
874.22665652010255
 31
0.0
  0
ARC
  5
22C3
  8
0
 10
1211.139905149299
 20
889.57020562778075
 30
0.0
 40
10.0
 50
132.44707318595241
 51
179.99999999999929
  0
ARC
  5
22C4
  8
0
 10
1215.8412509783479
 20
889.85936212258423
 30
0.0
 40
10.0
 50
135.0187999109495
 51
180.0
  0
ARC
  5
22F1
  8
0
 10
1207.2006259783541
 20
889.47665652010255
 30
0.0
 40
6.6406249999998108
 50
314.33269164416549
 51
45.66730835583445
  0
ARC
  5
22F2
  8
0
 10
1207.2006259783541
 20
898.97665652010255
 30
0.0
 40
6.640624999999984
 50
314.33269164416549
 51
26.50412389277648
  0
LINE
  5
22F3
  8
0
 10
1213.8412509783541
 20
898.97665652010255
 30
0.0
 11
1213.8412509783541
 21
889.47665652010255
 31
0.0
  0
LINE
  5
22F4
  8
0
 10
1206.845321918745
 20
894.22665652010255
 30
0.0
 11
1211.8412509783541
 21
894.22665652010267
 31
0.0
  0
LINE
  5
22F5
  8
0
 10
1205.8412509783541
 20
884.72665652010255
 30
0.0
 11
1211.8412509783541
 21
884.72665652010255
 31
0.0
  0
LINE
  5
22FB
  8
0
 10
1128.8412509783541
 20
899.32665652010235
 30
0.0
 11
1134.850480922212
 21
899.32665652010235
 31
0.0
  0
LINE
  5
22FC
  8
0
 10
1128.8412509783541
 20
889.12665652010276
 30
0.0
 11
1134.850480922212
 21
889.12665652010276
 31
0.0
  0
LINE
  5
22FD
  8
0
 10
1134.9599590522789
 20
900.22665652010221
 30
0.0
 11
1129.7412509783539
 21
900.22665652010221
 31
0.0
  0
LINE
  5
22FE
  8
0
 10
1134.9599590522789
 20
888.22665652010255
 30
0.0
 11
1129.7412509783539
 21
888.22665652010255
 31
0.0
  0
LINE
  5
22FF
  8
0
 10
1143.8412509783541
 20
884.72665652010255
 30
0.0
 11
1136.8412509783541
 21
884.72665652010255
 31
0.0
  0
LINE
  5
2300
  8
0
 10
1142.837180037963
 20
894.22665652010267
 30
0.0
 11
1136.8412509783541
 21
894.22665652010267
 31
0.0
  0
ARC
  5
2302
  8
0
 10
1141.4818759783541
 20
889.47665652010255
 30
0.0
 40
6.6406249999998108
 50
134.33269164416549
 51
225.66730835583439
  0
LINE
  5
2303
  8
0
 10
1134.8412509783541
 20
898.97665652010255
 30
0.0
 11
1134.8412509783541
 21
889.47665652010255
 31
0.0
  0
ARC
  5
2304
  8
0
 10
1141.4818759783541
 20
898.97665652010255
 30
0.0
 40
6.640624999999984
 50
145.97581737605341
 51
225.66730835583439
  0
LINE
  5
2307
  8
0
 10
1129.7412509783539
 20
900.22665652010221
 30
0.0
 11
1129.7412509783539
 21
888.22665652010255
 31
0.0
  0
LINE
  5
2308
  8
0
 10
1129.7412509783539
 20
900.22665652010221
 30
0.0
 11
1128.8412509783541
 21
899.32665652010235
 31
0.0
  0
LINE
  5
2309
  8
0
 10
1129.7412509783539
 20
888.22665652010255
 30
0.0
 11
1128.8412509783541
 21
889.12665652010276
 31
0.0
  0
LINE
  5
230A
  8
0
 10
1128.8412509783541
 20
899.32665652010235
 30
0.0
 11
1128.8412509783541
 21
889.12665652010276
 31
0.0
  0
LINE
  5
236C
  8
0
 10
878.7727813781122
 20
1000.226656520102
 30
0.0
 11
882.21705328811152
 21
1000.226656520102
 31
0.0
  0
ARC
  5
2370
  8
0
 10
882.21705328811152
 20
1006.226656520102
 30
0.0
 40
6.0
 50
173.6206297915576
 51
270.0
  0
ARC
  5
2371
  8
0
 10
979.27278137811231
 20
1007.226656520102
 30
0.0
 40
3.0
 50
90.0
 51
186.3793702084414
  0
LINE
  5
2372
  8
0
 10
973.77278137811231
 20
1000.226656520102
 30
0.0
 11
970.32850946811334
 21
1000.226656520102
 31
0.0
  0
ARC
  5
2373
  8
0
 10
970.32850946811334
 20
1006.226656520102
 30
0.0
 40
6.0
 50
270.0
 51
6.3793702084423769
  0
LINE
  5
2374
  8
0
 10
976.27278137811243
 20
1007.226656520102
 30
0.0
 11
976.27278137811243
 21
1007.226656520102
 31
0.0
  0
LINE
  5
2375
  8
0
 10
1122.3412509783541
 20
1014.226656520102
 30
0.0
 11
1227.3412509783541
 21
1014.226656520102
 31
0.0
  0
LINE
  5
2378
  8
0
 10
1127.3412509783541
 20
1000.226656520102
 30
0.0
 11
1222.3412509783541
 21
1000.226656520102
 31
0.0
  0
LINE
  5
2379
  8
0
 10
1127.3412509783541
 20
993.22665652010289
 30
0.0
 11
1222.3412509783541
 21
993.22665652010255
 31
0.0
  0
LINE
  5
237A
  8
0
 10
1127.3412509783541
 20
1000.226656520102
 30
0.0
 11
1127.3412509783541
 21
993.22665652010267
 31
0.0
  0
ARC
  5
237B
  8
0
 10
1122.3412509783541
 20
1007.184696411652
 30
0.0
 40
3.0
 50
353.62062979155849
 51
90.0
  0
LINE
  5
237C
  8
0
 10
1127.3412509783541
 20
1000.226656520102
 30
0.0
 11
1130.7855228883529
 21
1000.226656520102
 31
0.0
  0
ARC
  5
237D
  8
0
 10
1131.2855228883529
 20
1006.184696411652
 30
0.0
 40
6.0
 50
173.6206297915576
 51
270.0
  0
LINE
  5
237E
  8
0
 10
1125.3412509783541
 20
1007.184696411652
 30
0.0
 11
1125.3412509783541
 21
1007.184696411652
 31
0.0
  0
LINE
  5
2381
  8
0
 10
1222.3412509783541
 20
1000.226656520102
 30
0.0
 11
1222.3412509783541
 21
993.22665652010267
 31
0.0
  0
ARC
  5
2388
  8
0
 10
1175.8654714135901
 20
931.8560135993331
 30
0.0
 40
49.411731488386678
 50
187.18040398636819
 51
224.98120008905059
  0
ARC
  5
238A
  8
0
 10
1173.8170305431131
 20
931.8560135993331
 30
0.0
 40
49.411731488386678
 50
7.1804039863682556
 51
88.812271709205049
  0
LINE
  5
238B
  8
0
 10
1222.8412509783491
 20
925.67984817102922
 30
0.0
 11
1222.8412509783491
 21
987.22665652010255
 31
0.0
  0
ARC
  5
238C
  8
0
 10
1173.8170305431131
 20
931.8560135993331
 30
0.0
 40
49.411731488386678
 50
315.01879991094933
 51
352.81959601363172
  0
ARC
  5
238D
  8
0
 10
1132.8412509783541
 20
987.22665652010278
 30
0.0
 40
6.0
 50
90.0
 51
180.0
  0
ARC
  5
238E
  8
0
 10
1216.8412509783491
 20
987.22665652010255
 30
0.0
 40
6.0
 50
0.0
 51
89.999999999999872
  0
LINE
  5
2511
  8
0
  6
CENTER
 10
978.77278137811265
 20
1005.226656520102
 30
0.0
 11
978.77278137811265
 21
1019.226656520102
 31
0.0
  0
LINE
  5
2512
  8
0
  6
CENTER
 10
873.77278137811197
 20
1005.226656520102
 30
0.0
 11
873.77278137811197
 21
1019.226656520102
 31
0.0
  0
LINE
  5
258F
  8
0
 10
1122.3412509783541
 20
1014.226656520102
 30
0.0
 11
1122.3412509783541
 21
1010.184696411652
 31
0.0
  0
LINE
  5
2590
  8
0
 10
1227.3412509783541
 20
1014.226656520102
 30
0.0
 11
1227.3412509783541
 21
1010.184696411652
 31
0.0
  0
ARC
  5
2591
  8
0
 10
1227.3412509783541
 20
1007.184696411652
 30
0.0
 40
3.0
 50
90.0
 51
186.3793702084414
  0
ARC
  5
2592
  8
0
 10
1218.396979068355
 20
1006.184696411652
 30
0.0
 40
6.0
 50
270.0
 51
6.3793702084423769
  0
LINE
  5
2593
  8
0
 10
1224.3412509783541
 20
1007.184696411652
 30
0.0
 11
1224.3412509783541
 21
1007.184696411652
 31
0.0
  0
LINE
  5
2594
  8
0
 10
1222.3412509783541
 20
1000.226656520102
 30
0.0
 11
1218.896979068355
 21
1000.226656520102
 31
0.0
  0
LINE
  5
2595
  8
0
  6
CENTER
 10
761.09726762857872
 20
1019.226656520102
 30
0.0
 11
761.09726762857872
 21
809.22665652010255
 31
0.0
  0
LINE
  5
2596
  8
0
 10
741.09726762857872
 20
835.72665652010278
 30
0.0
 11
741.09726762857827
 21
952.72665652010255
 31
0.0
  0
LINE
  5
2597
  8
0
 10
781.09726762857861
 20
835.72665652010278
 30
0.0
 11
781.09726762857861
 21
952.72665652010255
 31
0.0
  0
LINE
  5
2598
  8
0
 10
750.59726762857872
 20
970.82993499504835
 30
0.0
 11
750.59726762857872
 21
817.25611235560564
 31
0.0
  0
LINE
  5
2599
  8
0
 10
745.09726762857838
 20
956.72665652010255
 30
0.0
 11
745.09726762857872
 21
831.72665652010267
 31
0.0
  0
LINE
  5
259A
  8
0
 10
771.59726762857872
 20
970.82993499504835
 30
0.0
 11
771.59726762857872
 21
817.25611235560541
 31
0.0
  0
LINE
  5
259B
  8
0
 10
777.09726762857872
 20
956.72665652010255
 30
0.0
 11
777.09726762857872
 21
831.72665652010267
 31
0.0
  0
LINE
  5
259C
  8
0
 10
750.59726762857815
 20
970.82993499504835
 30
0.0
 11
750.59726762857815
 21
817.25611235560541
 31
0.0
  0
LINE
  5
259D
  8
0
 10
768.59726762857849
 20
966.60834201387217
 30
0.0
 11
768.59726762857861
 21
815.22892418708341
 31
0.0
  0
LINE
  5
259E
  8
0
 10
764.59726762857849
 20
965.26665440904981
 30
0.0
 11
764.59726762857849
 21
814.4419096299722
 31
0.0
  0
LINE
  5
259F
  8
0
 10
757.59726762857838
 20
965.26665440904981
 30
0.0
 11
757.59726762857827
 21
814.44190962997243
 31
0.0
  0
LINE
  5
25A0
  8
0
 10
753.59726762857838
 20
966.60834201387377
 30
0.0
 11
753.59726762857827
 21
815.22892418708341
 31
0.0
  0
LINE
  5
25A1
  8
0
 10
777.09726762857872
 20
831.72665652010267
 30
0.0
 11
771.46678359672433
 21
816.91280782002161
 31
0.0
  0
LINE
  5
25A2
  8
0
 10
745.09726762857872
 20
831.72665652010267
 30
0.0
 11
750.72775166043311
 21
816.91280782002161
 31
0.0
  0
ARC
  5
25A3
  8
0
 10
761.09726762857838
 20
842.78915652010187
 30
0.0
 40
28.562499999999361
 50
262.96138256164369
 51
277.0386174383562
  0
ARC
  5
25A4
  8
0
 10
752.59726762857872
 20
817.62337804515687
 30
0.0
 40
2.0
 50
180.0
 51
251.3370751150587
  0
ARC
  5
25A5
  8
0
 10
761.09726762857838
 20
842.78915652010187
 30
0.0
 40
28.562499999999361
 50
251.3370751150581
 51
254.7766724076304
  0
ARC
  5
25A6
  8
0
 10
754.12224696039175
 20
807.33862714849522
 30
0.0
 40
7.9077424500286071
 50
63.931502199196089
 51
93.806552770076735
  0
ARC
  5
25A7
  8
0
 10
769.59726762857872
 20
817.6233780451571
 30
0.0
 40
2.0
 50
288.6629248849423
 51
0.0
  0
ARC
  5
25A8
  8
0
 10
761.09726762857838
 20
842.78915652010187
 30
0.0
 40
28.562499999999361
 50
285.2233275923694
 51
288.66292488494292
  0
ARC
  5
25A9
  8
0
 10
768.07228829676524
 20
807.33862714849522
 30
0.0
 40
7.9077424500286071
 50
86.193447229923294
 51
116.0684978008039
  0
ARC
  5
25AA
  8
0
 10
745.09726762857827
 20
835.72665652010278
 30
0.0
 40
4.0
 50
179.99999999999989
 51
270.0
  0
ARC
  5
25AB
  8
0
 10
777.09726762857872
 20
835.72665652010278
 30
0.0
 40
4.0
 50
270.0
 51
0.0000000000000649
  0
LINE
  5
25AC
  8
0
 10
708.59726762857872
 20
1014.226656520102
 30
0.0
 11
813.59726762857872
 21
1014.226656520102
 31
0.0
  0
LINE
  5
25AD
  8
0
 10
713.59726762857872
 20
993.22665652010289
 30
0.0
 11
736.09726762857872
 21
993.22665652010267
 31
0.0
  0
LINE
  5
25AF
  8
0
 10
713.59726762857872
 20
1000.226656520102
 30
0.0
 11
808.59726762857895
 21
1000.226656520102
 31
0.0
  0
LINE
  5
25B0
  8
0
 10
777.09726762857872
 20
956.72665652010267
 30
0.0
 11
771.46678359672433
 21
971.54050522018383
 31
0.0
  0
LINE
  5
25B1
  8
0
  6
CENTER
 10
812.09726762857861
 20
894.22665652010267
 30
0.0
 11
710.09726762857861
 21
894.22665652010267
 31
0.0
  0
LINE
  5
25B3
  8
0
 10
732.29861345762674
 20
985.22665652010221
 30
0.0
 11
732.29861345762674
 21
874.22665652010255
 31
0.0
  0
LINE
  5
25B4
  8
0
 10
713.09726762857849
 20
925.67984817102922
 30
0.0
 11
713.09726762857849
 21
987.22665652010278
 31
0.0
  0
ARC
  5
25B6
  8
0
 10
762.12148806381492
 20
931.8560135993331
 30
0.0
 40
49.411731488386678
 50
187.18040398636819
 51
214.7003809881231
  0
ARC
  5
25B7
  8
0
 10
725.23789262857861
 20
898.97665652010255
 30
0.0
 40
6.640624999999984
 50
134.3326916441649
 51
225.66730835583439
  0
LINE
  5
25B8
  8
0
 10
718.59726762857861
 20
898.97665652010255
 30
0.0
 11
718.59726762857861
 21
889.47665652010255
 31
0.0
  0
LINE
  5
25B9
  8
0
 10
712.59726762857872
 20
899.32665652010235
 30
0.0
 11
712.59726762857872
 21
889.12665652010276
 31
0.0
  0
LINE
  5
25BA
  8
0
 10
713.49726762857881
 20
900.22665652010221
 30
0.0
 11
713.49726762857881
 21
888.22665652010255
 31
0.0
  0
LINE
  5
25BB
  8
0
 10
727.59726762857883
 20
982.22665652010289
 30
0.0
 11
727.59726762857872
 21
874.22665652010255
 31
0.0
  0
LINE
  5
25BC
  8
0
 10
732.29861345762674
 20
874.22665652010255
 30
0.0
 11
727.59726762857872
 21
874.22665652010255
 31
0.0
  0
LINE
  5
25BD
  8
0
 10
726.59319668818785
 20
894.22665652010267
 30
0.0
 11
720.59726762857895
 21
894.22665652010267
 31
0.0
  0
LINE
  5
25BE
  8
0
 10
727.59726762857872
 20
884.72665652010255
 30
0.0
 11
720.59726762857872
 21
884.72665652010255
 31
0.0
  0
ARC
  5
25BF
  8
0
 10
725.23789262857849
 20
889.47665652010255
 30
0.0
 40
6.6406249999998108
 50
134.33269164416549
 51
225.66730835583439
  0
LINE
  5
25C0
  8
0
 10
713.49726762857881
 20
888.22665652010255
 30
0.0
 11
712.59726762857872
 21
889.12665652010276
 31
0.0
  0
LINE
  5
25C1
  8
0
 10
718.71597570250356
 20
888.22665652010255
 30
0.0
 11
713.49726762857881
 21
888.22665652010255
 31
0.0
  0
LINE
  5
25C2
  8
0
 10
712.59726762857872
 20
889.12665652010276
 30
0.0
 11
718.60649757243664
 21
889.12665652010276
 31
0.0
  0
LINE
  5
25C5
  8
0
 10
713.49726762857881
 20
900.22665652010221
 30
0.0
 11
712.59726762857872
 21
899.32665652010235
 31
0.0
  0
LINE
  5
25C6
  8
0
 10
718.71597570250356
 20
900.22665652010221
 30
0.0
 11
713.49726762857881
 21
900.22665652010221
 31
0.0
  0
LINE
  5
25C7
  8
0
 10
712.59726762857872
 20
899.32665652010235
 30
0.0
 11
718.60649757243664
 21
899.32665652010235
 31
0.0
  0
ARC
  5
25C9
  8
0
 10
745.09726762857827
 20
952.72665652010255
 30
0.0
 40
4.0
 50
90.0
 51
180.0
  0
LINE
  5
25CA
  8
0
 10
745.09726762857872
 20
956.72665652010267
 30
0.0
 11
750.72775166043311
 21
971.54050522018383
 31
0.0
  0
ARC
  5
25CC
  8
0
 10
752.59726762857872
 20
970.82993499504835
 30
0.0
 40
2.0
 50
108.6629248849413
 51
180.0
  0
ARC
  5
25CD
  8
0
 10
761.09726762857838
 20
945.66415652010335
 30
0.0
 40
28.562499999999361
 50
106.2654286818171
 51
108.6629248849418
  0
ARC
  5
25CF
  8
0
 10
769.59726762857872
 20
970.82993499504835
 30
0.0
 40
2.0
 50
0.0
 51
71.337075115057644
  0
ARC
  5
25D0
  8
0
 10
761.09726762857838
 20
945.66415652010335
 30
0.0
 40
28.562499999999361
 50
71.33707511505709
 51
73.734571318179505
  0
LINE
  5
25D2
  8
0
 10
713.59726762857872
 20
1000.226656520102
 30
0.0
 11
713.59726762857872
 21
993.22665652010267
 31
0.0
  0
ARC
  5
25D3
  8
0
 10
719.09726762857849
 20
987.22665652010278
 30
0.0
 40
6.0
 50
90.0
 51
180.0
  0
LINE
  5
25D4
  8
0
 10
708.59726762857872
 20
1014.226656520102
 30
0.0
 11
708.59726762857872
 21
1010.184696411652
 31
0.0
  0
ARC
  5
25D5
  8
0
 10
708.59726762857872
 20
1007.184696411652
 30
0.0
 40
3.0
 50
353.62062979155849
 51
90.0
  0
ARC
  5
25D6
  8
0
 10
717.54153953857804
 20
1006.184696411652
 30
0.0
 40
6.0
 50
173.6206297915576
 51
270.0
  0
LINE
  5
25D7
  8
0
 10
711.59726762857872
 20
1007.184696411652
 30
0.0
 11
711.59726762857872
 21
1007.184696411652
 31
0.0
  0
LINE
  5
25D8
  8
0
 10
713.59726762857872
 20
1000.226656520102
 30
0.0
 11
717.04153953857804
 21
1000.226656520102
 31
0.0
  0
LINE
  5
25D9
  8
0
 10
789.89592179952433
 20
985.22665652010232
 30
0.0
 11
789.89592179952433
 21
874.22665652010255
 31
0.0
  0
LINE
  5
25DA
  8
0
 10
809.09726762857395
 20
925.67984817102922
 30
0.0
 11
809.09726762857395
 21
987.22665652010255
 31
0.0
  0
ARC
  5
25DB
  8
0
 10
760.07304719333752
 20
931.8560135993331
 30
0.0
 40
49.411731488386678
 50
325.21752765109909
 51
352.81959601363172
  0
ARC
  5
25DC
  8
0
 10
795.95664262857235
 20
898.97665652010255
 30
0.0
 40
6.640624999999984
 50
314.33269164416549
 51
45.667308355839239
  0
LINE
  5
25DD
  8
0
 10
802.59726762857235
 20
898.97665652010255
 30
0.0
 11
802.59726762857235
 21
889.47665652010255
 31
0.0
  0
LINE
  5
25DE
  8
0
 10
794.59726762857235
 20
889.85936212258423
 30
0.0
 11
794.59726762857235
 21
874.22665652010255
 31
0.0
  0
LINE
  5
25DF
  8
0
 10
789.89592179952433
 20
874.22665652010255
 30
0.0
 11
794.59726762857235
 21
874.22665652010255
 31
0.0
  0
LINE
  5
25E0
  8
0
 10
794.59726762857235
 20
884.72665652010255
 30
0.0
 11
800.59726762857235
 21
884.72665652010255
 31
0.0
  0
LINE
  5
25E3
  8
0
 10
795.60133856896323
 20
894.22665652010255
 30
0.0
 11
800.59726762857235
 21
894.22665652010267
 31
0.0
  0
ARC
  5
25E4
  8
0
 10
795.95664262857258
 20
889.47665652010255
 30
0.0
 40
6.6406249999998108
 50
314.33269164416549
 51
45.66730835583445
  0
ARC
  5
25E5
  8
0
 10
777.09726762857872
 20
952.72665652010255
 30
0.0
 40
4.0
 50
359.99999999999989
 51
90.0
  0
ARC
  5
25E6
  8
0
 10
804.65299571857929
 20
1006.184696411652
 30
0.0
 40
6.0
 50
270.0
 51
6.3793702084423769
  0
ARC
  5
25E7
  8
0
 10
803.09726762857383
 20
987.22665652010255
 30
0.0
 40
6.0
 50
0.0
 51
89.999999999999872
  0
LINE
  5
25E8
  8
0
 10
808.59726762857895
 20
1000.226656520102
 30
0.0
 11
808.59726762857883
 21
993.22665652010267
 31
0.0
  0
LINE
  5
25E9
  8
0
 10
808.59726762857883
 20
1000.226656520102
 30
0.0
 11
805.1529957185794
 21
1000.226656520102
 31
0.0
  0
LINE
  5
25EA
  8
0
 10
810.59726762857872
 20
1007.184696411652
 30
0.0
 11
810.59726762857872
 21
1007.184696411652
 31
0.0
  0
ARC
  5
25EB
  8
0
 10
813.59726762857872
 20
1007.184696411652
 30
0.0
 40
3.0
 50
90.0
 51
186.3793702084414
  0
LINE
  5
25EC
  8
0
 10
813.59726762857872
 20
1014.226656520102
 30
0.0
 11
813.59726762857872
 21
1010.184696411652
 31
0.0
  0
LINE
  5
262B
  8
0
  6
CENTER
 10
1136.0912509783541
 20
1019.226656520102
 30
0.0
 11
1136.0912509783541
 21
988.22665652010278
 31
0.0
  0
LINE
  5
262D
  8
0
  6
CENTER
 10
1213.5912509783541
 20
1019.226656520102
 30
0.0
 11
1213.5912509783541
 21
988.22665652010278
 31
0.0
  0
LINE
  5
26AA
  8
0
 10
789.8959217995241
 20
985.22665652010232
 30
0.0
 11
786.09726762857872
 21
985.22665652010232
 31
0.0
  0
LINE
  5
26AC
  8
0
 10
794.59726762857235
 20
988.22665652010278
 30
0.0
 11
786.09726762857872
 21
988.22665652010323
 31
0.0
  0
LINE
  5
26AD
  8
0
 10
794.59726762857235
 20
988.22665652010278
 30
0.0
 11
794.59726762857235
 21
874.22665652010255
 31
0.0
  0
LINE
  5
26EC
  8
0
 10
727.59726762857872
 20
903.72665652010255
 30
0.0
 11
720.59726762857872
 21
903.72665652010255
 31
0.0
  0
LINE
  5
26ED
  8
0
 10
794.59726762857235
 20
903.72665652010289
 30
0.0
 11
800.59726762857235
 21
903.72665652010289
 31
0.0
  0
LINE
  5
26EE
  8
0
 10
741.09726762857827
 20
908.72665652010255
 30
0.0
 11
732.29861345762674
 21
908.72665652010255
 31
0.0
  0
LINE
  5
26EF
  8
0
 10
741.09726762857827
 20
879.72665652010267
 30
0.0
 11
732.29861345762674
 21
879.72665652010255
 31
0.0
  0
LINE
  5
26F0
  8
0
 10
781.09726762857895
 20
908.72665652010255
 30
0.0
 11
789.89592179952433
 21
908.72665652010255
 31
0.0
  0
LINE
  5
26F1
  8
0
 10
781.09726762857895
 20
879.72665652010267
 30
0.0
 11
789.89592179952433
 21
879.72665652010255
 31
0.0
  0
LINE
  5
26F2
  8
0
 10
1154.8412509783529
 20
879.72665652010267
 30
0.0
 11
1148.542596807408
 21
879.72665652010255
 31
0.0
  0
LINE
  5
26F3
  8
0
 10
1154.8412509783529
 20
908.72665652010255
 30
0.0
 11
1148.542596807408
 21
908.72665652010255
 31
0.0
  0
LINE
  5
26F4
  8
0
 10
1194.8412509783541
 20
879.72665652010267
 30
0.0
 11
1201.139905149299
 21
879.72665652010255
 31
0.0
  0
LINE
  5
26F5
  8
0
 10
1194.8412509783541
 20
908.72665652010255
 30
0.0
 11
1201.139905149299
 21
908.72665652010255
 31
0.0
  0
ARC
  5
26F7
  8
0
 10
757.68395021183107
 20
924.4944574389657
 30
0.0
 40
56.865205474505231
 50
55.496130958631433
 51
60.993287277160732
  0
ARC
  5
26F8
  8
0
 10
760.04225493328101
 20
923.06982650298448
 30
0.0
 40
58.196865879241642
 50
59.137654396268708
 51
63.403482470999357
  0
ARC
  5
26F9
  8
0
 10
762.15228032387802
 20
923.0698265029614
 30
0.0
 40
58.196865879264728
 50
116.5965175289906
 51
120.86234560372679
  0
ARC
  5
26FA
  8
0
 10
764.51058504533296
 20
924.49445743894626
 30
0.0
 40
56.865205474524871
 50
119.0067127228314
 51
124.503869041371
  0
LINE
  5
27A5
  8
0
  6
CENTER
 10
799.84726762857861
 20
1019.226656520102
 30
0.0
 11
799.84726762857861
 21
988.22665652010301
 31
0.0
  0
LINE
  5
27A6
  8
0
  6
CENTER
 10
722.34726762857872
 20
1019.226656520102
 30
0.0
 11
722.34726762857872
 21
988.22665652010301
 31
0.0
  0
POLYLINE
  5
27E5
  8
0
 66
     1
 10
0.0
 20
0.0
 30
0.0
 70
     1
  0
VERTEX
  5
413E
  8
0
 10
622.48738415936475
 20
1099.726149204422
 30
0.0
  0
VERTEX
  5
413F
  8
0
 10
1256.539938726303
 20
1099.726149204422
 30
0.0
  0
VERTEX
  5
4140
  8
0
 10
1256.539938726303
 20
626.60918286366245
 30
0.0
  0
VERTEX
  5
4141
  8
0
 10
622.48738415936475
 20
626.60918286366245
 30
0.0
  0
SEQEND
  5
4142
  8
0
  0
LINE
  5
28F9
  8
0
 10
1707.517237212772
 20
875.31237868250093
 30
0.0
 11
1707.517237212772
 21
842.24829563790445
 31
0.0
  0
LINE
  5
28FA
  8
0
 10
1704.5172372127729
 20
875.84135962462653
 30
0.0
 11
1704.517237212772
 21
842.24829563790445
 31
0.0
  0
ARC
  5
2951
  8
0
 10
1706.0172372127729
 20
894.22665652010267
 30
0.0
 40
100.0
 50
138.391445802943
 51
56.279864352790561
  0
ARC
  5
2952
  8
0
 10
1706.0172372127729
 20
894.22665652010267
 30
0.0
 40
98.0
 50
138.6456175168554
 51
57.204285148844072
  0
ARC
  5
2953
  8
0
 10
1706.0172372127729
 20
894.22665652010267
 30
0.0
 40
52.0
 50
150.23116582046421
 51
78.431315329028038
  0
ARC
  5
2954
  8
0
 10
1706.0172372127729
 20
894.22665652010267
 30
0.0
 40
63.0
 50
145.8279602671729
 51
81.355944350375694
  0
ARC
  5
2955
  8
0
 10
1706.0172372127729
 20
894.22665652010267
 30
0.0
 40
76.0
 50
142.3554525352161
 51
72.500116000845765
  0
ARC
  5
2F0D
  8
0
 10
-208.2256001602629
 20
829.39089145653475
 30
0.0
 40
50.0
 50
152.50719803687301
 51
56.036090953437473
  0
ARC
  5
2F0E
  8
0
 10
-208.2256001602629
 20
829.39089145653475
 30
0.0
 40
48.0
 50
153.32920478049689
 51
58.764078896814958
  0
LINE
  5
2F0F
  8
0
  6
CENTER
 10
-208.2256001602629
 20
882.39089145653486
 30
0.0
 11
-208.2256001602629
 21
776.39089145653475
 31
0.0
  0
LINE
  5
2F10
  8
0
  6
CENTER
 10
-261.2256001602629
 20
829.39089145653475
 30
0.0
 11
-155.22560016026279
 21
829.39089145653475
 31
0.0
  0
LINE
  5
2F11
  8
0
 10
-196.7256001602629
 20
907.39089145653486
 30
0.0
 11
-301.72560016026279
 21
907.39089145653486
 31
0.0
  0
LINE
  5
2F12
  8
0
  6
CENTER
 10
-249.22560016026279
 20
910.39089145653475
 30
0.0
 11
-249.22560016026279
 21
844.59123635250478
 31
0.0
  0
LINE
  5
2F13
  8
0
 10
-196.7256001602629
 20
907.39089145653486
 30
0.0
 11
-196.7256001602629
 21
904.39089145653475
 31
0.0
  0
LINE
  5
2F14
  8
0
 10
-301.72560016026279
 20
907.3908914565352
 30
0.0
 11
-301.72560016026279
 21
904.39089145653475
 31
0.0
  0
LINE
  5
2F15
  8
0
 10
-196.7256001602629
 20
904.39089145653475
 30
0.0
 11
-301.72560016026279
 21
904.39089145653475
 31
0.0
  0
LINE
  5
2F16
  8
0
 10
-210.7256001602629
 20
897.39089145653486
 30
0.0
 11
-287.7256001602629
 21
897.39089145653531
 31
0.0
  0
LINE
  5
2F17
  8
0
 10
-287.7256001602629
 20
897.39089145653486
 30
0.0
 11
-287.7256001602629
 21
904.39089145653531
 31
0.0
  0
LINE
  5
2F18
  8
0
 10
-210.7256001602629
 20
897.39089145653486
 30
0.0
 11
-210.7256001602629
 21
904.39089145653531
 31
0.0
  0
POLYLINE
  5
2F19
  8
0
 66
     1
 10
0.0
 20
0.0
 30
0.0
 70
     1
  0
VERTEX
  5
4143
  8
0
 10
-211.47560016026279
 20
835.0200565811341
 30
0.0
  0
VERTEX
  5
4144
  8
0
 10
-214.7256001602629
 20
829.39089145653475
 30
0.0
  0
VERTEX
  5
4145
  8
0
 10
-211.47560016026279
 20
823.76172633193607
 30
0.0
  0
VERTEX
  5
4146
  8
0
 10
-204.9756001602629
 20
823.76172633193607
 30
0.0
  0
VERTEX
  5
4147
  8
0
 10
-201.72560016026279
 20
829.39089145653475
 30
0.0
  0
VERTEX
  5
4148
  8
0
 10
-204.9756001602629
 20
835.0200565811341
 30
0.0
  0
SEQEND
  5
4149
  8
0
  0
ARC
  5
2F1A
  8
0
 10
-208.2256001602629
 20
829.39089145653475
 30
0.0
 40
12.0
 50
264.7616112474908
 51
6.757998481225199
  0
CIRCLE
  5
2F1B
  8
0
 10
-208.2256001602629
 20
829.39089145653475
 30
0.0
 40
5.6291651245988339
  0
LINE
  5
2F1C
  8
0
 10
-216.4815516755221
 20
818.09749083284385
 30
0.0
 11
-209.32119790950881
 21
817.44101005244363
 31
0.0
  0
LINE
  5
2F1D
  8
0
 10
-287.6209549036214
 20
889.33269876630845
 30
0.0
 11
-222.81609660722091
 21
821.16565134170094
 31
0.0
  0
ARC
  5
2F1E
  8
0
 10
-215.5685535511505
 20
828.05572533625343
 30
0.0
 40
10.0
 50
223.551587206536
 51
264.7616112474908
  0
LINE
  5
2F1F
  8
0
 10
-200.77664251292001
 20
893.39089145653475
 30
0.0
 11
-208.98076609541539
 21
893.39089145653475
 31
0.0
  0
LINE
  5
2F20
  8
0
 10
-210.7256001602629
 20
897.39089145653486
 30
0.0
 11
-208.98076609541539
 21
893.39089145653475
 31
0.0
  0
LINE
  5
2F21
  8
0
 10
-199.56409046750139
 20
858.27247576362049
 30
0.0
 11
-196.3089756913333
 21
830.8030037985634
 31
0.0
  0
LINE
  5
2F22
  8
0
 10
-287.6209549036214
 20
889.33269876630845
 30
0.0
 11
-287.0795236420949
 21
896.46656966858677
 31
0.0
  0
ARC
  5
2F23
  8
0
 10
-208.2256001602629
 20
829.39089145653475
 30
0.0
 40
22.0
 50
180.0
 51
63.702267330369359
  0
LINE
  5
2F24
  8
0
 10
-207.2256001602629
 20
816.4294100597192
 30
0.0
 11
-207.2256001602629
 21
807.41363048069934
 31
0.0
  0
LINE
  5
2F25
  8
0
 10
-209.2256001602629
 20
816.4294100597192
 30
0.0
 11
-209.2256001602629
 21
807.41363048069934
 31
0.0
  0
ARC
  5
2F26
  8
0
 10
-208.2256001602629
 20
829.39089145653475
 30
0.0
 40
13.0
 50
242.14174629945049
 51
29.377863429266242
  0
LINE
  5
2F27
  8
0
 10
-195.58948182260781
 20
826.33662994893916
 30
0.0
 11
-187.01496590450009
 21
823.55060084148352
 31
0.0
  0
LINE
  5
2F28
  8
0
 10
-196.20751581135769
 20
824.43451691634868
 30
0.0
 11
-187.63299989324989
 21
821.64848780889304
 31
0.0
  0
LINE
  5
2F29
  8
0
 10
-198.0094949983218
 20
845.15345551576706
 30
0.0
 11
-196.11670726725859
 21
847.75865432809212
 31
0.0
  0
LINE
  5
2F2A
  8
0
 10
-197.6628299073397
 20
842.22799584604513
 30
0.0
 11
-194.4986732785087
 21
846.5830838235072
 31
0.0
  0
LINE
  5
2F2B
  8
0
 10
-224.5832637123859
 20
823.02450215986096
 30
0.0
 11
-228.8182004272758
 21
821.64848780889338
 31
0.0
  0
LINE
  5
2F2C
  8
0
 10
-226.1106622069023
 20
824.63114475347265
 30
0.0
 11
-229.43623441602571
 21
823.55060084148352
 31
0.0
  0
ARC
  5
2F2D
  8
0
 10
-208.2256001602629
 20
829.39089145653475
 30
0.0
 40
30.0
 50
166.33007319125471
 51
73.179820003021121
  0
LINE
  5
2F2E
  8
0
 10
-217.3217302404768
 20
887.80510039894796
 30
0.0
 11
-217.3217302404768
 21
836.88693836755124
 31
0.0
  0
LINE
  5
2F2F
  8
0
 10
-221.3217302404768
 20
887.80510039894796
 30
0.0
 11
-221.3217302404768
 21
836.88693836755124
 31
0.0
  0
LINE
  5
2F30
  8
0
 10
-301.72560016026279
 20
735.52172213687379
 30
0.0
 11
-301.72560016026279
 21
674.52172213687413
 31
0.0
  0
LINE
  5
2F31
  8
0
 10
-196.7256001602629
 20
735.52172213687379
 30
0.0
 11
-196.7256001602629
 21
674.5217221368739
 31
0.0
  0
LINE
  5
2F32
  8
0
 10
-289.7256001602629
 20
662.52172213687413
 30
0.0
 11
-208.7256001602629
 21
662.5217221368739
 31
0.0
  0
LINE
  5
2F33
  8
0
 10
-289.7256001602629
 20
747.52172213687379
 30
0.0
 11
-208.7256001602629
 21
747.52172213687379
 31
0.0
  0
ARC
  5
2F34
  8
0
 10
-289.7256001602629
 20
735.52172213687379
 30
0.0
 40
12.0
 50
90.0
 51
180.0
  0
ARC
  5
2F35
  8
0
 10
-208.7256001602629
 20
735.52172213687379
 30
0.0
 40
12.0
 50
0.0
 51
90.0
  0
ARC
  5
2F36
  8
0
 10
-208.7256001602629
 20
674.5217221368739
 30
0.0
 40
12.0
 50
270.0
 51
0.0
  0
ARC
  5
2F37
  8
0
 10
-289.7256001602629
 20
674.52172213687413
 30
0.0
 40
12.0
 50
180.0
 51
270.0
  0
LINE
  5
2F38
  8
0
  6
CENTER
 10
-249.22560016026279
 20
750.52172213687379
 30
0.0
 11
-249.2256001602629
 21
659.5217221368739
 31
0.0
  0
LINE
  5
2F39
  8
0
 10
-288.4756001602629
 20
742.52172213687379
 30
0.0
 11
-288.4756001602629
 21
727.52172213687379
 31
0.0
  0
LINE
  5
2F3A
  8
0
  6
CENTER
 10
-304.72560016026279
 20
705.0217221368739
 30
0.0
 11
-126.2256001602626
 21
705.02172213687413
 31
0.0
  0
LINE
  5
2F3B
  8
0
 10
-297.47560016026279
 20
735.02172213687379
 30
0.0
 11
-279.4756001602629
 21
735.02172213687379
 31
0.0
  0
ARC
  5
2F3C
  8
0
 10
-286.97560016026279
 20
735.02172213687379
 30
0.0
 40
4.5
 50
270.0
 51
90.0
  0
ARC
  5
2F3D
  8
0
 10
-289.9756001602629
 20
735.02172213687379
 30
0.0
 40
4.5
 50
90.0
 51
270.0
  0
LINE
  5
2F3E
  8
0
 10
-289.9756001602629
 20
739.52172213687379
 30
0.0
 11
-286.97560016026279
 21
739.52172213687379
 31
0.0
  0
LINE
  5
2F3F
  8
0
 10
-289.9756001602629
 20
730.52172213687379
 30
0.0
 11
-286.97560016026279
 21
730.52172213687379
 31
0.0
  0
LINE
  5
2F40
  8
0
 10
-209.97560016026279
 20
742.52172213687379
 30
0.0
 11
-209.97560016026279
 21
727.52172213687379
 31
0.0
  0
LINE
  5
2F41
  8
0
 10
-200.9756001602629
 20
735.02172213687379
 30
0.0
 11
-218.9756001602629
 21
735.02172213687379
 31
0.0
  0
ARC
  5
2F42
  8
0
 10
-208.4756001602629
 20
735.02172213687379
 30
0.0
 40
4.5
 50
270.0
 51
90.0
  0
ARC
  5
2F43
  8
0
 10
-211.47560016026279
 20
735.02172213687379
 30
0.0
 40
4.5
 50
90.0
 51
270.0
  0
LINE
  5
2F44
  8
0
 10
-208.4756001602629
 20
730.52172213687379
 30
0.0
 11
-211.47560016026279
 21
730.52172213687379
 31
0.0
  0
LINE
  5
2F45
  8
0
 10
-208.4756001602629
 20
739.52172213687379
 30
0.0
 11
-211.47560016026279
 21
739.52172213687379
 31
0.0
  0
LINE
  5
2F46
  8
0
 10
-288.4756001602629
 20
667.5217221368739
 30
0.0
 11
-288.4756001602629
 21
682.52172213687379
 31
0.0
  0
LINE
  5
2F47
  8
0
 10
-297.47560016026279
 20
675.0217221368739
 30
0.0
 11
-279.4756001602629
 21
675.0217221368739
 31
0.0
  0
ARC
  5
2F48
  8
0
 10
-289.9756001602629
 20
675.0217221368739
 30
0.0
 40
4.5
 50
90.0
 51
270.0
  0
ARC
  5
2F49
  8
0
 10
-286.97560016026279
 20
675.0217221368739
 30
0.0
 40
4.5
 50
270.0
 51
90.0
  0
LINE
  5
2F4A
  8
0
 10
-289.9756001602629
 20
679.5217221368739
 30
0.0
 11
-286.97560016026279
 21
679.5217221368739
 31
0.0
  0
LINE
  5
2F4B
  8
0
 10
-289.9756001602629
 20
670.5217221368739
 30
0.0
 11
-286.97560016026279
 21
670.5217221368739
 31
0.0
  0
LINE
  5
2F4C
  8
0
 10
-208.4756001602629
 20
670.5217221368739
 30
0.0
 11
-211.47560016026279
 21
670.5217221368739
 31
0.0
  0
LINE
  5
2F4D
  8
0
 10
-208.4756001602629
 20
679.5217221368739
 30
0.0
 11
-211.47560016026279
 21
679.5217221368739
 31
0.0
  0
LINE
  5
2F4E
  8
0
 10
-200.9756001602629
 20
675.0217221368739
 30
0.0
 11
-218.9756001602629
 21
675.0217221368739
 31
0.0
  0
ARC
  5
2F4F
  8
0
 10
-211.47560016026279
 20
675.0217221368739
 30
0.0
 40
4.5
 50
90.0
 51
270.0
  0
ARC
  5
2F50
  8
0
 10
-208.4756001602629
 20
675.0217221368739
 30
0.0
 40
4.5
 50
270.0
 51
90.0
  0
LINE
  5
2F51
  8
0
 10
-209.97560016026279
 20
667.5217221368739
 30
0.0
 11
-209.97560016026279
 21
682.52172213687379
 31
0.0
  0
CIRCLE
  5
2F52
  8
0
 10
-249.22560016026279
 20
705.0217221368739
 30
0.0
 40
34.0
  0
CIRCLE
  5
2F53
  8
0
 10
-249.22560016026279
 20
705.0217221368739
 30
0.0
 40
38.0
  0
CIRCLE
  5
2F54
  8
0
 10
-249.22560016026279
 20
705.0217221368739
 30
0.0
 40
32.0
  0
CIRCLE
  5
2F55
  8
0
 10
-249.22560016026279
 20
705.0217221368739
 30
0.0
 40
22.0
  0
POLYLINE
  5
2F56
  8
0
 66
     1
 10
0.0
 20
0.0
 30
0.0
 70
     1
  0
VERTEX
  5
414A
  8
0
 10
-253.36773578399379
 20
715.02172213687379
 30
0.0
  0
VERTEX
  5
414B
  8
0
 10
-259.2256001602629
 20
709.16385776060486
 30
0.0
  0
VERTEX
  5
414C
  8
0
 10
-259.2256001602629
 20
700.87958651314295
 30
0.0
  0
VERTEX
  5
414D
  8
0
 10
-253.36773578399379
 20
695.02172213687379
 30
0.0
  0
VERTEX
  5
414E
  8
0
 10
-245.08346453653189
 20
695.02172213687379
 30
0.0
  0
VERTEX
  5
414F
  8
0
 10
-239.22560016026279
 20
700.87958651314295
 30
0.0
  0
VERTEX
  5
4150
  8
0
 10
-239.22560016026279
 20
709.16385776060486
 30
0.0
  0
VERTEX
  5
4151
  8
0
 10
-245.08346453653189
 20
715.02172213687379
 30
0.0
  0
SEQEND
  5
4152
  8
0
  0
LINE
  5
2F57
  8
0
 10
-258.02992027129619
 20
708.52172213687413
 30
0.0
 11
-239.22560016026279
 21
708.52172213687413
 31
0.0
  0
LINE
  5
2F58
  8
0
 10
-256.86773578399368
 20
711.52172213687425
 30
0.0
 11
-241.58346453653201
 21
711.52172213687425
 31
0.0
  0
LINE
  5
2F59
  8
0
 10
-258.02992027129619
 20
701.5217221368739
 30
0.0
 11
-239.22560016026279
 21
701.5217221368739
 31
0.0
  0
ARC
  5
2F5A
  8
0
 10
-260.01158126339789
 20
699.66257709885349
 30
0.0
 40
2.7172413510788478
 50
346.41529940631489
 51
43.172970041852821
  0
ARC
  5
2F5B
  8
0
 10
-226.8266386117796
 20
705.0217221368739
 30
0.0
 40
31.398961548483211
 50
173.60001600476849
 51
186.39998399523131
  0
ARC
  5
2F5C
  8
0
 10
-260.01158126339789
 20
710.38086717489455
 30
0.0
 40
2.7172413510788478
 50
316.82702995814708
 51
13.584700593685049
  0
LINE
  5
2F5D
  8
0
 10
-208.98076609541539
 20
893.39089145653475
 30
0.0
 11
-216.36716898266849
 21
893.39089145653475
 31
0.0
  0
ARC
  5
2F91
  8
0
 10
-286.08239134985843
 20
896.39089145653486
 30
0.0
 40
1.0
 50
90.0
 51
175.65980825408911
  0
LINE
  5
2F92
  8
0
 10
-198.6975256047424
 20
893.17236746387323
 30
0.0
 11
-147.72560016026279
 21
882.33795024969413
 31
0.0
  0
LINE
  5
2F93
  8
0
 10
-195.73609105024451
 20
889.4758733327634
 30
0.0
 11
-155.39343179220171
 21
880.90077639224853
 31
0.0
  0
LINE
  5
2F94
  8
0
 10
-147.72560016026279
 20
882.33795024969413
 30
0.0
 11
-148.3493352327161
 21
879.40350744749264
 31
0.0
  0
LINE
  5
2F95
  8
0
 10
-149.68189536173051
 20
882.75377363132918
 30
0.0
 11
-150.4061725031959
 21
879.34631758398405
 31
0.0
  0
LINE
  5
2F96
  8
0
 10
-149.46800760043101
 20
879.64128859960897
 30
0.0
 11
-148.3493352327161
 21
879.40350744749264
 31
0.0
  0
LINE
  5
2F97
  8
0
 10
-156.89233422092229
 20
874.14899239019303
 30
0.0
 11
-191.02530108632749
 21
869.35191673606005
 31
0.0
  0
ARC
  5
2F98
  8
0
 10
-158.00571902860281
 20
882.07113694012548
 30
0.0
 40
8.0
 50
278.0000000000008
 51
337.74891056669861
  0
ARC
  5
2F99
  8
0
 10
-149.67591929124879
 20
878.66314099887529
 30
0.0
 40
1.0
 50
77.99999999999703
 51
157.74891056669861
  0
ARC
  5
2F9A
  8
0
 10
-189.63357007672681
 20
859.44923604864414
 30
0.0
 40
10.0
 50
98.000000000000895
 51
186.7579984812252
  0
ARC
  5
2F9B
  8
0
 10
-200.77664251292001
 20
883.39089145653475
 30
0.0
 40
10.0
 50
78.000000000000213
 51
90.0
  0
LINE
  5
2F9C
  8
0
 10
-146.8312470842715
 20
877.40061162973359
 30
0.0
 11
-126.2256001602627
 21
889.89089145653531
 31
0.0
  0
LINE
  5
2F9D
  8
0
 10
-148.38156899278519
 20
879.38429799176106
 30
0.0
 11
-127.5215068899832
 21
892.02879364042144
 31
0.0
  0
LINE
  5
2F9E
  8
0
 10
-127.5215068899832
 20
892.02879364042144
 30
0.0
 11
-126.2256001602627
 21
889.89089145653531
 31
0.0
  0
LINE
  5
2F9F
  8
0
 10
-178.2256001602629
 20
893.62765615482465
 30
0.0
 11
-178.22560016026279
 21
891.12765615482465
 31
0.0
  0
LINE
  5
2FA0
  8
0
 10
-186.72560016026279
 20
891.12765615482465
 30
0.0
 11
-178.22560016026279
 21
891.12765615482465
 31
0.0
  0
LINE
  5
2FA1
  8
0
 10
-186.72560016026279
 20
893.62765615482465
 30
0.0
 11
-178.22560016026279
 21
893.62765615482465
 31
0.0
  0
LINE
  5
2FA2
  8
0
 10
-186.72560016026279
 20
891.12765615482465
 30
0.0
 11
-186.72560016026279
 21
893.62765615482465
 31
0.0
  0
ARC
  5
2FA3
  8
0
 10
-178.2256001602629
 20
889.12765615482465
 30
0.0
 40
4.5
 50
0.0
 51
90.0
  0
LINE
  5
2FA4
  8
0
 10
-173.7256001602629
 20
889.12765615482465
 30
0.0
 11
-173.72560016026301
 21
887.86442085311432
 31
0.0
  0
ARC
  5
2FA5
  8
0
 10
-178.2256001602629
 20
889.12765615482465
 30
0.0
 40
2.0
 50
0.0
 51
90.0
  0
LINE
  5
2FA6
  8
0
 10
-176.2256001602629
 20
889.12765615482499
 30
0.0
 11
-176.22560016026301
 21
888.39581225728966
 31
0.0
  0
LINE
  5
2FA7
  8
0
 10
-151.7672549926763
 20
877.06298693513861
 30
0.0
 11
-150.46261899780129
 21
876.78567799383677
 31
0.0
  0
ARC
  5
2FA8
  8
0
 10
-149.4230605437125
 20
881.67641599750584
 30
0.0
 40
5.0
 50
258.00000000000011
 51
301.22248805439068
  0
LINE
  5
2FA9
  8
0
 10
-150.40617250319599
 20
727.02172213687425
 30
0.0
 11
-130.20711703176201
 21
727.02172213687379
 31
0.0
  0
LINE
  5
2FAA
  8
0
 10
-150.4061725031959
 20
683.0217221368739
 30
0.0
 11
-130.20711703176201
 21
683.0217221368739
 31
0.0
  0
ARC
  5
2FAB
  8
0
 10
-313.61538798737911
 20
705.02172213687413
 30
0.0
 40
187.38978782711641
 50
354.08559693053041
 51
5.9144030694695306
  0
ARC
  5
2FAC
  8
0
 10
-130.20711703176201
 20
724.02172213687368
 30
0.0
 40
3.0
 50
5.9144030694695306
 51
90.0
  0
ARC
  5
2FAD
  8
0
 10
-130.20711703176201
 20
686.02172213687379
 30
0.0
 40
3.0
 50
270.0
 51
354.08559693053041
  0
ARC
  5
2FAE
  8
0
 10
-313.61538798737911
 20
705.02172213687413
 30
0.0
 40
186.38978782711641
 50
353.39451302656693
 51
6.6054869734330932
  0
ARC
  5
2FAF
  8
0
 10
-239.3451136907652
 20
705.0217221368739
 30
0.0
 40
91.619513530502317
 50
343.51392302160463
 51
16.48607697839536
  0
LINE
  5
2FB0
  8
0
 10
-196.7256001602629
 20
731.02172213687379
 30
0.0
 11
-151.49219535810019
 21
731.02172213687379
 31
0.0
  0
LINE
  5
2FB1
  8
0
 10
-196.7256001602629
 20
679.0217221368739
 30
0.0
 11
-151.49219535810019
 21
679.02172213687413
 31
0.0
  0
LINE
  5
2FB2
  8
0
 10
-152.7256001602629
 20
695.02172213687379
 30
0.0
 11
-152.7256001602629
 21
715.02172213687379
 31
0.0
  0
LINE
  5
2FB3
  8
0
 10
-178.22560016026301
 20
715.02172213687379
 30
0.0
 11
-152.7256001602629
 21
715.02172213687379
 31
0.0
  0
LINE
  5
2FB4
  8
0
 10
-178.2256001602629
 20
695.02172213687413
 30
0.0
 11
-152.7256001602629
 21
695.02172213687413
 31
0.0
  0
LINE
  5
2FB5
  8
0
 10
-177.22560016026301
 20
714.02172213687379
 30
0.0
 11
-171.7256001602629
 21
714.02172213687379
 31
0.0
  0
LINE
  5
2FB6
  8
0
 10
-171.7256001602629
 20
714.02172213687379
 30
0.0
 11
-171.7256001602629
 21
715.02172213687379
 31
0.0
  0
LINE
  5
2FB7
  8
0
 10
-177.22560016026279
 20
696.02172213687413
 30
0.0
 11
-171.7256001602629
 21
696.0217221368739
 31
0.0
  0
LINE
  5
2FB8
  8
0
 10
-171.7256001602629
 20
696.0217221368739
 30
0.0
 11
-171.7256001602629
 21
695.02172213687413
 31
0.0
  0
LINE
  5
2FB9
  8
0
 10
-186.72560016026279
 20
716.52172213687425
 30
0.0
 11
-186.72560016026279
 21
693.5217221368739
 31
0.0
  0
LINE
  5
2FBA
  8
0
 10
-178.22560016026301
 20
716.52172213687425
 30
0.0
 11
-178.22560016026301
 21
715.02172213687379
 31
0.0
  0
LINE
  5
2FBB
  8
0
 10
-184.72560016026279
 20
718.52172213687425
 30
0.0
 11
-180.22560016026301
 21
718.52172213687425
 31
0.0
  0
ARC
  5
2FBC
  8
0
 10
-184.72560016026279
 20
716.52172213687425
 30
0.0
 40
2.0
 50
90.0
 51
180.0
  0
ARC
  5
2FBD
  8
0
 10
-180.22560016026301
 20
716.52172213687425
 30
0.0
 40
2.0
 50
0.0
 51
90.0
  0
ARC
  5
2FBE
  8
0
 10
-180.22560016026301
 20
693.5217221368739
 30
0.0
 40
2.0
 50
270.0
 51
0.0
  0
ARC
  5
2FBF
  8
0
 10
-184.72560016026279
 20
693.5217221368739
 30
0.0
 40
2.0
 50
180.0
 51
270.0
  0
LINE
  5
2FC0
  8
0
 10
-184.72560016026279
 20
691.5217221368739
 30
0.0
 11
-180.22560016026301
 21
691.5217221368739
 31
0.0
  0
LINE
  5
2FC1
  8
0
 10
-178.22560016026279
 20
695.02172213687413
 30
0.0
 11
-178.2256001602629
 21
693.5217221368739
 31
0.0
  0
ARC
  5
2FC2
  8
0
 10
-177.22560016026301
 20
715.02172213687379
 30
0.0
 40
1.0
 50
180.0
 51
270.0
  0
ARC
  5
2FC3
  8
0
 10
-177.22560016026279
 20
695.02172213687413
 30
0.0
 40
1.0
 50
89.999999999998366
 51
180.0
  0
LINE
  5
3039
  8
0
 10
-343.5392863525023
 20
893.39089145653475
 30
0.0
 11
-387.5392863525023
 21
893.39089145653475
 31
0.0
  0
LINE
  5
30B6
  8
0
 10
-352.0392863525023
 20
893.39089145653475
 30
0.0
 11
-352.0392863525023
 21
892.02879364042155
 31
0.0
  0
LINE
  5
30B8
  8
0
 10
-355.5392863525023
 20
893.39089145653475
 30
0.0
 11
-355.5392863525023
 21
892.02879364042155
 31
0.0
  0
LINE
  5
30B9
  8
0
 10
-379.0392863525023
 20
893.39089145653475
 30
0.0
 11
-379.0392863525023
 21
892.02879364042155
 31
0.0
  0
LINE
  5
30BA
  8
0
 10
-375.5392863525023
 20
893.39089145653475
 30
0.0
 11
-375.53928635250242
 21
892.02879364042155
 31
0.0
  0
LINE
  5
30BB
  8
0
 10
-343.5392863525023
 20
892.02879364042155
 30
0.0
 11
-387.5392863525023
 21
892.02879364042121
 31
0.0
  0
LINE
  5
30BC
  8
0
 10
-342.53928635250242
 20
878.75377363132964
 30
0.0
 11
-342.5392863525023
 21
816.39089145653475
 31
0.0
  0
LINE
  5
30BD
  8
0
 10
-388.5392863525023
 20
878.75377363132952
 30
0.0
 11
-388.5392863525023
 21
816.39089145653475
 31
0.0
  0
ARC
  5
3179
  8
0
 10
-394.2788696858367
 20
834.64622432545457
 30
0.0
 40
2.2604166666656629
 50
180.0
 51
236.1097618310045
  0
LINE
  5
3238
  8
0
 10
-391.64892531363438
 20
832.76983595058891
 30
0.0
 11
-395.5392863525023
 21
832.76983595058948
 31
0.0
  0
LINE
  5
3277
  8
0
 10
-343.5392863525023
 20
892.02879364042155
 30
0.0
 11
-343.5392863525023
 21
876.67641599750596
 31
0.0
  0
LINE
  5
3279
  8
0
 10
-343.5392863525023
 20
876.67641599750596
 30
0.0
 11
-387.5392863525023
 21
876.67641599750527
 31
0.0
  0
LINE
  5
327A
  8
0
 10
-387.5392863525023
 20
892.02879364042121
 30
0.0
 11
-387.5392863525023
 21
876.67641599750596
 31
0.0
  0
LINE
  5
32F7
  8
0
 10
-345.5392863525023
 20
889.89089145653554
 30
0.0
 11
-385.5392863525023
 21
889.89089145653509
 31
0.0
  0
ARC
  5
32FA
  8
0
 10
-384.5392863525023
 20
878.75377363132952
 30
0.0
 40
4.0
 50
138.59037789072951
 51
179.99999999999989
  0
ARC
  5
32FB
  8
0
 10
-346.53928635250242
 20
878.75377363132964
 30
0.0
 40
4.0
 50
0.0000000000000509
 51
41.409622109268668
  0
ARC
  5
32FC
  8
0
 10
-387.5392863525023
 20
889.39089145653475
 30
0.0
 40
4.0
 50
90.0
 51
180.0
  0
ARC
  5
32FD
  8
0
 10
-343.5392863525023
 20
889.39089145653486
 30
0.0
 40
4.0
 50
0.0
 51
90.000000000000099
  0
LINE
  5
333D
  8
0
 10
-345.5392863525023
 20
887.89089145653554
 30
0.0
 11
-385.5392863525023
 21
887.8908914565352
 31
0.0
  0
ARC
  5
3342
  8
0
 10
-385.5392863525023
 20
887.89089145653497
 30
0.0
 40
2.0
 50
90.000000000000171
 51
180.0
  0
ARC
  5
3343
  8
0
 10
-385.5392863525023
 20
885.8908914565352
 30
0.0
 40
2.0
 50
90.000000000000171
 51
180.0
  0
ARC
  5
3344
  8
0
 10
-345.5392863525023
 20
887.89089145653554
 30
0.0
 40
2.0
 50
0.0
 51
90.000000000000455
  0
ARC
  5
3345
  8
0
 10
-345.5392863525023
 20
885.89089145653566
 30
0.0
 40
2.0
 50
0.0
 51
90.000000000000298
  0
LINE
  5
3388
  8
0
 10
-30.52847638223205
 20
876.67641599750596
 30
0.0
 11
-41.439543000591001
 21
876.67641599750573
 31
0.0
  0
LINE
  5
3389
  8
0
 10
-74.528476382232057
 20
881.61046912328243
 30
0.0
 11
-74.528476382232057
 21
876.67641599750596
 31
0.0
  0
ARC
  5
338A
  8
0
 10
-61.774670594661998
 20
875.89904069930333
 30
0.0
 40
2.0
 50
157.127134286689
 51
170.62916285550531
  0
ARC
  5
338C
  8
0
 10
-43.282282169802109
 20
875.89904069930333
 30
0.0
 40
2.0
 50
9.3708371444947538
 51
22.87286571331525
  0
LINE
  5
3393
  8
0
 10
-30.528476382232061
 20
881.61046912328231
 30
0.0
 11
-30.52847638223205
 21
876.67641599750596
 31
0.0
  0
LINE
  5
3399
  8
0
 10
-63.617409763873262
 20
876.67641599750527
 30
0.0
 11
-74.528476382232057
 21
876.67641599750527
 31
0.0
  0
LINE
  5
3416
  8
0
 10
183.83051771399249
 20
923.09315557814784
 30
0.0
 11
143.83051771399249
 21
923.0931555781475
 31
0.0
  0
LINE
  5
3417
  8
0
 10
183.83051771399249
 20
925.09315557814784
 30
0.0
 11
143.83051771399249
 21
925.09315557814728
 31
0.0
  0
LINE
  5
3418
  8
0
 10
185.83051771399261
 20
927.23105776203386
 30
0.0
 11
141.83051771399249
 21
927.23105776203363
 31
0.0
  0
LINE
  5
3419
  8
0
 10
185.83051771399249
 20
928.59315557814716
 30
0.0
 11
141.83051771399249
 21
928.59315557814705
 31
0.0
  0
LINE
  5
341A
  8
0
 10
185.83051771399249
 20
911.87868011911814
 30
0.0
 11
141.83051771399249
 21
911.87868011911769
 31
0.0
  0
LINE
  5
341D
  8
0
 10
121.33051771399251
 20
942.59315557814705
 30
0.0
 11
206.33051771399249
 21
942.59315557814716
 31
0.0
  0
LINE
  5
341E
  8
0
 10
121.33051771399251
 20
939.59315557814705
 30
0.0
 11
206.33051771399249
 21
939.59315557814705
 31
0.0
  0
LINE
  5
341F
  8
0
 10
202.33051771399249
 20
932.59315557814705
 30
0.0
 11
125.33051771399241
 21
932.59315557814705
 31
0.0
  0
LINE
  5
3420
  8
0
  6
CENTER
 10
127.33051771399261
 20
850.09315557814705
 30
0.0
 11
200.33051771399249
 21
850.09315557814705
 31
0.0
  0
LINE
  5
3421
  8
0
 10
137.83051771399249
 20
924.59315557814705
 30
0.0
 11
137.83051771399249
 21
838.09315557814705
 31
0.0
  0
LINE
  5
3422
  8
0
 10
140.83051771399249
 20
913.95603775294182
 30
0.0
 11
140.83051771399249
 21
837.09315557814693
 31
0.0
  0
LINE
  5
3429
  8
0
  6
CENTER
 10
163.83051771399249
 20
945.59315557814705
 30
0.0
 11
163.83051771399249
 21
782.59315557814705
 31
0.0
  0
LINE
  5
342B
  8
0
 10
125.33051771399241
 20
927.59315557814716
 30
0.0
 11
125.33051771399251
 21
872.09315557814693
 31
0.0
  0
ARC
  5
3437
  8
0
 10
157.5939299459337
 20
873.1965454881414
 30
0.0
 40
32.28227436445043
 50
181.95871889232589
 51
216.28207162503179
  0
LINE
  5
3438
  8
0
 10
137.72087875286039
 20
853.47210007220121
 30
0.0
 11
133.83051771399261
 21
853.47210007220167
 31
0.0
  0
ARC
  5
3439
  8
0
 10
135.09093438065821
 20
855.34848844706676
 30
0.0
 40
2.2604166666656629
 50
180.0
 51
236.1097618310045
  0
ARC
  5
343A
  8
0
 10
135.09093438065821
 20
855.34848844706733
 30
0.0
 40
2.2604166666656629
 50
123.8902381689968
 51
180.0
  0
LINE
  5
343B
  8
0
 10
137.83051771399249
 20
857.22487682193298
 30
0.0
 11
133.83051771399261
 21
857.22487682193298
 31
0.0
  0
ARC
  5
343C
  8
0
 10
135.09093438065821
 20
844.83782270922677
 30
0.0
 40
2.2604166666656629
 50
123.8902381689954
 51
180.0
  0
ARC
  5
343D
  8
0
 10
135.09093438065821
 20
844.83782270922677
 30
0.0
 40
2.2604166666656629
 50
180.0
 51
236.10976183100311
  0
LINE
  5
343E
  8
0
 10
137.83051771399249
 20
842.96143433436123
 30
0.0
 11
133.83051771399261
 21
842.96143433436123
 31
0.0
  0
LINE
  5
343F
  8
0
 10
137.72087875286039
 20
846.71421108409277
 30
0.0
 11
133.83051771399261
 21
846.71421108409243
 31
0.0
  0
LINE
  5
3440
  8
0
 10
137.83051771399249
 20
838.09315557814705
 30
0.0
 11
140.83051771399249
 21
838.09315557814705
 31
0.0
  0
LINE
  5
3441
  8
0
 10
132.83051771399261
 20
855.34848844706733
 30
0.0
 11
132.83051771399261
 21
844.83782270922677
 31
0.0
  0
ARC
  5
3442
  8
0
 10
139.03915066094231
 20
850.09315557814682
 30
0.0
 40
6.2086329469497787
 50
147.02771773790769
 51
212.97228226210601
  0
LINE
  5
3444
  8
0
 10
130.33051771399249
 20
853.49315557814691
 30
0.0
 11
130.9305177139926
 21
854.09315557814671
 31
0.0
  0
LINE
  5
3445
  8
0
 10
130.9305177139926
 20
854.09315557814671
 30
0.0
 11
132.83051771399261
 21
854.09315557814693
 31
0.0
  0
LINE
  5
3446
  8
0
 10
130.33051771399249
 20
846.69315557814673
 30
0.0
 11
130.9305177139926
 21
846.09315557814671
 31
0.0
  0
LINE
  5
3447
  8
0
 10
130.9305177139926
 20
854.09315557814671
 30
0.0
 11
130.9305177139926
 21
846.09315557814671
 31
0.0
  0
LINE
  5
3448
  8
0
 10
130.33051771399249
 20
853.49315557814691
 30
0.0
 11
130.33051771399249
 21
846.69315557814673
 31
0.0
  0
LINE
  5
3449
  8
0
 10
130.9305177139926
 20
846.09315557814671
 30
0.0
 11
132.83051771399261
 21
846.09315557814671
 31
0.0
  0
LINE
  5
344A
  8
0
 10
130.33051771399249
 20
846.69315557814673
 30
0.0
 11
132.83051771399261
 21
846.69315557814673
 31
0.0
  0
LINE
  5
344B
  8
0
 10
130.33051771399249
 20
853.49315557814691
 30
0.0
 11
132.83051771399261
 21
853.49315557814646
 31
0.0
  0
LINE
  5
344E
  8
0
  6
CENTER
 10
133.83051771399249
 20
945.59315557814705
 30
0.0
 11
133.83051771399249
 21
936.59315557814705
 31
0.0
  0
LINE
  5
344F
  8
0
 10
121.33051771399251
 20
942.59315557814705
 30
0.0
 11
121.33051771399251
 21
939.59315557814693
 31
0.0
  0
ARC
  5
3450
  8
0
 10
130.33051771399241
 20
927.59315557814716
 30
0.0
 40
5.0
 50
89.999999999999915
 51
180.0
  0
LINE
  5
3451
  8
0
 10
125.33051771399241
 20
932.59315557814705
 30
0.0
 11
125.33051771399241
 21
939.59315557814728
 31
0.0
  0
LINE
  5
3452
  8
0
 10
141.83051771399249
 20
927.23105776203363
 30
0.0
 11
141.83051771399249
 21
911.87868011911814
 31
0.0
  0
ARC
  5
3454
  8
0
 10
144.83051771399249
 20
913.95603775294182
 30
0.0
 40
4.0
 50
138.59037789072951
 51
179.99999999999989
  0
ARC
  5
3456
  8
0
 10
143.83051771399249
 20
921.09315557814739
 30
0.0
 40
2.0
 50
90.000000000000171
 51
180.0
  0
ARC
  5
3457
  8
0
 10
143.83051771399249
 20
923.09315557814739
 30
0.0
 40
2.0
 50
90.000000000000171
 51
180.0
  0
LINE
  5
3458
  8
0
 10
150.33051771399249
 20
928.59315557814716
 30
0.0
 11
150.33051771399249
 21
927.23105776203397
 31
0.0
  0
ARC
  5
3459
  8
0
 10
141.83051771399249
 20
924.59315557814705
 30
0.0
 40
4.0
 50
90.0
 51
180.0
  0
LINE
  5
345A
  8
0
 10
173.83051771399249
 20
928.59315557814716
 30
0.0
 11
173.83051771399249
 21
927.23105776203397
 31
0.0
  0
LINE
  5
345B
  8
0
 10
153.83051771399249
 20
928.59315557814716
 30
0.0
 11
153.83051771399249
 21
927.23105776203397
 31
0.0
  0
LINE
  5
345C
  8
0
  6
CENTER
 10
224.64420390623201
 20
708.98910055428132
 30
0.0
 11
403.14420390623218
 21
708.98910055428155
 31
0.0
  0
LINE
  5
345D
  8
0
 10
332.64420390623189
 20
682.98910055428132
 30
0.0
 11
377.87760870839458
 21
682.98910055428155
 31
0.0
  0
LINE
  5
345E
  8
0
 10
351.14420390623189
 20
698.98910055428155
 30
0.0
 11
376.64420390623201
 21
698.98910055428155
 31
0.0
  0
LINE
  5
345F
  8
0
 10
332.64420390623189
 20
734.98910055428109
 30
0.0
 11
377.87760870839458
 21
734.98910055428109
 31
0.0
  0
LINE
  5
3460
  8
0
 10
351.14420390623178
 20
718.98910055428109
 30
0.0
 11
376.64420390623201
 21
718.98910055428109
 31
0.0
  0
ARC
  5
3461
  8
0
 10
320.89420390623201
 20
678.98910055428132
 30
0.0
 40
4.5
 50
270.0
 51
90.0
  0
ARC
  5
3462
  8
0
 10
317.89420390623201
 20
678.98910055428132
 30
0.0
 40
4.5
 50
90.0
 51
270.0
  0
LINE
  5
3463
  8
0
 10
319.39420390623201
 20
671.48910055428132
 30
0.0
 11
319.39420390623201
 21
686.48910055428132
 31
0.0
  0
LINE
  5
3464
  8
0
 10
332.64420390623189
 20
739.48910055428109
 30
0.0
 11
332.64420390623189
 21
678.48910055428132
 31
0.0
  0
ARC
  5
3465
  8
0
 10
242.39420390623201
 20
678.98910055428132
 30
0.0
 40
4.5
 50
270.0
 51
90.0
  0
LINE
  5
3466
  8
0
 10
240.89420390623189
 20
671.48910055428132
 30
0.0
 11
240.89420390623189
 21
686.48910055428132
 31
0.0
  0
ARC
  5
3467
  8
0
 10
239.39420390623201
 20
678.98910055428132
 30
0.0
 40
4.5
 50
90.0
 51
270.0
  0
LINE
  5
3468
  8
0
 10
227.64420390623201
 20
739.48910055428109
 30
0.0
 11
227.64420390623201
 21
678.48910055428155
 31
0.0
  0
CIRCLE
  5
3469
  8
0
 10
280.14420390623201
 20
708.98910055428132
 30
0.0
 40
34.0
  0
CIRCLE
  5
346A
  8
0
 10
280.14420390623201
 20
708.98910055428132
 30
0.0
 40
38.0
  0
CIRCLE
  5
346B
  8
0
 10
280.14420390623201
 20
708.98910055428132
 30
0.0
 40
32.0
  0
LINE
  5
346C
  8
0
  6
CENTER
 10
280.14420390623201
 20
754.48910055428121
 30
0.0
 11
280.14420390623189
 21
663.48910055428121
 31
0.0
  0
LINE
  5
346D
  8
0
 10
239.64420390623201
 20
666.48910055428155
 30
0.0
 11
320.64420390623189
 21
666.48910055428132
 31
0.0
  0
LINE
  5
346E
  8
0
 10
231.89420390623201
 20
678.98910055428132
 30
0.0
 11
249.89420390623201
 21
678.98910055428132
 31
0.0
  0
LINE
  5
346F
  8
0
 10
239.39420390623201
 20
674.48910055428132
 30
0.0
 11
242.39420390623201
 21
674.48910055428132
 31
0.0
  0
ARC
  5
3470
  8
0
 10
239.64420390623201
 20
678.48910055428155
 30
0.0
 40
12.0
 50
180.0
 51
270.0
  0
LINE
  5
3471
  8
0
 10
328.39420390623201
 20
678.98910055428132
 30
0.0
 11
310.39420390623201
 21
678.98910055428132
 31
0.0
  0
LINE
  5
3472
  8
0
 10
320.89420390623201
 20
674.48910055428132
 30
0.0
 11
317.89420390623201
 21
674.48910055428132
 31
0.0
  0
ARC
  5
3473
  8
0
 10
320.64420390623189
 20
678.48910055428132
 30
0.0
 40
12.0
 50
270.0
 51
0.0
  0
LINE
  5
3474
  8
0
 10
239.64420390623201
 20
751.48910055428109
 30
0.0
 11
320.64420390623189
 21
751.48910055428109
 31
0.0
  0
CIRCLE
  5
3475
  8
0
 10
280.14420390623201
 20
708.98910055428132
 30
0.0
 40
22.0
  0
POLYLINE
  5
3476
  8
0
 66
     1
 10
0.0
 20
0.0
 30
0.0
 70
     1
  0
VERTEX
  5
4153
  8
0
 10
276.002068282501
 20
718.98910055428109
 30
0.0
  0
VERTEX
  5
4154
  8
0
 10
270.14420390623201
 20
713.13123617801239
 30
0.0
  0
VERTEX
  5
4155
  8
0
 10
270.14420390623201
 20
704.84696493055048
 30
0.0
  0
VERTEX
  5
4156
  8
0
 10
276.002068282501
 20
698.98910055428132
 30
0.0
  0
VERTEX
  5
4157
  8
0
 10
284.2863395299629
 20
698.98910055428132
 30
0.0
  0
VERTEX
  5
4158
  8
0
 10
290.14420390623201
 20
704.84696493055048
 30
0.0
  0
VERTEX
  5
4159
  8
0
 10
290.14420390623201
 20
713.13123617801239
 30
0.0
  0
VERTEX
  5
415A
  8
0
 10
284.2863395299629
 20
718.98910055428109
 30
0.0
  0
SEQEND
  5
415B
  8
0
  0
LINE
  5
3477
  8
0
 10
271.3398837951986
 20
705.48910055428132
 30
0.0
 11
290.14420390623201
 21
705.48910055428132
 31
0.0
  0
LINE
  5
3478
  8
0
 10
271.3398837951986
 20
712.48910055428155
 30
0.0
 11
290.14420390623201
 21
712.48910055428155
 31
0.0
  0
LINE
  5
3479
  8
0
 10
272.50206828250111
 20
715.48910055428155
 30
0.0
 11
287.78633952996279
 21
715.48910055428155
 31
0.0
  0
ARC
  5
347A
  8
0
 10
269.35822280309691
 20
703.62995551626079
 30
0.0
 40
2.7172413510788478
 50
346.41529940631489
 51
43.172970041852821
  0
LINE
  5
347B
  8
0
 10
239.39420390623201
 20
683.48910055428132
 30
0.0
 11
242.39420390623201
 21
683.48910055428132
 31
0.0
  0
ARC
  5
347C
  8
0
 10
269.35822280309691
 20
714.34824559230185
 30
0.0
 40
2.7172413510788478
 50
316.82702995814708
 51
13.584700593685049
  0
ARC
  5
347D
  8
0
 10
302.54316545471522
 20
708.98910055428132
 30
0.0
 40
31.398961548483211
 50
173.60001600476849
 51
186.39998399523131
  0
ARC
  5
347E
  8
0
 10
239.64420390623201
 20
739.48910055428109
 30
0.0
 40
12.0
 50
90.0
 51
180.0
  0
LINE
  5
347F
  8
0
 10
231.89420390623201
 20
738.98910055428109
 30
0.0
 11
249.89420390623201
 21
738.98910055428109
 31
0.0
  0
ARC
  5
3480
  8
0
 10
242.39420390623201
 20
738.98910055428109
 30
0.0
 40
4.5
 50
270.0
 51
90.0
  0
ARC
  5
3481
  8
0
 10
239.39420390623201
 20
738.98910055428109
 30
0.0
 40
4.5
 50
90.0
 51
270.0
  0
LINE
  5
3482
  8
0
 10
239.39420390623201
 20
743.48910055428109
 30
0.0
 11
242.39420390623201
 21
743.48910055428109
 31
0.0
  0
LINE
  5
3483
  8
0
 10
239.39420390623201
 20
734.48910055428121
 30
0.0
 11
242.39420390623201
 21
734.48910055428121
 31
0.0
  0
LINE
  5
3484
  8
0
 10
240.89420390623189
 20
746.48910055428121
 30
0.0
 11
240.89420390623189
 21
731.48910055428109
 31
0.0
  0
LINE
  5
3485
  8
0
 10
320.89420390623201
 20
683.48910055428132
 30
0.0
 11
317.89420390623201
 21
683.48910055428132
 31
0.0
  0
LINE
  5
3486
  8
0
 10
342.64420390623201
 20
720.48910055428155
 30
0.0
 11
342.64420390623201
 21
697.48910055428132
 31
0.0
  0
ARC
  5
3487
  8
0
 10
344.64420390623201
 20
697.48910055428132
 30
0.0
 40
2.0
 50
180.0
 51
270.0
  0
LINE
  5
3488
  8
0
 10
352.14420390623201
 20
699.98910055428155
 30
0.0
 11
357.64420390623201
 21
699.98910055428132
 31
0.0
  0
LINE
  5
3489
  8
0
 10
357.64420390623201
 20
699.98910055428132
 30
0.0
 11
357.64420390623201
 21
698.98910055428155
 31
0.0
  0
ARC
  5
348A
  8
0
 10
349.14420390623178
 20
697.48910055428132
 30
0.0
 40
2.0
 50
270.0
 51
0.0
  0
LINE
  5
348B
  8
0
 10
344.64420390623201
 20
695.48910055428132
 30
0.0
 11
349.14420390623178
 21
695.48910055428132
 31
0.0
  0
LINE
  5
348C
  8
0
 10
351.14420390623201
 20
698.98910055428155
 30
0.0
 11
351.14420390623189
 21
697.48910055428132
 31
0.0
  0
ARC
  5
348D
  8
0
 10
352.14420390623201
 20
698.98910055428155
 30
0.0
 40
1.0
 50
89.999999999998366
 51
180.0
  0
ARC
  5
348E
  8
0
 10
344.64420390623201
 20
720.48910055428155
 30
0.0
 40
2.0
 50
90.0
 51
180.0
  0
LINE
  5
348F
  8
0
 10
352.14420390623178
 20
717.98910055428121
 30
0.0
 11
357.64420390623201
 21
717.98910055428121
 31
0.0
  0
LINE
  5
3490
  8
0
 10
357.64420390623201
 20
717.98910055428121
 30
0.0
 11
357.64420390623201
 21
718.98910055428109
 31
0.0
  0
LINE
  5
3491
  8
0
 10
351.14420390623178
 20
720.48910055428155
 30
0.0
 11
351.14420390623178
 21
718.98910055428109
 31
0.0
  0
LINE
  5
3492
  8
0
 10
344.64420390623201
 20
722.48910055428155
 30
0.0
 11
349.14420390623178
 21
722.48910055428155
 31
0.0
  0
ARC
  5
3493
  8
0
 10
349.14420390623178
 20
720.48910055428155
 30
0.0
 40
2.0
 50
0.0
 51
90.0
  0
ARC
  5
3494
  8
0
 10
352.14420390623178
 20
718.98910055428109
 30
0.0
 40
1.0
 50
180.0
 51
270.0
  0
LINE
  5
3495
  8
0
 10
328.39420390623201
 20
738.98910055428109
 30
0.0
 11
310.39420390623201
 21
738.98910055428109
 31
0.0
  0
LINE
  5
3496
  8
0
 10
320.89420390623201
 20
734.48910055428121
 30
0.0
 11
317.89420390623201
 21
734.48910055428121
 31
0.0
  0
LINE
  5
3497
  8
0
 10
320.89420390623201
 20
743.48910055428109
 30
0.0
 11
317.89420390623201
 21
743.48910055428109
 31
0.0
  0
ARC
  5
3498
  8
0
 10
317.89420390623201
 20
738.98910055428109
 30
0.0
 40
4.5
 50
90.0
 51
270.0
  0
LINE
  5
3499
  8
0
 10
319.39420390623201
 20
746.48910055428121
 30
0.0
 11
319.39420390623201
 21
731.48910055428109
 31
0.0
  0
ARC
  5
349A
  8
0
 10
320.64420390623189
 20
739.48910055428109
 30
0.0
 40
12.0
 50
0.0
 51
90.0
  0
ARC
  5
349B
  8
0
 10
320.89420390623201
 20
738.98910055428109
 30
0.0
 40
4.5
 50
270.0
 51
90.0
  0
ARC
  5
349C
  8
0
 10
290.02469037572962
 20
708.98910055428132
 30
0.0
 40
91.619513530502317
 50
343.51392302160463
 51
16.48607697839536
  0
ARC
  5
349D
  8
0
 10
215.75441607911571
 20
708.98910055428155
 30
0.0
 40
187.38978782711641
 50
354.08559693053041
 51
5.9144030694695306
  0
ARC
  5
349E
  8
0
 10
215.75441607911571
 20
708.98910055428155
 30
0.0
 40
186.38978782711641
 50
353.39451302656693
 51
6.6054869734330932
  0
LINE
  5
349F
  8
0
 10
376.64420390623201
 20
698.98910055428132
 30
0.0
 11
376.64420390623201
 21
718.98910055428109
 31
0.0
  0
LINE
  5
34A0
  8
0
 10
378.96363156329892
 20
686.98910055428132
 30
0.0
 11
399.16268703473281
 21
686.98910055428132
 31
0.0
  0
ARC
  5
34A1
  8
0
 10
399.16268703473281
 20
689.98910055428132
 30
0.0
 40
3.0
 50
270.0
 51
354.08559693053041
  0
LINE
  5
34A2
  8
0
 10
378.9636315632988
 20
730.98910055428155
 30
0.0
 11
399.16268703473281
 21
730.98910055428109
 31
0.0
  0
ARC
  5
34A3
  8
0
 10
399.16268703473281
 20
727.98910055428121
 30
0.0
 40
3.0
 50
5.9144030694695306
 51
90.0
  0
LINE
  5
34A4
  8
0
 10
372.4774698455725
 20
909.35125651180522
 30
0.0
 11
342.28313523834072
 21
905.10771952282153
 31
0.0
  0
LINE
  5
34A5
  8
0
 10
333.6337130162504
 20
924.67813745437559
 30
0.0
 11
373.97637227429311
 21
916.10304051386072
 31
0.0
  0
LINE
  5
34A6
  8
0
 10
330.67227846175251
 20
928.37463158548542
 30
0.0
 11
381.64420390623189
 21
917.54021437130621
 31
0.0
  0
LINE
  5
34A7
  8
0
  6
CENTER
 10
253.64420390623201
 20
850.09315557814705
 30
0.0
 11
388.64420390623201
 21
850.09315557814705
 31
0.0
  0
ARC
  5
34AA
  8
0
 10
362.94782542416789
 20
882.12632751545721
 30
0.0
 40
33.291621781213301
 50
145.8390192437713
 51
185.43210150760251
  0
LINE
  5
34AB
  8
0
 10
308.04807382601808
 20
923.00736452056015
 30
0.0
 11
308.04807382601808
 21
857.58920248916354
 31
0.0
  0
LINE
  5
34AC
  8
0
 10
312.04807382601803
 20
923.00736452056015
 30
0.0
 11
312.04807382601803
 21
857.58920248916354
 31
0.0
  0
LINE
  5
34AD
  8
0
 10
241.7488491628734
 20
924.53496288792076
 30
0.0
 11
306.55370745927388
 21
841.86791546331324
 31
0.0
  0
LINE
  5
34AE
  8
0
  6
CENTER
 10
280.14420390623201
 20
945.59315557814705
 30
0.0
 11
280.14420390623201
 21
865.29350047411697
 31
0.0
  0
LINE
  5
34AF
  8
0
  6
CENTER
 10
321.14420390623189
 20
917.59315557814705
 30
0.0
 11
321.14420390623189
 21
782.59315557814705
 31
0.0
  0
LINE
  5
34B0
  8
0
 10
202.33051771399249
 20
927.59315557814716
 30
0.0
 11
202.33051771399249
 21
872.09315557814693
 31
0.0
  0
LINE
  5
34B1
  8
0
 10
189.83051771399249
 20
924.59315557814705
 30
0.0
 11
189.83051771399249
 21
838.09315557814705
 31
0.0
  0
LINE
  5
34B2
  8
0
 10
186.83051771399241
 20
913.95603775294182
 30
0.0
 11
186.83051771399249
 21
837.09315557814705
 31
0.0
  0
ARC
  5
34B6
  8
0
 10
170.05430344227071
 20
873.33755674947622
 30
0.0
 40
32.300194147857731
 50
320.09068412943452
 51
357.79206947428759
  0
ARC
  5
34B7
  8
0
 10
192.5701010473268
 20
855.34848844706676
 30
0.0
 40
2.2604166666656629
 50
303.89023816899538
 51
0.0
  0
LINE
  5
34B8
  8
0
 10
189.9401566751244
 20
853.47210007220121
 30
0.0
 11
193.83051771399249
 21
853.47210007220121
 31
0.0
  0
LINE
  5
34B9
  8
0
 10
189.83051771399249
 20
857.22487682193264
 30
0.0
 11
193.83051771399249
 21
857.22487682193241
 31
0.0
  0
ARC
  5
34BA
  8
0
 10
192.5701010473268
 20
855.34848844706676
 30
0.0
 40
2.2604166666656629
 50
0.0
 51
56.10976183100319
  0
ARC
  5
34BB
  8
0
 10
192.5701010473268
 20
844.83782270922677
 30
0.0
 40
2.2604166666656629
 50
0.0
 51
56.109761831004519
  0
ARC
  5
34BC
  8
0
 10
192.5701010473268
 20
844.83782270922677
 30
0.0
 40
2.2604166666656629
 50
303.8902381689968
 51
0.0
  0
LINE
  5
34BD
  8
0
 10
189.83051771399249
 20
838.09315557814705
 30
0.0
 11
186.83051771399249
 21
838.09315557814705
 31
0.0
  0
LINE
  5
34BE
  8
0
 10
189.83051771399249
 20
845.6728807284793
 30
0.0
 11
189.83051771399249
 21
838.09315557814705
 31
0.0
  0
LINE
  5
34BF
  8
0
 10
189.83051771399249
 20
842.961434334361
 30
0.0
 11
193.83051771399249
 21
842.96143433436123
 31
0.0
  0
LINE
  5
34C0
  8
0
 10
189.9401566751244
 20
846.71421108409243
 30
0.0
 11
193.83051771399249
 21
846.71421108409243
 31
0.0
  0
LINE
  5
34C1
  8
0
 10
194.83051771399261
 20
855.34848844706676
 30
0.0
 11
194.83051771399249
 21
844.83782270922677
 31
0.0
  0
ARC
  5
34C2
  8
0
 10
188.6218847670427
 20
850.09315557814682
 30
0.0
 40
6.2086329469497787
 50
327.02771773789391
 51
32.972282262085812
  0
ARC
  5
34C6
  8
0
 10
321.14420390623189
 20
850.09315557814705
 30
0.0
 40
13.0
 50
242.14174629945049
 51
29.377863429266242
  0
LINE
  5
34C7
  8
0
 10
320.14420390623201
 20
837.13167418133139
 30
0.0
 11
320.14420390623201
 21
821.11040208576821
 31
0.0
  0
LINE
  5
34C8
  8
0
 10
322.14420390623201
 20
837.13167418133139
 30
0.0
 11
322.14420390623201
 21
821.11040208576821
 31
0.0
  0
ARC
  5
34CA
  8
0
 10
321.14420390623189
 20
850.09315557814705
 30
0.0
 40
12.0
 50
264.7616112474908
 51
6.757998481225199
  0
CIRCLE
  5
34CC
  8
0
 10
321.14420390623189
 20
850.09315557814705
 30
0.0
 40
5.6291651245988339
  0
POLYLINE
  5
34CD
  8
0
 66
     1
 10
0.0
 20
0.0
 30
0.0
 70
     1
  0
VERTEX
  5
415C
  8
0
 10
317.89420390623201
 20
855.72232070274617
 30
0.0
  0
VERTEX
  5
415D
  8
0
 10
314.64420390623201
 20
850.09315557814705
 30
0.0
  0
VERTEX
  5
415E
  8
0
 10
317.89420390623201
 20
844.46399045354826
 30
0.0
  0
VERTEX
  5
415F
  8
0
 10
324.39420390623201
 20
844.46399045354826
 30
0.0
  0
VERTEX
  5
4160
  8
0
 10
327.64420390623201
 20
850.09315557814705
 30
0.0
  0
VERTEX
  5
4161
  8
0
 10
324.39420390623201
 20
855.72232070274617
 30
0.0
  0
SEQEND
  5
4162
  8
0
  0
LINE
  5
34CE
  8
0
 10
303.25914185959249
 20
845.33340887508461
 30
0.0
 11
293.27095034275391
 21
842.08804872151734
 31
0.0
  0
LINE
  5
34CF
  8
0
 10
304.78654035410892
 20
843.72676628147326
 30
0.0
 11
293.88898433150359
 21
840.18593568892732
 31
0.0
  0
ARC
  5
34D0
  8
0
 10
313.80125051534429
 20
848.75798945786562
 30
0.0
 40
10.0
 50
223.551587206536
 51
264.7616112474908
  0
LINE
  5
34D1
  8
0
 10
312.8882523909727
 20
838.79975495445615
 30
0.0
 11
320.04860615698601
 21
838.14327417405582
 31
0.0
  0
LINE
  5
34D2
  8
0
 10
329.80571359899329
 20
878.97473988523268
 30
0.0
 11
333.06082837516152
 21
851.50526792017558
 31
0.0
  0
LINE
  5
34D3
  8
0
 10
333.16228825513713
 20
845.13678103796087
 30
0.0
 11
348.39942348096002
 21
840.18593568892697
 31
0.0
  0
LINE
  5
34D4
  8
0
 10
333.78032224388699
 20
847.03889407055146
 30
0.0
 11
349.01745746971
 21
842.08804872151734
 31
0.0
  0
LINE
  5
34D5
  8
0
 10
331.7069741591551
 20
862.93025996765743
 30
0.0
 11
338.98885597425522
 21
872.95291044496901
 31
0.0
  0
LINE
  5
34D6
  8
0
 10
331.36030906817308
 20
865.85571963737925
 30
0.0
 11
337.37082198550547
 21
874.12848094955393
 31
0.0
  0
LINE
  5
34D7
  8
0
 10
318.64420390623201
 20
932.59315557814705
 30
0.0
 11
241.64420390623189
 21
932.59315557814739
 31
0.0
  0
LINE
  5
34D8
  8
0
 10
332.64420390623201
 20
939.59315557814705
 30
0.0
 11
227.64420390623201
 21
939.59315557814705
 31
0.0
  0
LINE
  5
34D9
  8
0
 10
332.64420390623201
 20
942.59315557814705
 30
0.0
 11
227.64420390623201
 21
942.59315557814705
 31
0.0
  0
LINE
  5
34DA
  8
0
 10
227.64420390623201
 20
942.59315557814739
 30
0.0
 11
227.64420390623201
 21
939.59315557814705
 31
0.0
  0
LINE
  5
34DB
  8
0
 10
206.33051771399249
 20
942.59315557814705
 30
0.0
 11
206.33051771399249
 21
939.59315557814693
 31
0.0
  0
LINE
  5
34DC
  8
0
  6
CENTER
 10
193.83051771399249
 20
945.59315557814705
 30
0.0
 11
193.83051771399249
 21
936.59315557814705
 31
0.0
  0
LINE
  5
34DD
  8
0
 10
185.83051771399249
 20
927.23105776203386
 30
0.0
 11
185.83051771399249
 21
911.87868011911814
 31
0.0
  0
ARC
  5
34DE
  8
0
 10
182.83051771399241
 20
913.95603775294182
 30
0.0
 40
4.0
 50
0.0000000000000509
 51
41.409622109268668
  0
ARC
  5
34DF
  8
0
 10
197.33051771399261
 20
927.59315557814716
 30
0.0
 40
5.0
 50
0.000000000000007
 51
90.000000000000071
  0
ARC
  5
34E0
  8
0
 10
183.83051771399249
 20
921.09315557814784
 30
0.0
 40
2.0
 50
0.0
 51
90.000000000000298
  0
ARC
  5
34E1
  8
0
 10
183.83051771399249
 20
923.09315557814784
 30
0.0
 40
2.0
 50
0.0
 51
90.000000000000455
  0
ARC
  5
34E2
  8
0
 10
185.83051771399249
 20
924.59315557814705
 30
0.0
 40
4.0
 50
0.0
 51
90.000000000000099
  0
LINE
  5
34E3
  8
0
 10
177.33051771399249
 20
928.59315557814716
 30
0.0
 11
177.33051771399249
 21
927.23105776203397
 31
0.0
  0
LINE
  5
34E4
  8
0
 10
202.33051771399249
 20
932.59315557814705
 30
0.0
 11
202.33051771399249
 21
939.59315557814728
 31
0.0
  0
ARC
  5
34E5
  8
0
 10
243.2874127166364
 20
931.59315557814705
 30
0.0
 40
1.0
 50
90.0
 51
175.65980825408911
  0
LINE
  5
34E6
  8
0
 10
241.74884916287351
 20
924.53496288792076
 30
0.0
 11
242.2902804243999
 21
931.66883379019907
 31
0.0
  0
LINE
  5
34E7
  8
0
 10
241.64420390623201
 20
932.59315557814705
 30
0.0
 11
241.64420390623201
 21
939.5931555781475
 31
0.0
  0
LINE
  5
34E8
  8
0
 10
332.64420390623201
 20
942.59315557814705
 30
0.0
 11
332.64420390623201
 21
939.59315557814705
 31
0.0
  0
LINE
  5
34E9
  8
0
 10
318.64420390623201
 20
932.59315557814705
 30
0.0
 11
320.3890379710794
 21
928.59315557814705
 31
0.0
  0
LINE
  5
34EA
  8
0
 10
320.3890379710794
 20
928.59315557814705
 30
0.0
 11
313.00263508382642
 21
928.59315557814705
 31
0.0
  0
LINE
  5
34EB
  8
0
 10
318.64420390623201
 20
932.59315557814705
 30
0.0
 11
318.64420390623201
 21
939.5931555781475
 31
0.0
  0
LINE
  5
34EC
  8
0
 10
342.64420390623201
 20
928.82992027643695
 30
0.0
 11
351.14420390623201
 21
928.82992027643695
 31
0.0
  0
LINE
  5
34ED
  8
0
 10
342.64420390623201
 20
926.32992027643684
 30
0.0
 11
351.14420390623201
 21
926.32992027643684
 31
0.0
  0
LINE
  5
34EE
  8
0
 10
342.64420390623201
 20
926.32992027643684
 30
0.0
 11
342.64420390623201
 21
928.82992027643695
 31
0.0
  0
ARC
  5
34EF
  8
0
 10
328.59316155357487
 20
918.59315557814705
 30
0.0
 40
10.0
 50
78.000000000000213
 51
90.0
  0
LINE
  5
34F0
  8
0
 10
328.59316155357487
 20
928.59315557814705
 30
0.0
 11
320.3890379710794
 21
928.59315557814705
 31
0.0
  0
LINE
  5
34F1
  8
0
 10
353.14420390623189
 20
924.32992027643718
 30
0.0
 11
353.14420390623178
 21
923.59807637890185
 31
0.0
  0
ARC
  5
34F2
  8
0
 10
351.14420390623189
 20
924.32992027643695
 30
0.0
 40
2.0
 50
0.0
 51
90.0
  0
LINE
  5
34F3
  8
0
 10
355.64420390623189
 20
924.32992027643695
 30
0.0
 11
355.64420390623178
 21
923.06668497472651
 31
0.0
  0
ARC
  5
34F4
  8
0
 10
351.14420390623189
 20
924.32992027643695
 30
0.0
 40
4.5
 50
0.0
 51
90.0
  0
LINE
  5
34F5
  8
0
 10
351.14420390623189
 20
928.82992027643695
 30
0.0
 11
351.14420390623201
 21
926.32992027643684
 31
0.0
  0
LINE
  5
34F6
  8
0
  6
CENTER
 10
476.84132768426292
 20
945.59315557814705
 30
0.0
 11
476.84132768426281
 21
784.59315557814705
 31
0.0
  0
LINE
  5
34F7
  8
0
 10
438.34132768426281
 20
927.59315557814716
 30
0.0
 11
438.34132768426292
 21
886.59315557814705
 31
0.0
  0
ARC
  5
34F8
  8
0
 10
471.6657957693692
 20
889.54129387601927
 30
0.0
 40
33.454621393443631
 50
90.0
 51
174.94433746809909
  0
LINE
  5
34F9
  8
0
 10
515.34132768426298
 20
927.59315557814716
 30
0.0
 11
515.34132768426298
 21
886.59315557814705
 31
0.0
  0
LINE
  5
34FC
  8
0
 10
454.84132768426292
 20
916.81273324489462
 30
0.0
 11
454.84132768426281
 21
837.09315557814705
 31
0.0
  0
LINE
  5
34FD
  8
0
 10
498.84132768426292
 20
916.81273324489462
 30
0.0
 11
498.84132768426281
 21
837.09315557814705
 31
0.0
  0
ARC
  5
34FE
  8
0
 10
482.01685959915648
 20
889.54129387601927
 30
0.0
 40
33.454621393443631
 50
5.0556625319006434
 51
90.0
  0
LINE
  5
34FF
  8
0
 10
481.84132768426298
 20
911.87868011911837
 30
0.0
 11
481.84132768426292
 21
787.78883546711336
 31
0.0
  0
LINE
  5
3500
  8
0
 10
484.84132768426321
 20
911.91299586702644
 30
0.0
 11
484.84132768426269
 21
788.27331528926777
 31
0.0
  0
LINE
  5
3501
  8
0
 10
488.21653691800111
 20
789.18649636622615
 30
0.0
 11
488.21653691800128
 21
910.99981479006749
 31
0.0
  0
LINE
  5
3502
  8
0
 10
471.84132768426269
 20
911.87868011911837
 30
0.0
 11
471.84132768426269
 21
787.78883546711336
 31
0.0
  0
LINE
  5
3503
  8
0
 10
465.46611845052439
 20
789.18649636622615
 30
0.0
 11
465.4661184505245
 21
910.99981479006794
 31
0.0
  0
LINE
  5
3504
  8
0
 10
468.84132768426252
 20
911.91299586702598
 30
0.0
 11
468.84132768426281
 21
788.27331528926777
 31
0.0
  0
LINE
  5
3505
  8
0
 10
461.34380822845202
 20
892.59315434752716
 30
0.0
 11
464.12182314235588
 21
909.42695239664715
 31
0.0
  0
LINE
  5
3506
  8
0
 10
492.33884714007382
 20
892.59315434752716
 30
0.0
 11
489.56083222616991
 21
909.42695239664715
 31
0.0
  0
LINE
  5
3507
  8
0
  6
CENTER
 10
441.34132768426292
 20
850.09315557814705
 30
0.0
 11
512.34132768426275
 21
850.09315557814705
 31
0.0
  0
LINE
  5
3508
  8
0
 10
461.34380822845191
 20
807.59315680876693
 30
0.0
 11
464.12182314235571
 21
790.75935875964694
 31
0.0
  0
LINE
  5
3509
  8
0
 10
458.84132768426281
 20
890.09315557814716
 30
0.0
 11
458.84132768426269
 21
810.09315557814693
 31
0.0
  0
LINE
  5
350A
  8
0
 10
461.34380822845191
 20
807.59315680876693
 30
0.0
 11
461.34380822845202
 21
892.59315434752705
 31
0.0
  0
ARC
  5
350B
  8
0
 10
461.34132768426269
 20
810.09315557814693
 30
0.0
 40
2.5
 50
180.0
 51
270.05684989450242
  0
ARC
  5
350C
  8
0
 10
514.69226556720002
 20
890.3231070982979
 30
0.0
 40
76.441992739245094
 50
182.79683152334201
 51
212.0712262617466
  0
LINE
  5
350D
  8
0
  6
CENTER
 10
454.84132768426281
 20
837.09315557814705
 30
0.0
 11
458.84132768426281
 21
837.09315557814705
 31
0.0
  0
LINE
  5
350E
  8
0
 10
451.84132768426281
 20
838.09315557814705
 30
0.0
 11
454.84132768426281
 21
838.09315557814705
 31
0.0
  0
LINE
  5
350F
  8
0
 10
451.84132768426281
 20
845.6728807284793
 30
0.0
 11
451.84132768426281
 21
838.09315557814705
 31
0.0
  0
ARC
  5
3510
  8
0
 10
449.84132768426292
 20
847.09987710888765
 30
0.0
 40
5.0
 50
0.0
 51
58.885767339555777
  0
ARC
  5
3511
  8
0
 10
446.84132768426281
 20
845.6728807284793
 30
0.0
 40
5.0
 50
0.0
 51
47.04869470456682
  0
LINE
  5
3512
  8
0
 10
446.84132768426269
 20
854.09315557814671
 30
0.0
 11
446.84132768426292
 21
844.83782270922677
 31
0.0
  0
ARC
  5
3513
  8
0
 10
453.04996063121263
 20
850.09315557814682
 30
0.0
 40
6.2086329469497787
 50
148.15257674857801
 51
212.97228226210601
  0
LINE
  5
3514
  8
0
 10
444.34132768426292
 20
853.49315557814691
 30
0.0
 11
444.34132768426292
 21
846.69315557814673
 31
0.0
  0
LINE
  5
3515
  8
0
 10
444.94132768426289
 20
854.09315557814671
 30
0.0
 11
444.94132768426289
 21
846.09315557814671
 31
0.0
  0
LINE
  5
3516
  8
0
 10
451.84132768426281
 20
842.96143433436123
 30
0.0
 11
447.84132768426292
 21
842.96143433436123
 31
0.0
  0
LINE
  5
3517
  8
0
 10
451.73168872313079
 20
846.71421108409277
 30
0.0
 11
447.84132768426292
 21
846.71421108409243
 31
0.0
  0
ARC
  5
3518
  8
0
 10
449.10174435092853
 20
844.83782270922677
 30
0.0
 40
2.2604166666656629
 50
180.0
 51
236.10976183100311
  0
LINE
  5
3519
  8
0
 10
444.94132768426289
 20
846.09315557814671
 30
0.0
 11
446.84132768426292
 21
846.09315557814671
 31
0.0
  0
LINE
  5
351A
  8
0
 10
444.34132768426292
 20
846.69315557814673
 30
0.0
 11
446.84132768426292
 21
846.69315557814673
 31
0.0
  0
LINE
  5
351B
  8
0
 10
444.34132768426292
 20
846.69315557814673
 30
0.0
 11
444.94132768426289
 21
846.09315557814671
 31
0.0
  0
ARC
  5
351C
  8
0
 10
449.10174435092853
 20
844.83782270922677
 30
0.0
 40
2.2604166666656629
 50
123.8902381689954
 51
180.0
  0
LINE
  5
351D
  8
0
 10
444.94132768426289
 20
854.09315557814671
 30
0.0
 11
447.38127934062391
 21
854.09315557814671
 31
0.0
  0
LINE
  5
351E
  8
0
 10
444.34132768426292
 20
853.49315557814691
 30
0.0
 11
447.70769327648441
 21
853.49315557814646
 31
0.0
  0
LINE
  5
351F
  8
0
 10
444.34132768426292
 20
853.49315557814691
 30
0.0
 11
444.94132768426289
 21
854.09315557814671
 31
0.0
  0
LINE
  5
3520
  8
0
  6
CENTER
 10
454.84132768426281
 20
863.09315557814705
 30
0.0
 11
458.84132768426281
 21
863.09315557814693
 31
0.0
  0
ARC
  5
3521
  8
0
 10
461.34132768426281
 20
890.09315557814716
 30
0.0
 40
2.5
 50
89.94315010549758
 51
180.0
  0
LINE
  5
3522
  8
0
 10
492.33884714007371
 20
807.59315680876693
 30
0.0
 11
492.33884714007382
 21
892.59315434752705
 31
0.0
  0
LINE
  5
3523
  8
0
 10
494.84132768426298
 20
890.09315557814716
 30
0.0
 11
494.84132768426292
 21
810.09315557814693
 31
0.0
  0
LINE
  5
3524
  8
0
 10
492.33884714007371
 20
807.59315680876693
 30
0.0
 11
489.56083222616979
 21
790.75935875964694
 31
0.0
  0
ARC
  5
3525
  8
0
 10
487.58752189669269
 20
791.08500633537847
 30
0.0
 40
2.0
 50
288.33108522959208
 51
350.62916285550517
  0
ARC
  5
3526
  8
0
 10
476.84132768426269
 20
851.57083553079281
 30
0.0
 40
63.977679952645907
 50
265.51763479057001
 51
274.48236520942999
  0
ARC
  5
3527
  8
0
 10
469.98218264624222
 20
785.80717447501195
 30
0.0
 40
2.7172413510788478
 50
46.827029958148337
 51
114.8256098168917
  0
ARC
  5
3528
  8
0
 10
466.09513347183281
 20
791.08500633537847
 30
0.0
 40
2.0
 50
189.3708371444946
 51
251.66891477040781
  0
ARC
  5
3529
  8
0
 10
475.34132768426281
 20
818.99211712663021
 30
0.0
 40
31.398961548483211
 50
251.66891477040781
 51
258.05262377027333
  0
ARC
  5
352A
  8
0
 10
483.70047272228328
 20
785.80717447501195
 30
0.0
 40
2.7172413510788478
 50
65.17439018310823
 51
133.17297004185161
  0
ARC
  5
352B
  8
0
 10
478.34132768426281
 20
818.99211712663021
 30
0.0
 40
31.398961548483211
 50
281.94737622972667
 51
288.3310852295906
  0
ARC
  5
352C
  8
0
 10
492.34132768426292
 20
810.09315557814693
 30
0.0
 40
2.5
 50
269.94315010549752
 51
0.0
  0
ARC
  5
352D
  8
0
 10
438.99038980132599
 20
890.32310709829824
 30
0.0
 40
76.441992739244952
 50
327.71357728507479
 51
357.20316847665771
  0
ARC
  5
352E
  8
0
 10
506.84132768426281
 20
845.6728807284793
 30
0.0
 40
5.0
 50
130.2070953212091
 51
180.0
  0
LINE
  5
352F
  8
0
 10
501.84132768426281
 20
842.961434334361
 30
0.0
 11
505.84132768426281
 21
842.96143433436123
 31
0.0
  0
LINE
  5
3530
  8
0
 10
501.95096664539477
 20
846.71421108409243
 30
0.0
 11
505.84132768426281
 21
846.71421108409243
 31
0.0
  0
ARC
  5
3531
  8
0
 10
503.84132768426292
 20
847.09987710888765
 30
0.0
 40
5.0
 50
125.36209220308
 51
180.0
  0
LINE
  5
3532
  8
0
 10
501.84132768426281
 20
838.09315557814705
 30
0.0
 11
498.84132768426281
 21
838.09315557814705
 31
0.0
  0
LINE
  5
3533
  8
0
 10
501.84132768426281
 20
845.6728807284793
 30
0.0
 11
501.84132768426281
 21
838.09315557814705
 31
0.0
  0
LINE
  5
3534
  8
0
  6
CENTER
 10
498.84132768426281
 20
837.09315557814705
 30
0.0
 11
494.84132768426298
 21
837.09315557814705
 31
0.0
  0
LINE
  5
3535
  8
0
 10
506.84132768426298
 20
855.11474896627783
 30
0.0
 11
506.84132768426281
 21
844.83782270922677
 31
0.0
  0
ARC
  5
3536
  8
0
 10
500.6326947373131
 20
850.09315557814682
 30
0.0
 40
6.2086329469497787
 50
327.02771773789391
 51
31.847423251422828
  0
ARC
  5
3537
  8
0
 10
504.5809110175972
 20
844.83782270922677
 30
0.0
 40
2.2604166666656629
 50
303.8902381689968
 51
0.0
  0
ARC
  5
3538
  8
0
 10
504.5809110175972
 20
844.83782270922677
 30
0.0
 40
2.2604166666656629
 50
0.0
 51
56.109761831004519
  0
ARC
  5
3539
  8
0
 10
492.34132768426298
 20
890.09315557814716
 30
0.0
 40
2.5
 50
0.0
 51
90.056849894502434
  0
LINE
  5
353A
  8
0
  6
CENTER
 10
498.84132768426281
 20
863.09315557814705
 30
0.0
 11
494.84132768426298
 21
863.09315557814693
 31
0.0
  0
LINE
  5
353C
  8
0
 10
515.34132768426275
 20
932.59315557814705
 30
0.0
 11
438.34132768426281
 21
932.59315557814705
 31
0.0
  0
LINE
  5
353D
  8
0
 10
434.34132768426292
 20
942.59315557814705
 30
0.0
 11
519.34132768426298
 21
942.59315557814716
 31
0.0
  0
LINE
  5
353E
  8
0
 10
434.34132768426292
 20
939.59315557814705
 30
0.0
 11
519.34132768426298
 21
939.59315557814705
 31
0.0
  0
LINE
  5
353F
  8
0
  6
CENTER
 10
446.84132768426292
 20
945.59315557814705
 30
0.0
 11
446.84132768426281
 21
936.59315557814705
 31
0.0
  0
LINE
  5
3540
  8
0
 10
434.34132768426292
 20
942.59315557814705
 30
0.0
 11
434.34132768426292
 21
939.59315557814693
 31
0.0
  0
LINE
  5
3541
  8
0
 10
380.98823507370969
 20
914.58656211337325
 30
0.0
 11
401.84829717651161
 21
927.23105776203363
 31
0.0
  0
LINE
  5
3542
  8
0
 10
382.53855698222338
 20
912.60287575134566
 30
0.0
 11
403.14420390623212
 21
925.0931555781475
 31
0.0
  0
ARC
  5
3543
  8
0
 10
379.9467435227823
 20
916.87868011911792
 30
0.0
 40
5.0
 50
258.00000000000011
 51
301.22248805439068
  0
LINE
  5
3544
  8
0
 10
377.60254907381852
 20
912.2652510567508
 30
0.0
 11
378.90718506869348
 21
911.98794211544907
 31
0.0
  0
ARC
  5
3545
  8
0
 10
379.69388477524598
 20
913.86540512048748
 30
0.0
 40
1.0
 50
77.99999999999703
 51
157.74891056669861
  0
ARC
  5
3546
  8
0
 10
371.36408503789198
 20
917.27340106173767
 30
0.0
 40
8.0
 50
278.0000000000008
 51
337.74891056669861
  0
LINE
  5
3547
  8
0
 10
379.90179646606379
 20
914.84355272122116
 30
0.0
 11
381.02046883377869
 21
914.60577156910483
 31
0.0
  0
LINE
  5
3548
  8
0
 10
379.68790870476431
 20
917.95603775294137
 30
0.0
 11
378.96363156329892
 21
914.54858170559635
 31
0.0
  0
LINE
  5
3549
  8
0
 10
381.64420390623189
 20
917.54021437130621
 30
0.0
 11
381.02046883377869
 21
914.60577156910483
 31
0.0
  0
LINE
  5
354A
  8
0
 10
401.84829717651161
 20
927.23105776203363
 30
0.0
 11
403.14420390623212
 21
925.0931555781475
 31
0.0
  0
LINE
  5
354B
  8
0
 10
454.84132768426292
 20
916.81273324489462
 30
0.0
 11
454.84132768426292
 21
911.87868011911814
 31
0.0
  0
ARC
  5
354C
  8
0
 10
443.34132768426281
 20
927.59315557814716
 30
0.0
 40
5.0
 50
89.999999999999915
 51
180.0
  0
LINE
  5
354D
  8
0
 10
438.34132768426281
 20
932.59315557814705
 30
0.0
 11
438.34132768426281
 21
939.59315557814728
 31
0.0
  0
LINE
  5
354E
  8
0
 10
519.34132768426298
 20
942.59315557814705
 30
0.0
 11
519.34132768426298
 21
939.59315557814693
 31
0.0
  0
LINE
  5
354F
  8
0
  6
CENTER
 10
506.84132768426292
 20
945.59315557814705
 30
0.0
 11
506.84132768426298
 21
936.59315557814705
 31
0.0
  0
ARC
  5
3550
  8
0
 10
510.34132768426292
 20
927.59315557814716
 30
0.0
 40
5.0
 50
0.000000000000007
 51
90.000000000000071
  0
ARC
  5
3551
  8
0
 10
487.58752189669281
 20
909.10130482091574
 30
0.0
 40
2.0
 50
9.3708371444947538
 51
71.668914770407866
  0
ARC
  5
3553
  8
0
 10
469.98218264624228
 20
914.37913668128215
 30
0.0
 40
2.7172413510788478
 50
245.17439018310819
 51
293.04191072839848
  0
ARC
  5
3554
  8
0
 10
466.09513347183298
 20
909.10130482091574
 30
0.0
 40
2.0
 50
108.33108522959211
 51
170.62916285550531
  0
ARC
  5
3555
  8
0
 10
475.34132768426281
 20
881.19419402966389
 30
0.0
 40
31.398961548483211
 50
101.9473762297266
 51
108.33108522959211
  0
ARC
  5
3556
  8
0
 10
483.70047272228339
 20
914.37913668128215
 30
0.0
 40
2.7172413510788478
 50
246.95808927161011
 51
294.8256098168917
  0
ARC
  5
3557
  8
0
 10
466.09513347183298
 20
909.10130482091574
 30
0.0
 40
2.0
 50
157.127134286689
 51
170.62916285550531
  0
ARC
  5
3558
  8
0
 10
478.34132768426292
 20
881.19419402966389
 30
0.0
 40
31.398961548483211
 50
71.668914770409444
 51
78.052623770273357
  0
ARC
  5
3559
  8
0
 10
487.58752189669281
 20
909.10130482091574
 30
0.0
 40
2.0
 50
9.3708371444947538
 51
22.87286571331525
  0
LINE
  5
355B
  8
0
 10
498.84132768426292
 20
916.81273324489462
 30
0.0
 11
498.84132768426292
 21
911.87868011911814
 31
0.0
  0
LINE
  5
355C
  8
0
 10
471.6657957693692
 20
922.99591526946313
 30
0.0
 11
482.01685959915648
 21
922.99591526946313
 31
0.0
  0
LINE
  5
355E
  8
0
 10
515.34132768426275
 20
932.59315557814705
 30
0.0
 11
515.34132768426275
 21
939.59315557814728
 31
0.0
  0
ARC
  5
355F
  8
0
 10
321.14420390623189
 20
850.09315557814705
 30
0.0
 40
62.5
 50
143.4558465207368
 51
63.547464748701849
  0
ARC
  5
3562
  8
0
 10
321.14420390623189
 20
850.09315557814705
 30
0.0
 40
29.0
 50
162.90975415686009
 51
72.314663053526615
  0
ARC
  5
35A3
  8
0
 10
438.99038980132599
 20
890.32310709829824
 30
0.0
 40
73.441992739244952
 50
328.3245878126607
 51
357.20316847665771
  0
ARC
  5
35A4
  8
0
 10
514.69226556720002
 20
890.3231070982979
 30
0.0
 40
73.441992739245094
 50
182.79683152334201
 51
212.02227389542441
  0
LINE
  5
35A5
  8
0
 10
441.34132768426292
 20
892.3538726879566
 30
0.0
 11
441.34132768426292
 21
886.59315557814705
 31
0.0
  0
LINE
  5
35A6
  8
0
 10
512.34132768426286
 20
892.3538726879566
 30
0.0
 11
512.34132768426286
 21
886.59315557814705
 31
0.0
  0
ARC
  5
35A7
  8
0
 10
451.61096352594421
 20
850.79641212174215
 30
0.0
 40
2.0
 50
212.07122626174549
 51
227.04869470456731
  0
ARC
  5
35A8
  8
0
 10
499.79013547548169
 20
852.80845326126644
 30
0.0
 40
2.0
 50
305.36209220308149
 51
328.3245878126599
  0
ARC
  5
35A9
  8
0
 10
474.28129626347049
 20
890.07672365023041
 30
0.0
 40
33.018584732529007
 50
85.553220920456624
 51
176.04541872333351
  0
ARC
  5
35AA
  8
0
 10
479.40135910505518
 20
890.07672365023041
 30
0.0
 40
33.018584732529007
 50
3.9545812766693662
 51
94.446779079543376
  0
ARC
  5
35AB
  8
0
 10
321.14420390623189
 20
850.09315557814705
 30
0.0
 40
60.5
 50
143.97686932573669
 51
66.413948174423084
  0
ARC
  5
35AC
  8
0
 10
321.14420390623189
 20
850.09315557814705
 30
0.0
 40
35.5
 50
155.89489698625829
 51
75.981559450432215
  0
LINE
  5
35AE
  8
0
 10
498.84132768426292
 20
911.87868011911814
 30
0.0
 11
454.84132768426292
 21
911.87868011911837
 31
0.0
  0
ARC
  5
35AF
  8
0
 10
153.08432350156261
 20
791.08500633537847
 30
0.0
 40
2.0
 50
189.3708371444946
 51
251.66891477040781
  0
LINE
  5
35B0
  8
0
 10
155.83051771399229
 20
911.87868011911769
 30
0.0
 11
155.83051771399261
 21
788.27331528926777
 31
0.0
  0
LINE
  5
35B1
  8
0
 10
152.45530848025419
 20
789.18649636622615
 30
0.0
 11
152.4553084802543
 21
910.99981479006794
 31
0.0
  0
LINE
  5
35B2
  8
0
 10
158.83051771399261
 20
911.87868011911837
 30
0.0
 11
158.83051771399249
 21
787.78883546711336
 31
0.0
  0
ARC
  5
35B3
  8
0
 10
174.57671192642249
 20
791.08500633537847
 30
0.0
 40
2.0
 50
288.33108522959208
 51
350.62916285550517
  0
LINE
  5
35B4
  8
0
 10
175.20572694773091
 20
789.18649636622615
 30
0.0
 11
175.20572694773099
 21
910.99981479006749
 31
0.0
  0
LINE
  5
35B5
  8
0
 10
171.830517713993
 20
911.87868011911814
 30
0.0
 11
171.83051771399249
 21
788.27331528926777
 31
0.0
  0
LINE
  5
35B6
  8
0
 10
168.8305177139928
 20
911.87868011911837
 30
0.0
 11
168.83051771399269
 21
787.78883546711336
 31
0.0
  0
ARC
  5
35B7
  8
0
 10
156.97137267597199
 20
785.80717447501195
 30
0.0
 40
2.7172413510788478
 50
46.827029958148337
 51
114.8256098168917
  0
ARC
  5
35B8
  8
0
 10
162.33051771399261
 20
818.99211712663021
 30
0.0
 40
31.398961548483211
 50
251.66891477040781
 51
258.05262377027333
  0
ARC
  5
35B9
  8
0
 10
163.83051771399249
 20
851.57083553079281
 30
0.0
 40
63.977679952645907
 50
265.51763479057001
 51
274.48236520942999
  0
ARC
  5
35BA
  8
0
 10
165.33051771399261
 20
818.99211712663021
 30
0.0
 40
31.398961548483211
 50
281.94737622972667
 51
288.3310852295906
  0
ARC
  5
35BB
  8
0
 10
170.68966275201311
 20
785.80717447501195
 30
0.0
 40
2.7172413510788478
 50
65.17439018310823
 51
133.17297004185161
  0
LINE
  5
35BC
  8
0
 10
148.33299825818159
 20
814.59315557814693
 30
0.0
 11
148.33299825818179
 21
885.59315557814671
 31
0.0
  0
LINE
  5
35BD
  8
0
 10
145.83051771399249
 20
883.09315680876682
 30
0.0
 11
145.83051771399241
 21
817.09315434752693
 31
0.0
  0
LINE
  5
35BE
  8
0
 10
181.8305177139928
 20
883.09315680876682
 30
0.0
 11
181.83051771399269
 21
817.09315434752693
 31
0.0
  0
LINE
  5
35BF
  8
0
 10
179.32803716980339
 20
814.59315557814693
 30
0.0
 11
179.32803716980359
 21
885.59315557814671
 31
0.0
  0
LINE
  5
35C2
  8
0
 10
148.33299825818159
 20
814.59315557814693
 30
0.0
 11
151.11101317208559
 21
790.75935875964694
 31
0.0
  0
ARC
  5
35C3
  8
0
 10
148.33051771399241
 20
817.09315434752693
 30
0.0
 40
2.5
 50
180.0
 51
270.05684989450242
  0
ARC
  5
35C4
  8
0
 10
179.33051771399261
 20
817.09315434752693
 30
0.0
 40
2.5
 50
269.94315010549752
 51
0.0
  0
LINE
  5
35C5
  8
0
 10
179.32803716980339
 20
814.59315557814693
 30
0.0
 11
176.55002225589951
 21
790.75935875964694
 31
0.0
  0
LINE
  5
35C8
  8
0
  6
CENTER
 10
140.83051771399249
 20
837.09315557814705
 30
0.0
 11
145.83051771399249
 21
837.09315557814705
 31
0.0
  0
LINE
  5
35CE
  8
0
  6
CENTER
 10
140.83051771399249
 20
863.09315557814705
 30
0.0
 11
145.83051771399249
 21
863.09315557814693
 31
0.0
  0
LINE
  5
35CF
  8
0
  6
CENTER
 10
186.83051771399249
 20
837.09315557814693
 30
0.0
 11
181.83051771399269
 21
837.09315557814705
 31
0.0
  0
LINE
  5
35D2
  8
0
  6
CENTER
 10
186.83051771399249
 20
863.09315557814705
 30
0.0
 11
181.83051771399269
 21
863.09315557814693
 31
0.0
  0
ARC
  5
3624
  8
0
 10
343.6748662479414
 20
895.20503883540584
 30
0.0
 40
10.0
 50
98.000000000000227
 51
145.83901924377119
  0
ARC
  5
36A4
  8
0
 10
148.33051771399241
 20
883.09315680876682
 30
0.0
 40
2.5
 50
89.94315010549758
 51
180.0
  0
LINE
  5
36A5
  8
0
 10
148.33299825818159
 20
885.59315557814682
 30
0.0
 11
151.11101317208559
 21
909.42695239664693
 31
0.0
  0
ARC
  5
36A6
  8
0
 10
162.33051771399261
 20
881.19419402966355
 30
0.0
 40
31.398961548483211
 50
102.2461796109185
 51
108.33108522959211
  0
ARC
  5
36A7
  8
0
 10
156.97137267597199
 20
914.37913668128181
 30
0.0
 40
2.7172413510788478
 50
246.95808927161099
 51
293.04191072838142
  0
ARC
  5
36A8
  8
0
 10
153.08432350156261
 20
909.1013048209154
 30
0.0
 40
2.0
 50
108.33108522959211
 51
170.62916285550531
  0
ARC
  5
36A9
  8
0
 10
179.33051771399261
 20
883.09315680876682
 30
0.0
 40
2.5
 50
0.0
 51
90.056849894502434
  0
LINE
  5
36AA
  8
0
 10
179.32803716980339
 20
885.59315557814682
 30
0.0
 11
176.55002225589951
 21
909.42695239664693
 31
0.0
  0
ARC
  5
36AB
  8
0
 10
165.33051771399261
 20
881.19419402966355
 30
0.0
 40
31.398961548483211
 50
71.668914770409444
 51
77.75382038908289
  0
ARC
  5
36AC
  8
0
 10
170.68966275201311
 20
914.37913668128181
 30
0.0
 40
2.7172413510788478
 50
246.95808927161099
 51
293.04191072839961
  0
ARC
  5
36AD
  8
0
 10
174.57671192642249
 20
909.1013048209154
 30
0.0
 40
2.0
 50
9.3708371444947538
 51
71.668914770407866
  0
POLYLINE
  5
36AE
  8
0
 66
     1
 10
0.0
 20
0.0
 30
0.0
 70
     1
  0
VERTEX
  5
4163
  8
0
 10
-461.95050144790912
 20
990.78121838829065
 30
0.0
  0
VERTEX
  5
4164
  8
0
 10
29.940763799375421
 20
990.78121838829065
 30
0.0
  0
VERTEX
  5
4165
  8
0
 10
29.940763799375421
 20
633.66717612592356
 30
0.0
  0
VERTEX
  5
4166
  8
0
 10
-461.95050144790912
 20
633.66717612592356
 30
0.0
  0
SEQEND
  5
4167
  8
0
  0
POLYLINE
  5
36AF
  8
0
 66
     1
 10
0.0
 20
0.0
 30
0.0
 70
     1
  0
VERTEX
  5
4168
  8
0
 10
76.540987800450239
 20
1047.7124438003609
 30
0.0
  0
VERTEX
  5
4169
  8
0
 10
552.89884128866015
 20
1047.7124438003609
 30
0.0
  0
VERTEX
  5
416A
  8
0
 10
552.89884128866015
 20
633.66717612592356
 30
0.0
  0
VERTEX
  5
416B
  8
0
 10
76.540987800450239
 20
633.66717612592356
 30
0.0
  0
SEQEND
  5
416C
  8
0
  0
LINE
  5
37AE
  8
0
 10
978.77278137811243
 20
988.22665652010255
 30
0.0
 11
1065.2727813781121
 21
980.22665652010255
 31
0.0
  0
LINE
  5
37B2
  8
0
 10
1065.2727813781121
 20
980.22665652010255
 30
0.0
 11
1064.4693234247329
 21
971.53926739918916
 31
0.0
  0
LINE
  5
37F9
  8
0
 10
1058.992596603684
 20
964.67314625252311
 30
0.0
 11
996.91235948573092
 21
944.34726009564952
 31
0.0
  0
ARC
  5
37FA
  8
0
 10
999.71279589684343
 20
935.79404105792366
 30
0.0
 40
9.0
 50
108.12912734015551
 51
187.8938304808122
  0
ARC
  5
37FB
  8
0
 10
1056.503319793806
 20
972.2760076193905
 30
0.0
 40
8.0
 50
288.12912734015538
 51
354.71599985802322
  0
LINE
  5
37FC
  8
0
 10
1065.2727813781121
 20
980.22665652010255
 30
0.0
 11
1088.7885060036169
 21
994.93688302489875
 31
0.0
  0
LINE
  5
37FD
  8
0
 10
1064.9357646081889
 20
976.58266269530714
 30
0.0
 11
1090.2727813781121
 21
992.3297914245386
 31
0.0
  0
LINE
  5
37FE
  8
0
 10
1088.7885060036169
 20
994.93688302489875
 30
0.0
 11
1090.2727813781121
 21
992.3297914245386
 31
0.0
  0
CIRCLE
  5
3842
  8
0
 10
999.2727813781122
 20
969.22665652010267
 30
0.0
 40
4.0
  0
LINE
  5
3A05
  8
0
 10
786.09726762857872
 20
994.93688302489875
 30
0.0
 11
736.09726762857872
 21
994.93688302489875
 31
0.0
  0
LINE
  5
3A06
  8
0
 10
786.09726762857872
 20
992.32979142453883
 30
0.0
 11
736.09726762857872
 21
992.32979142453905
 31
0.0
  0
LINE
  5
3A09
  8
0
 10
786.09726762857872
 20
993.22665652010267
 30
0.0
 11
808.59726762857883
 21
993.22665652010255
 31
0.0
  0
LINE
  5
3A0A
  8
0
 10
736.09726762857872
 20
994.93688302489875
 30
0.0
 11
736.09726762857895
 21
974.22665652010437
 31
0.0
  0
LINE
  5
3A0B
  8
0
 10
786.09726762857872
 20
994.93688302489875
 30
0.0
 11
786.09726762857872
 21
974.22665652010312
 31
0.0
  0
LINE
  5
3A8D
  8
0
 10
786.09726762857872
 20
976.58266269530691
 30
0.0
 11
736.09726762857883
 21
976.58266269530714
 31
0.0
  0
LINE
  5
3A8E
  8
0
 10
736.09726762857872
 20
988.22665652010278
 30
0.0
 11
733.59726762857872
 21
988.22665652010301
 31
0.0
  0
LINE
  5
3A8F
  8
0
 10
736.09726762857872
 20
985.22665652010232
 30
0.0
 11
732.29861345762674
 21
985.22665652010221
 31
0.0
  0
ARC
  5
3A91
  8
0
 10
733.59726762857883
 20
982.22665652010289
 30
0.0
 40
6.0
 50
90.000000000001521
 51
180.0
  0
LINE
  5
3A93
  8
0
 10
786.09726762857872
 20
974.22665652010312
 30
0.0
 11
736.09726762857895
 21
974.22665652010448
 31
0.0
  0
LINE
  5
3AD5
  8
0
 10
769.09726762857872
 20
974.22665652010346
 30
0.0
 11
769.09726762857849
 21
968.26665440904992
 31
0.0
  0
LINE
  5
3AD6
  8
0
 10
766.09726762857861
 20
965.26665440905003
 30
0.0
 11
756.09726762857974
 21
965.26665440904969
 31
0.0
  0
LINE
  5
3AD8
  8
0
 10
753.09726762857986
 20
974.22665652010346
 30
0.0
 11
753.09726762857974
 21
968.26665440904958
 31
0.0
  0
ARC
  5
3AD9
  8
0
 10
756.09726762857974
 20
968.26665440904958
 30
0.0
 40
3.0
 50
180.0
 51
270.0000000000004
  0
ARC
  5
3ADA
  8
0
 10
766.09726762857861
 20
968.26665440904992
 30
0.0
 40
3.0
 50
270.00000000000102
 51
0.0
  0
LINE
  5
3B1B
  8
0
  6
CENTER
 10
1182.8412509783541
 20
980.43669550291077
 30
0.0
 11
1182.8412509783541
 21
973.08342722976954
 31
0.0
  0
LINE
  5
3B1C
  8
0
  6
CENTER
 10
1166.8412509783541
 20
980.43669550291179
 30
0.0
 11
1166.8412509783541
 21
973.08342722976954
 31
0.0
  0
LINE
  5
3B9D
  8
0
 10
995.27278137811231
 20
734.61086034757068
 30
0.0
 11
1061.2727813781121
 21
734.61086034757068
 31
0.0
  0
LINE
  5
3B9E
  8
0
 10
1065.2727813781121
 20
730.61086034757068
 30
0.0
 11
1065.2727813781121
 21
671.61086034757102
 31
0.0
  0
LINE
  5
3B9F
  8
0
 10
995.27278137811231
 20
667.61086034757102
 30
0.0
 11
1061.2727813781121
 21
667.61086034757102
 31
0.0
  0
ARC
  5
3BA1
  8
0
 10
1061.2727813781121
 20
671.61086034757102
 30
0.0
 40
4.0
 50
270.0
 51
0.0
  0
ARC
  5
3BA2
  8
0
 10
1061.2727813781121
 20
730.61086034757068
 30
0.0
 40
4.0
 50
0.0
 51
90.0
  0
LINE
  5
3C64
  8
0
 10
1065.2727813781121
 20
726.11086034757091
 30
0.0
 11
1087.9877375380611
 21
726.11086034757056
 31
0.0
  0
LINE
  5
3C65
  8
0
 10
1065.2727813781121
 20
676.11086034757091
 30
0.0
 11
1087.9877375380611
 21
676.11086034757113
 31
0.0
  0
ARC
  5
3C67
  8
0
 10
952.37139535107906
 20
701.11086034757091
 30
0.0
 40
137.9013860270332
 50
349.55515243580481
 51
10.44484756419512
  0
LINE
  5
3C68
  8
0
 10
1057.2727813781121
 20
713.61086034757091
 30
0.0
 11
1057.2727813781121
 21
688.61086034757102
 31
0.0
  0
LINE
  5
3C69
  8
0
 10
1027.7727813781121
 20
713.61086034757091
 30
0.0
 11
1057.2727813781121
 21
713.61086034757091
 31
0.0
  0
LINE
  5
3C6A
  8
0
 10
1031.2727813781121
 20
713.61086034757091
 30
0.0
 11
1031.2727813781121
 21
688.61086034757102
 31
0.0
  0
LINE
  5
3C6B
  8
0
 10
1027.7727813781121
 20
688.61086034757091
 30
0.0
 11
1057.2727813781121
 21
688.61086034757091
 31
0.0
  0
LINE
  5
3C6D
  8
0
 10
1021.005444173159
 20
717.61086034757091
 30
0.0
 11
1025.2727813781121
 21
717.61086034757102
 31
0.0
  0
LINE
  5
3C6E
  8
0
 10
1027.7727813781121
 20
715.11086034757102
 30
0.0
 11
1027.7727813781121
 21
713.61086034757091
 31
0.0
  0
LINE
  5
3C71
  8
0
 10
1021.005444173159
 20
684.61086034757091
 30
0.0
 11
1025.2727813781121
 21
684.61086034757068
 31
0.0
  0
ARC
  5
3C72
  8
0
 10
1154.3977813781121
 20
701.11086034756977
 30
0.0
 40
136.6250000000002
 50
174.0085391470943
 51
185.99146085290479
  0
ARC
  5
3C73
  8
0
 10
1025.2727813781121
 20
715.11086034757102
 30
0.0
 40
2.5
 50
359.9999999999996
 51
90.000000000000725
  0
ARC
  5
3C74
  8
0
 10
1025.2727813781121
 20
687.11086034757079
 30
0.0
 40
2.5
 50
269.9999999999992
 51
359.9999999999996
  0
ARC
  5
3C75
  8
0
 10
1021.005444173159
 20
687.11086034757079
 30
0.0
 40
2.5
 50
185.99146085290579
 51
270.0
  0
ARC
  5
3C76
  8
0
 10
1021.005444173159
 20
715.11086034757091
 30
0.0
 40
2.5
 50
90.0
 51
174.0085391470941
  0
LINE
  5
3C77
  8
0
 10
1027.7727813781121
 20
688.61086034757102
 30
0.0
 11
1027.7727813781121
 21
687.11086034757079
 31
0.0
  0
LINE
  5
3CB8
  8
0
 10
1703.5172372127729
 20
1008.226656520102
 30
0.0
 11
1790.0172372127729
 21
1000.226656520102
 31
0.0
  0
LINE
  5
3CB9
  8
0
 10
1598.0172372127729
 20
703.39908950136896
 30
0.0
 11
1704.0172372127729
 21
703.39908950136874
 31
0.0
  0
LINE
  5
3CBA
  8
0
 10
1582.017237212772
 20
687.39908950136896
 30
0.0
 11
1582.0172372127729
 21
614.39908950136885
 31
0.0
  0
LINE
  5
3CBB
  8
0
 10
1598.0172372127729
 20
598.39908950136896
 30
0.0
 11
1704.0172372127729
 21
598.39908950136896
 31
0.0
  0
LINE
  5
3CBC
  8
0
 10
1720.0172372127729
 20
687.39908950136874
 30
0.0
 11
1720.0172372127729
 21
614.39908950136885
 31
0.0
  0
ARC
  5
3CBD
  8
0
 10
1598.0172372127729
 20
687.39908950136896
 30
0.0
 40
16.0
 50
90.0
 51
180.0
  0
ARC
  5
3CBE
  8
0
 10
1704.0172372127729
 20
687.39908950136874
 30
0.0
 40
16.0
 50
0.0
 51
89.999999999999943
  0
ARC
  5
3CBF
  8
0
 10
1704.0172372127729
 20
614.39908950136885
 30
0.0
 40
16.0
 50
270.0
 51
0.0000000000000636
  0
ARC
  5
3CC0
  8
0
 10
1598.0172372127729
 20
614.39908950136885
 30
0.0
 40
16.0
 50
180.0
 51
270.0
  0
LINE
  5
3CC1
  8
0
  6
CENTER
 10
1651.0172372127729
 20
708.39908950136885
 30
0.0
 11
1651.0172372127729
 21
593.39908950136885
 31
0.0
  0
LINE
  5
3CC2
  8
0
  6
CENTER
 10
1573.5864291850321
 20
650.89908950136885
 30
0.0
 11
1942.3523960916291
 21
650.89908950136885
 31
0.0
  0
LINE
  5
3CC3
  8
0
  6
CENTER
 10
1703.5172372127729
 20
700.64908950136896
 30
0.0
 11
1703.5172372127729
 21
678.64908950136885
 31
0.0
  0
LINE
  5
3CC4
  8
0
  6
CENTER
 10
1695.0172372127729
 20
689.64908950136885
 30
0.0
 11
1712.0172372127729
 21
689.64908950136885
 31
0.0
  0
LINE
  5
3CC5
  8
0
 10
1709.0172372127729
 20
692.14908950136896
 30
0.0
 11
1709.0172372127729
 21
687.14908950136885
 31
0.0
  0
LINE
  5
3CC6
  8
0
 10
1698.0172372127729
 20
692.14908950136896
 30
0.0
 11
1698.0172372127729
 21
687.14908950136885
 31
0.0
  0
ARC
  5
3CC7
  8
0
 10
1703.5172372127729
 20
692.14908950136896
 30
0.0
 40
5.5
 50
0.0
 51
180.0
  0
ARC
  5
3CC8
  8
0
 10
1703.5172372127729
 20
687.14908950136885
 30
0.0
 40
5.5
 50
180.0
 51
0.0
  0
LINE
  5
3CC9
  8
0
  6
CENTER
 10
1598.5172372127729
 20
700.64908950136896
 30
0.0
 11
1598.5172372127729
 21
678.64908950136885
 31
0.0
  0
LINE
  5
3CCA
  8
0
 10
1604.017237212772
 20
692.14908950136896
 30
0.0
 11
1604.017237212772
 21
687.14908950136885
 31
0.0
  0
ARC
  5
3CCB
  8
0
 10
1598.5172372127729
 20
687.14908950136885
 30
0.0
 40
5.5
 50
180.0
 51
0.000000000000007
  0
LINE
  5
3CCC
  8
0
  6
CENTER
 10
1607.017237212772
 20
689.64908950136885
 30
0.0
 11
1590.017237212772
 21
689.64908950136885
 31
0.0
  0
ARC
  5
3CCD
  8
0
 10
1598.5172372127729
 20
692.14908950136896
 30
0.0
 40
5.5
 50
0.000000000000007
 51
180.0
  0
LINE
  5
3CCE
  8
0
 10
1593.0172372127729
 20
692.14908950136896
 30
0.0
 11
1593.0172372127729
 21
687.14908950136885
 31
0.0
  0
LINE
  5
3CCF
  8
0
 10
1593.0172372127729
 20
609.64908950136896
 30
0.0
 11
1593.0172372127729
 21
614.64908950136885
 31
0.0
  0
LINE
  5
3CD0
  8
0
 10
1604.017237212772
 20
609.64908950136896
 30
0.0
 11
1604.017237212772
 21
614.64908950136885
 31
0.0
  0
LINE
  5
3CD1
  8
0
  6
CENTER
 10
1598.5172372127729
 20
601.14908950136896
 30
0.0
 11
1598.5172372127729
 21
623.14908950136885
 31
0.0
  0
ARC
  5
3CD2
  8
0
 10
1598.5172372127729
 20
614.64908950136885
 30
0.0
 40
5.5
 50
0.0
 51
180.0
  0
LINE
  5
3CD3
  8
0
  6
CENTER
 10
1607.017237212772
 20
612.14908950136885
 30
0.0
 11
1590.017237212772
 21
612.14908950136908
 31
0.0
  0
ARC
  5
3CD4
  8
0
 10
1598.5172372127729
 20
609.64908950136896
 30
0.0
 40
5.5
 50
180.0
 51
0.0
  0
LINE
  5
3CD5
  8
0
  6
CENTER
 10
1703.5172372127729
 20
601.14908950136896
 30
0.0
 11
1703.5172372127729
 21
623.14908950136885
 31
0.0
  0
LINE
  5
3CD6
  8
0
 10
1709.0172372127729
 20
609.64908950136896
 30
0.0
 11
1709.0172372127729
 21
614.64908950136885
 31
0.0
  0
LINE
  5
3CD7
  8
0
 10
1698.0172372127729
 20
609.64908950136896
 30
0.0
 11
1698.0172372127729
 21
614.64908950136885
 31
0.0
  0
ARC
  5
3CD8
  8
0
 10
1703.5172372127729
 20
614.64908950136885
 30
0.0
 40
5.5
 50
0.0
 51
180.0
  0
LINE
  5
3CD9
  8
0
  6
CENTER
 10
1695.0172372127729
 20
612.14908950136885
 30
0.0
 11
1712.0172372127729
 21
612.14908950136908
 31
0.0
  0
ARC
  5
3CDA
  8
0
 10
1703.5172372127729
 20
609.64908950136896
 30
0.0
 40
5.5
 50
180.0
 51
0.0
  0
CIRCLE
  5
3CDB
  8
0
 10
1651.0172372127729
 20
650.89908950136885
 30
0.0
 40
10.0
  0
CIRCLE
  5
3CDC
  8
0
 10
1651.0172372127729
 20
650.89908950136885
 30
0.0
 40
44.0
  0
CIRCLE
  5
3CDD
  8
0
 10
1651.0172372127729
 20
650.89908950136885
 30
0.0
 40
41.0
  0
CIRCLE
  5
3CDE
  8
0
 10
1651.0172372127729
 20
650.89908950136885
 30
0.0
 40
24.0
  0
LINE
  5
3CDF
  8
0
 10
1582.017237212772
 20
1030.2266565201021
 30
0.0
 11
1582.017237212772
 21
1034.2266565201021
 31
0.0
  0
LINE
  5
3CE0
  8
0
 10
1720.017237212772
 20
1030.2266565201021
 30
0.0
 11
1720.017237212772
 21
1034.2266565201021
 31
0.0
  0
LINE
  5
3CE1
  8
0
 10
1582.017237212772
 20
1034.2266565201021
 30
0.0
 11
1720.017237212772
 21
1034.2266565201021
 31
0.0
  0
LINE
  5
3CE2
  8
0
 10
1582.017237212772
 20
1030.2266565201021
 30
0.0
 11
1720.017237212772
 21
1030.2266565201021
 31
0.0
  0
LINE
  5
3CE3
  8
0
 10
1603.5172372127729
 20
1020.226656520102
 30
0.0
 11
1698.5172372127729
 21
1020.226656520102
 31
0.0
  0
LINE
  5
3CE4
  8
0
  6
CENTER
 10
1651.0172372127729
 20
1039.2266565201021
 30
0.0
 11
1651.0172372127729
 21
999.88457747972416
 31
0.0
  0
LINE
  5
3CE5
  8
0
 10
1601.0172372127729
 20
1027.2266565201021
 30
0.0
 11
1601.0172372127729
 21
1027.2266565201021
 31
0.0
  0
LINE
  5
3CE6
  8
0
 10
1603.5172372127729
 20
1013.226656520102
 30
0.0
 11
1698.5172372127729
 21
1013.226656520102
 31
0.0
  0
LINE
  5
3CE7
  8
0
 10
1603.5172372127729
 20
1020.226656520102
 30
0.0
 11
1603.5172372127729
 21
1013.226656520102
 31
0.0
  0
LINE
  5
3CE8
  8
0
 10
1698.5172372127729
 20
1020.226656520102
 30
0.0
 11
1698.517237212772
 21
1013.226656520102
 31
0.0
  0
ARC
  5
3CE9
  8
0
 10
1598.0172372127729
 20
1027.2266565201021
 30
0.0
 40
3.0
 50
353.62062979155849
 51
90.0
  0
LINE
  5
3CEA
  8
0
  6
CENTER
 10
1706.0172372127729
 20
979.22665652010267
 30
0.0
 11
1706.0172372127729
 21
809.22665652010255
 31
0.0
  0
LINE
  5
3CEB
  8
0
  6
CENTER
 10
1621.0172372127729
 20
894.22665652010267
 30
0.0
 11
1791.0172372127729
 21
894.22665652010267
 31
0.0
  0
POLYLINE
  5
3CEC
  8
0
 66
     1
 10
0.0
 20
0.0
 30
0.0
 70
     1
  0
VERTEX
  5
416D
  8
0
 10
1700.5324096554709
 20
903.72665652010255
 30
0.0
  0
VERTEX
  5
416E
  8
0
 10
1695.0475820981701
 20
894.22665652010267
 30
0.0
  0
VERTEX
  5
416F
  8
0
 10
1700.5324096554709
 20
884.72665652010255
 30
0.0
  0
VERTEX
  5
4170
  8
0
 10
1711.502064770074
 20
884.72665652010255
 30
0.0
  0
VERTEX
  5
4171
  8
0
 10
1716.986892327375
 20
894.22665652010267
 30
0.0
  0
VERTEX
  5
4172
  8
0
 10
1711.502064770074
 20
903.72665652010255
 30
0.0
  0
SEQEND
  5
4173
  8
0
  0
LINE
  5
3CEE
  8
0
 10
1707.9440647613919
 20
875.23711746956963
 30
0.0
 11
1695.406716222318
 21
877.44779028355435
 31
0.0
  0
LINE
  5
3CEF
  8
0
 10
1721.8223091366069
 20
889.26627292631838
 30
0.0
 11
1715.5425334157319
 21
954.55800005923209
 31
0.0
  0
ARC
  5
3CF0
  8
0
 10
1710.027842893395
 20
887.05481050571598
 30
0.0
 40
12.0
 50
260.0
 51
10.61965527615518
  0
LINE
  5
3CF1
  8
0
 10
1689.482753567798
 20
880.86799171681105
 30
0.0
 11
1601.5853653143081
 21
1001.25712878088
 31
0.0
  0
ARC
  5
3CF2
  8
0
 10
1697.143197998987
 20
887.29586781367652
 30
0.0
 40
10.0
 50
219.99999999999989
 51
260.0
  0
LINE
  5
3CF3
  8
0
 10
1698.517237212772
 20
1013.226656520102
 30
0.0
 11
1703.517237212772
 21
1008.226656520102
 31
0.0
  0
LINE
  5
3CF4
  8
0
 10
1602.7102413393541
 20
1008.226656520102
 30
0.0
 11
1703.517237212772
 21
1008.226656520102
 31
0.0
  0
LINE
  5
3CF5
  8
0
 10
1603.5172372127729
 20
1013.226656520102
 30
0.0
 11
1601.5853653143081
 21
1001.25712878088
 31
0.0
  0
LINE
  5
3D06
  8
0
  6
CENTER
 10
1950.5857068130149
 20
894.22665652010267
 30
0.0
 11
1848.585706813014
 21
894.22665652010267
 31
0.0
  0
LINE
  5
3D09
  8
0
  6
CENTER
 10
1899.585706813014
 20
1039.2266565201021
 30
0.0
 11
1899.5857068130149
 21
809.22665652010255
 31
0.0
  0
LINE
  5
3D29
  8
0
 10
1851.585706813014
 20
925.67984817102922
 30
0.0
 11
1851.585706813014
 21
1007.226656520102
 31
0.0
  0
ARC
  5
3D2A
  8
0
 10
1900.60992724825
 20
951.8560135993331
 30
0.0
 40
49.411731488386678
 50
91.187728290794965
 51
172.8195960136317
  0
LINE
  5
3D2C
  8
0
 10
1872.585706813021
 20
874.22665652010255
 30
0.0
 11
1868.585706813021
 21
874.22665652010255
 31
0.0
  0
LINE
  5
3D2D
  8
0
 10
1868.585706813021
 20
889.85936212258423
 30
0.0
 11
1868.585706813021
 21
874.22665652010255
 31
0.0
  0
ARC
  5
3D2F
  8
0
 10
1858.585706813021
 20
889.85936212258423
 30
0.0
 40
10.0
 50
0.0
 51
44.98120008905039
  0
LINE
  5
3D33
  8
0
 10
1930.5857068130081
 20
889.85936212258423
 30
0.0
 11
1930.5857068130081
 21
874.22665652010255
 31
0.0
  0
LINE
  5
3D34
  8
0
 10
1926.5857068130081
 20
874.22665652010255
 30
0.0
 11
1930.5857068130081
 21
874.22665652010255
 31
0.0
  0
ARC
  5
3D36
  8
0
 10
1940.5857068130081
 20
889.85936212258423
 30
0.0
 40
10.0
 50
135.0187999109495
 51
180.0
  0
ARC
  5
3D37
  8
0
 10
1931.9450818130149
 20
889.47665652010255
 30
0.0
 40
6.6406249999998108
 50
314.33269164416549
 51
45.66730835583445
  0
ARC
  5
3D38
  8
0
 10
1931.9450818130149
 20
898.97665652010255
 30
0.0
 40
6.640624999999984
 50
314.33269164416549
 51
26.50412389277648
  0
LINE
  5
3D39
  8
0
 10
1938.5857068130149
 20
898.97665652010255
 30
0.0
 11
1938.5857068130149
 21
889.47665652010255
 31
0.0
  0
LINE
  5
3D3A
  8
0
 10
1931.5897777534051
 20
894.22665652010255
 30
0.0
 11
1936.5857068130149
 21
894.22665652010267
 31
0.0
  0
LINE
  5
3D3B
  8
0
 10
1930.5857068130149
 20
884.72665652010255
 30
0.0
 11
1936.5857068130149
 21
884.72665652010255
 31
0.0
  0
LINE
  5
3D3C
  8
0
 10
1853.5857068130149
 20
899.32665652010235
 30
0.0
 11
1859.5949367568719
 21
899.32665652010235
 31
0.0
  0
LINE
  5
3D3D
  8
0
 10
1853.5857068130149
 20
889.12665652010276
 30
0.0
 11
1859.5949367568719
 21
889.12665652010276
 31
0.0
  0
LINE
  5
3D3E
  8
0
 10
1859.704414886939
 20
900.22665652010221
 30
0.0
 11
1854.4857068130141
 21
900.22665652010221
 31
0.0
  0
LINE
  5
3D3F
  8
0
 10
1859.704414886939
 20
888.22665652010255
 30
0.0
 11
1854.4857068130141
 21
888.22665652010255
 31
0.0
  0
LINE
  5
3D40
  8
0
 10
1868.5857068130149
 20
884.72665652010255
 30
0.0
 11
1861.5857068130149
 21
884.72665652010255
 31
0.0
  0
LINE
  5
3D41
  8
0
 10
1867.581635872624
 20
894.22665652010267
 30
0.0
 11
1861.5857068130149
 21
894.22665652010267
 31
0.0
  0
ARC
  5
3D42
  8
0
 10
1866.226331813014
 20
889.47665652010255
 30
0.0
 40
6.6406249999998108
 50
134.33269164416549
 51
225.66730835583439
  0
LINE
  5
3D43
  8
0
 10
1859.5857068130149
 20
898.97665652010255
 30
0.0
 11
1859.5857068130149
 21
889.47665652010255
 31
0.0
  0
ARC
  5
3D44
  8
0
 10
1866.2263318130149
 20
898.97665652010255
 30
0.0
 40
6.640624999999984
 50
145.97581737605341
 51
225.66730835583439
  0
LINE
  5
3D45
  8
0
 10
1854.4857068130141
 20
900.22665652010221
 30
0.0
 11
1854.4857068130141
 21
888.22665652010255
 31
0.0
  0
LINE
  5
3D46
  8
0
 10
1854.4857068130141
 20
900.22665652010221
 30
0.0
 11
1853.5857068130149
 21
899.32665652010235
 31
0.0
  0
LINE
  5
3D47
  8
0
 10
1854.4857068130141
 20
888.22665652010255
 30
0.0
 11
1853.5857068130149
 21
889.12665652010276
 31
0.0
  0
LINE
  5
3D48
  8
0
 10
1853.5857068130149
 20
899.32665652010235
 30
0.0
 11
1853.5857068130149
 21
889.12665652010276
 31
0.0
  0
LINE
  5
3D49
  8
0
 10
1603.5172372127729
 20
1020.226656520102
 30
0.0
 11
1606.961509122772
 21
1020.226656520102
 31
0.0
  0
ARC
  5
3D4A
  8
0
 10
1606.961509122772
 20
1026.2266565201021
 30
0.0
 40
6.0
 50
173.6206297915576
 51
270.0
  0
ARC
  5
3D4B
  8
0
 10
1704.017237212772
 20
1027.2266565201021
 30
0.0
 40
3.0
 50
90.0
 51
186.3793702084414
  0
LINE
  5
3D4C
  8
0
 10
1698.517237212772
 20
1020.226656520102
 30
0.0
 11
1695.072965302774
 21
1020.226656520102
 31
0.0
  0
ARC
  5
3D4D
  8
0
 10
1695.072965302774
 20
1026.2266565201021
 30
0.0
 40
6.0
 50
270.0
 51
6.3793702084423769
  0
LINE
  5
3D4E
  8
0
 10
1701.0172372127729
 20
1027.2266565201021
 30
0.0
 11
1701.0172372127729
 21
1027.2266565201021
 31
0.0
  0
LINE
  5
3D4F
  8
0
 10
1847.085706813014
 20
1034.2266565201021
 30
0.0
 11
1952.085706813014
 21
1034.2266565201021
 31
0.0
  0
LINE
  5
3D50
  8
0
 10
1852.085706813014
 20
1020.226656520102
 30
0.0
 11
1947.0857068130149
 21
1020.226656520102
 31
0.0
  0
LINE
  5
3D51
  8
0
 10
1852.085706813014
 20
1013.226656520102
 30
0.0
 11
1947.085706813014
 21
1013.226656520102
 31
0.0
  0
LINE
  5
3D52
  8
0
 10
1852.085706813014
 20
1020.226656520102
 30
0.0
 11
1852.085706813014
 21
1013.226656520102
 31
0.0
  0
ARC
  5
3D53
  8
0
 10
1847.085706813014
 20
1027.1846964116521
 30
0.0
 40
3.0
 50
353.62062979155849
 51
90.0
  0
LINE
  5
3D54
  8
0
 10
1852.085706813014
 20
1020.226656520102
 30
0.0
 11
1855.529978723014
 21
1020.226656520102
 31
0.0
  0
ARC
  5
3D55
  8
0
 10
1856.029978723014
 20
1026.1846964116521
 30
0.0
 40
6.0
 50
173.6206297915576
 51
270.0
  0
LINE
  5
3D56
  8
0
 10
1850.0857068130149
 20
1027.1846964116521
 30
0.0
 11
1850.0857068130149
 21
1027.1846964116521
 31
0.0
  0
LINE
  5
3D57
  8
0
 10
1947.0857068130149
 20
1020.226656520102
 30
0.0
 11
1947.085706813014
 21
1013.226656520102
 31
0.0
  0
ARC
  5
3D58
  8
0
 10
1900.6099272482511
 20
931.8560135993331
 30
0.0
 40
49.411731488386678
 50
187.18040398636819
 51
224.98120008905059
  0
ARC
  5
3D59
  8
0
 10
1898.561486377773
 20
951.8560135993331
 30
0.0
 40
49.411731488386678
 50
7.1804039863682556
 51
88.812271709205049
  0
LINE
  5
3D5A
  8
0
 10
1947.5857068130099
 20
925.67984817102922
 30
0.0
 11
1947.5857068130099
 21
1007.226656520102
 31
0.0
  0
ARC
  5
3D5B
  8
0
 10
1898.561486377773
 20
931.8560135993331
 30
0.0
 40
49.411731488386678
 50
315.01879991094933
 51
352.81959601363172
  0
ARC
  5
3D5C
  8
0
 10
1857.585706813014
 20
1007.226656520102
 30
0.0
 40
6.0
 50
90.0
 51
180.0
  0
ARC
  5
3D5D
  8
0
 10
1941.585706813009
 20
1007.226656520102
 30
0.0
 40
6.0
 50
0.0
 51
89.999999999999872
  0
LINE
  5
3D5E
  8
0
  6
CENTER
 10
1703.5172372127729
 20
1025.2266565201021
 30
0.0
 11
1703.5172372127729
 21
1039.2266565201021
 31
0.0
  0
LINE
  5
3D5F
  8
0
  6
CENTER
 10
1598.517237212772
 20
1025.2266565201021
 30
0.0
 11
1598.517237212772
 21
1039.2266565201021
 31
0.0
  0
LINE
  5
3D60
  8
0
 10
1847.085706813014
 20
1034.2266565201021
 30
0.0
 11
1847.085706813014
 21
1030.1846964116521
 31
0.0
  0
LINE
  5
3D61
  8
0
 10
1952.085706813014
 20
1034.2266565201021
 30
0.0
 11
1952.085706813014
 21
1030.1846964116521
 31
0.0
  0
ARC
  5
3D62
  8
0
 10
1952.085706813014
 20
1027.1846964116521
 30
0.0
 40
3.0
 50
90.0
 51
186.3793702084414
  0
ARC
  5
3D63
  8
0
 10
1943.1414349030149
 20
1026.1846964116521
 30
0.0
 40
6.0
 50
270.0
 51
6.3793702084423769
  0
LINE
  5
3D64
  8
0
 10
1949.085706813014
 20
1027.1846964116521
 30
0.0
 11
1949.085706813014
 21
1027.1846964116521
 31
0.0
  0
LINE
  5
3D65
  8
0
 10
1947.085706813014
 20
1020.226656520102
 30
0.0
 11
1943.6414349030149
 21
1020.226656520102
 31
0.0
  0
LINE
  5
3D66
  8
0
  6
CENTER
 10
1485.8417234632391
 20
1039.2266565201021
 30
0.0
 11
1485.8417234632391
 21
789.22665652010255
 31
0.0
  0
LINE
  5
3D67
  8
0
 10
1460.8417234632391
 20
815.72665652010267
 30
0.0
 11
1460.8417234632379
 21
972.72665652010232
 31
0.0
  0
LINE
  5
3D68
  8
0
 10
1510.8417234632391
 20
815.72665652010267
 30
0.0
 11
1510.8417234632391
 21
972.72665652010232
 31
0.0
  0
LINE
  5
3D69
  8
0
 10
1470.3417234632391
 20
990.82993499504823
 30
0.0
 11
1470.3417234632391
 21
797.25611235560552
 31
0.0
  0
LINE
  5
3D6A
  8
0
 10
1464.8417234632391
 20
976.72665652010244
 30
0.0
 11
1464.8417234632391
 21
811.72665652010278
 31
0.0
  0
LINE
  5
3D6B
  8
0
 10
1501.3417234632391
 20
990.82993499504801
 30
0.0
 11
1501.3417234632391
 21
797.25611235560541
 31
0.0
  0
LINE
  5
3D6C
  8
0
 10
1506.8417234632391
 20
976.72665652010244
 30
0.0
 11
1506.8417234632391
 21
811.72665652010278
 31
0.0
  0
LINE
  5
3D6D
  8
0
 10
1470.3417234632379
 20
990.82993499504801
 30
0.0
 11
1470.3417234632379
 21
797.25611235560541
 31
0.0
  0
LINE
  5
3D6E
  8
0
 10
1498.3417234632391
 20
993.22438885312192
 30
0.0
 11
1498.3417234632391
 21
795.22892418708329
 31
0.0
  0
LINE
  5
3D6F
  8
0
 10
1494.3417234632391
 20
994.01140341023313
 30
0.0
 11
1494.3417234632391
 21
794.44190962997232
 31
0.0
  0
LINE
  5
3D70
  8
0
 10
1477.3417234632391
 20
994.01140341023313
 30
0.0
 11
1477.3417234632379
 21
794.44190962997243
 31
0.0
  0
LINE
  5
3D71
  8
0
 10
1473.3417234632391
 20
993.22438885312192
 30
0.0
 11
1473.3417234632391
 21
795.22892418708329
 31
0.0
  0
LINE
  5
3D72
  8
0
 10
1506.8417234632391
 20
811.72665652010255
 30
0.0
 11
1501.2112394313849
 21
796.91280782002161
 31
0.0
  0
LINE
  5
3D73
  8
0
 10
1464.8417234632391
 20
811.72665652010255
 30
0.0
 11
1470.472207495093
 21
796.91280782002161
 31
0.0
  0
ARC
  5
3D74
  8
0
 10
1485.8417234632391
 20
962.15996523061619
 30
0.0
 40
167.9333087105137
 50
267.09871545097133
 51
272.90128454902862
  0
ARC
  5
3D75
  8
0
 10
1472.3417234632391
 20
797.62337804515687
 30
0.0
 40
2.0
 50
180.0
 51
251.3370751150587
  0
ARC
  5
3D76
  8
0
 10
1480.8417234632391
 20
822.78915652010187
 30
0.0
 40
28.562499999999361
 50
251.3370751150581
 51
254.7766724076304
  0
ARC
  5
3D77
  8
0
 10
1473.8667027950521
 20
787.33862714849522
 30
0.0
 40
7.9077424500286071
 50
63.931502199196089
 51
93.806552770076735
  0
ARC
  5
3D78
  8
0
 10
1499.3417234632391
 20
797.6233780451571
 30
0.0
 40
2.0
 50
288.6629248849423
 51
0.0
  0
ARC
  5
3D79
  8
0
 10
1490.8417234632391
 20
822.78915652010187
 30
0.0
 40
28.562499999999361
 50
285.2233275923694
 51
288.66292488494292
  0
ARC
  5
3D7A
  8
0
 10
1497.816744131426
 20
787.33862714849522
 30
0.0
 40
7.9077424500286071
 50
86.193447229923294
 51
116.0684978008039
  0
ARC
  5
3D7B
  8
0
 10
1464.8417234632379
 20
815.72665652010267
 30
0.0
 40
4.0
 50
179.99999999999989
 51
270.0
  0
ARC
  5
3D7C
  8
0
 10
1506.8417234632391
 20
815.72665652010267
 30
0.0
 40
4.0
 50
270.0
 51
0.0000000000000649
  0
LINE
  5
3D7D
  8
0
 10
1433.3417234632391
 20
1034.2266565201021
 30
0.0
 11
1538.3417234632391
 21
1034.2266565201021
 31
0.0
  0
LINE
  5
3D7E
  8
0
 10
1438.3417234632391
 20
1013.226656520102
 30
0.0
 11
1460.8417234632391
 21
1013.226656520102
 31
0.0
  0
LINE
  5
3D7F
  8
0
 10
1438.3417234632391
 20
1020.226656520102
 30
0.0
 11
1533.3417234632391
 21
1020.226656520102
 31
0.0
  0
LINE
  5
3D81
  8
0
  6
CENTER
 10
1536.8417234632391
 20
894.22665652010267
 30
0.0
 11
1434.8417234632391
 21
894.22665652010267
 31
0.0
  0
LINE
  5
3D82
  8
0
 10
1457.0430692922871
 20
1005.226656520102
 30
0.0
 11
1457.0430692922871
 21
874.22665652010255
 31
0.0
  0
LINE
  5
3D83
  8
0
 10
1437.8417234632391
 20
925.67984817102922
 30
0.0
 11
1437.8417234632391
 21
1007.226656520102
 31
0.0
  0
ARC
  5
3D84
  8
0
 10
1486.8659438984751
 20
931.8560135993331
 30
0.0
 40
49.411731488386678
 50
187.18040398636819
 51
214.7003809881231
  0
ARC
  5
3D85
  8
0
 10
1449.9823484632391
 20
898.97665652010255
 30
0.0
 40
6.640624999999984
 50
134.3326916441649
 51
225.66730835583439
  0
LINE
  5
3D86
  8
0
 10
1443.3417234632391
 20
898.97665652010255
 30
0.0
 11
1443.3417234632391
 21
889.47665652010255
 31
0.0
  0
LINE
  5
3D87
  8
0
 10
1437.3417234632391
 20
899.32665652010235
 30
0.0
 11
1437.3417234632391
 21
889.12665652010276
 31
0.0
  0
LINE
  5
3D88
  8
0
 10
1438.2417234632389
 20
900.22665652010221
 30
0.0
 11
1438.2417234632389
 21
888.22665652010255
 31
0.0
  0
LINE
  5
3D89
  8
0
 10
1452.3417234632391
 20
1002.226656520103
 30
0.0
 11
1452.3417234632391
 21
874.22665652010255
 31
0.0
  0
LINE
  5
3D8A
  8
0
 10
1457.0430692922871
 20
874.22665652010255
 30
0.0
 11
1452.3417234632391
 21
874.22665652010255
 31
0.0
  0
LINE
  5
3D8B
  8
0
 10
1451.337652522848
 20
894.22665652010267
 30
0.0
 11
1445.3417234632391
 21
894.22665652010267
 31
0.0
  0
LINE
  5
3D8C
  8
0
 10
1452.3417234632391
 20
884.72665652010255
 30
0.0
 11
1445.3417234632391
 21
884.72665652010255
 31
0.0
  0
ARC
  5
3D8D
  8
0
 10
1449.9823484632391
 20
889.47665652010255
 30
0.0
 40
6.6406249999998108
 50
134.33269164416549
 51
225.66730835583439
  0
LINE
  5
3D8E
  8
0
 10
1438.2417234632389
 20
888.22665652010255
 30
0.0
 11
1437.3417234632391
 21
889.12665652010276
 31
0.0
  0
LINE
  5
3D8F
  8
0
 10
1443.4604315371639
 20
888.22665652010255
 30
0.0
 11
1438.2417234632389
 21
888.22665652010255
 31
0.0
  0
LINE
  5
3D90
  8
0
 10
1437.3417234632391
 20
889.12665652010276
 30
0.0
 11
1443.350953407097
 21
889.12665652010276
 31
0.0
  0
LINE
  5
3D91
  8
0
 10
1438.2417234632389
 20
900.22665652010221
 30
0.0
 11
1437.3417234632391
 21
899.32665652010235
 31
0.0
  0
LINE
  5
3D92
  8
0
 10
1443.4604315371639
 20
900.22665652010221
 30
0.0
 11
1438.2417234632389
 21
900.22665652010221
 31
0.0
  0
LINE
  5
3D93
  8
0
 10
1437.3417234632391
 20
899.32665652010235
 30
0.0
 11
1443.350953407097
 21
899.32665652010235
 31
0.0
  0
LINE
  5
3D9A
  8
0
 10
1438.3417234632391
 20
1020.226656520102
 30
0.0
 11
1438.3417234632391
 21
1013.226656520102
 31
0.0
  0
ARC
  5
3D9B
  8
0
 10
1443.8417234632391
 20
1007.226656520102
 30
0.0
 40
6.0
 50
90.0
 51
180.0
  0
LINE
  5
3D9C
  8
0
 10
1433.3417234632391
 20
1034.2266565201021
 30
0.0
 11
1433.3417234632391
 21
1030.1846964116521
 31
0.0
  0
ARC
  5
3D9D
  8
0
 10
1433.3417234632391
 20
1027.1846964116521
 30
0.0
 40
3.0
 50
353.62062979155849
 51
90.0
  0
ARC
  5
3D9E
  8
0
 10
1442.2859953732379
 20
1026.1846964116521
 30
0.0
 40
6.0
 50
173.6206297915576
 51
270.0
  0
LINE
  5
3D9F
  8
0
 10
1436.3417234632391
 20
1027.1846964116521
 30
0.0
 11
1436.3417234632391
 21
1027.1846964116521
 31
0.0
  0
LINE
  5
3DA0
  8
0
 10
1438.3417234632391
 20
1020.226656520102
 30
0.0
 11
1441.7859953732379
 21
1020.226656520102
 31
0.0
  0
LINE
  5
3DA1
  8
0
 10
1514.6403776341849
 20
1005.226656520102
 30
0.0
 11
1514.6403776341849
 21
874.22665652010255
 31
0.0
  0
LINE
  5
3DA2
  8
0
 10
1533.8417234632341
 20
925.67984817102922
 30
0.0
 11
1533.8417234632341
 21
1007.226656520102
 31
0.0
  0
ARC
  5
3DA3
  8
0
 10
1484.8175030279981
 20
931.8560135993331
 30
0.0
 40
49.411731488386678
 50
325.21752765109909
 51
352.81959601363172
  0
ARC
  5
3DA4
  8
0
 10
1520.701098463232
 20
898.97665652010255
 30
0.0
 40
6.640624999999984
 50
314.33269164416549
 51
45.667308355839239
  0
LINE
  5
3DA5
  8
0
 10
1527.3417234632329
 20
898.97665652010255
 30
0.0
 11
1527.3417234632329
 21
889.47665652010255
 31
0.0
  0
LINE
  5
3DA6
  8
0
 10
1519.3417234632329
 20
889.85936212258423
 30
0.0
 11
1519.3417234632329
 21
874.22665652010255
 31
0.0
  0
LINE
  5
3DA7
  8
0
 10
1514.6403776341849
 20
874.22665652010255
 30
0.0
 11
1519.3417234632329
 21
874.22665652010255
 31
0.0
  0
LINE
  5
3DA8
  8
0
 10
1519.3417234632329
 20
884.72665652010255
 30
0.0
 11
1525.3417234632329
 21
884.72665652010255
 31
0.0
  0
LINE
  5
3DA9
  8
0
 10
1520.3457944036229
 20
894.22665652010255
 30
0.0
 11
1525.3417234632329
 21
894.22665652010267
 31
0.0
  0
ARC
  5
3DAA
  8
0
 10
1520.7010984632329
 20
889.47665652010255
 30
0.0
 40
6.6406249999998108
 50
314.33269164416549
 51
45.66730835583445
  0
ARC
  5
3DAC
  8
0
 10
1529.39745155324
 20
1026.1846964116521
 30
0.0
 40
6.0
 50
270.0
 51
6.3793702084423769
  0
ARC
  5
3DAD
  8
0
 10
1527.8417234632341
 20
1007.226656520102
 30
0.0
 40
6.0
 50
0.0
 51
89.999999999999872
  0
LINE
  5
3DAE
  8
0
 10
1533.3417234632391
 20
1020.226656520102
 30
0.0
 11
1533.3417234632391
 21
1013.226656520102
 31
0.0
  0
LINE
  5
3DAF
  8
0
 10
1533.3417234632391
 20
1020.226656520102
 30
0.0
 11
1529.89745155324
 21
1020.226656520102
 31
0.0
  0
LINE
  5
3DB0
  8
0
 10
1535.3417234632391
 20
1027.1846964116521
 30
0.0
 11
1535.3417234632391
 21
1027.1846964116521
 31
0.0
  0
ARC
  5
3DB1
  8
0
 10
1538.3417234632391
 20
1027.1846964116521
 30
0.0
 40
3.0
 50
90.0
 51
186.3793702084414
  0
LINE
  5
3DB2
  8
0
 10
1538.3417234632391
 20
1034.2266565201021
 30
0.0
 11
1538.3417234632391
 21
1030.1846964116521
 31
0.0
  0
LINE
  5
3DB3
  8
0
  6
CENTER
 10
1860.835706813014
 20
1039.2266565201021
 30
0.0
 11
1860.835706813014
 21
1008.226656520102
 31
0.0
  0
LINE
  5
3DB4
  8
0
  6
CENTER
 10
1938.335706813014
 20
1039.2266565201021
 30
0.0
 11
1938.335706813014
 21
1008.226656520102
 31
0.0
  0
LINE
  5
3DB5
  8
0
 10
1514.6403776341849
 20
1005.226656520102
 30
0.0
 11
1510.8417234632391
 21
1005.226656520102
 31
0.0
  0
LINE
  5
3DB6
  8
0
 10
1519.3417234632329
 20
1008.226656520102
 30
0.0
 11
1510.8417234632391
 21
1008.226656520103
 31
0.0
  0
LINE
  5
3DB7
  8
0
 10
1519.3417234632329
 20
1008.226656520102
 30
0.0
 11
1519.3417234632329
 21
874.22665652010255
 31
0.0
  0
LINE
  5
3DB8
  8
0
 10
1452.3417234632391
 20
903.72665652010255
 30
0.0
 11
1445.3417234632391
 21
903.72665652010255
 31
0.0
  0
LINE
  5
3DB9
  8
0
 10
1519.3417234632329
 20
903.72665652010289
 30
0.0
 11
1525.3417234632329
 21
903.72665652010289
 31
0.0
  0
LINE
  5
3DBA
  8
0
 10
1460.8417234632379
 20
908.72665652010255
 30
0.0
 11
1457.0430692922871
 21
908.72665652010255
 31
0.0
  0
LINE
  5
3DBB
  8
0
 10
1460.8417234632379
 20
879.72665652010267
 30
0.0
 11
1457.0430692922871
 21
879.72665652010255
 31
0.0
  0
LINE
  5
3DBC
  8
0
 10
1510.8417234632391
 20
908.72665652010255
 30
0.0
 11
1514.6403776341849
 21
908.72665652010255
 31
0.0
  0
LINE
  5
3DBD
  8
0
 10
1510.8417234632391
 20
879.72665652010267
 30
0.0
 11
1514.6403776341849
 21
879.72665652010255
 31
0.0
  0
LINE
  5
3DC0
  8
0
 10
1924.585706813014
 20
879.72665652010255
 30
0.0
 11
1926.5857068130081
 21
879.72665652010255
 31
0.0
  0
LINE
  5
3DC1
  8
0
 10
1924.585706813014
 20
908.72665652010255
 30
0.0
 11
1926.585706813009
 21
908.72665652010255
 31
0.0
  0
ARC
  5
3DC2
  8
0
 10
1482.428406046492
 20
944.4944574389657
 30
0.0
 40
56.865205474505231
 50
55.496130958631433
 51
60.993287277160732
  0
ARC
  5
3DC3
  8
0
 10
1484.786710767941
 20
943.06982650298437
 30
0.0
 40
58.196865879241642
 50
59.137654396268708
 51
63.403482470999357
  0
ARC
  5
3DC4
  8
0
 10
1486.896736158538
 20
943.06982650296129
 30
0.0
 40
58.196865879264728
 50
116.5965175289906
 51
120.86234560372679
  0
LINE
  5
3DC6
  8
0
  6
CENTER
 10
1524.5917234632391
 20
1039.2266565201021
 30
0.0
 11
1524.5917234632391
 21
1008.226656520103
 31
0.0
  0
LINE
  5
3DC7
  8
0
  6
CENTER
 10
1447.0917234632391
 20
1039.2266565201021
 30
0.0
 11
1447.0917234632391
 21
1008.226656520103
 31
0.0
  0
POLYLINE
  5
3DC8
  8
0
 66
     1
 10
0.0
 20
0.0
 30
0.0
 70
     1
  0
VERTEX
  5
4174
  8
0
 10
1347.231839994025
 20
1099.726149204422
 30
0.0
  0
VERTEX
  5
4175
  8
0
 10
1981.2843945609641
 20
1099.726149204422
 30
0.0
  0
VERTEX
  5
4176
  8
0
 10
1981.2843945609641
 20
576.39741201746051
 30
0.0
  0
VERTEX
  5
4177
  8
0
 10
1347.231839994025
 20
576.39741201746051
 30
0.0
  0
SEQEND
  5
4178
  8
0
  0
LINE
  5
3DC9
  8
0
 10
1790.0172372127729
 20
1000.226656520102
 30
0.0
 11
1789.213779259394
 21
991.53926739918916
 31
0.0
  0
LINE
  5
3DCA
  8
0
 10
1783.7370524383441
 20
984.673146252523
 30
0.0
 11
1721.6568153203909
 21
964.3472600956494
 31
0.0
  0
ARC
  5
3DCB
  8
0
 10
1724.4572517315039
 20
955.79404105792344
 30
0.0
 40
9.0
 50
108.12912734015551
 51
187.8938304808122
  0
ARC
  5
3DCC
  8
0
 10
1781.247775628467
 20
992.27600761939038
 30
0.0
 40
8.0
 50
288.12912734015538
 51
354.71599985802322
  0
LINE
  5
3DCD
  8
0
 10
1790.0172372127729
 20
1000.226656520102
 30
0.0
 11
1813.532961838278
 21
1014.936883024898
 31
0.0
  0
LINE
  5
3DCE
  8
0
 10
1789.6802204428491
 20
996.58266269530702
 30
0.0
 11
1815.0172372127729
 21
1012.329791424538
 31
0.0
  0
LINE
  5
3DCF
  8
0
 10
1813.532961838278
 20
1014.936883024898
 30
0.0
 11
1815.0172372127729
 21
1012.329791424538
 31
0.0
  0
CIRCLE
  5
3DD0
  8
0
 10
1724.0172372127729
 20
989.22665652010244
 30
0.0
 40
4.0
  0
LINE
  5
3DD1
  8
0
 10
1510.8417234632391
 20
1014.936883024898
 30
0.0
 11
1460.8417234632391
 21
1014.936883024898
 31
0.0
  0
LINE
  5
3DD2
  8
0
 10
1510.8417234632391
 20
1012.329791424538
 30
0.0
 11
1460.8417234632391
 21
1012.329791424538
 31
0.0
  0
LINE
  5
3DD3
  8
0
 10
1510.8417234632391
 20
1013.226656520102
 30
0.0
 11
1533.3417234632391
 21
1013.226656520102
 31
0.0
  0
LINE
  5
3DD4
  8
0
 10
1460.8417234632391
 20
1014.936883024898
 30
0.0
 11
1460.8417234632391
 21
994.22665652010426
 31
0.0
  0
LINE
  5
3DD5
  8
0
 10
1510.8417234632391
 20
1014.936883024898
 30
0.0
 11
1510.8417234632391
 21
994.22665652010301
 31
0.0
  0
LINE
  5
3DD6
  8
0
 10
1510.8417234632391
 20
996.58266269530679
 30
0.0
 11
1460.8417234632391
 21
996.58266269530702
 31
0.0
  0
LINE
  5
3DD7
  8
0
 10
1460.8417234632391
 20
1008.226656520102
 30
0.0
 11
1458.3417234632391
 21
1008.226656520103
 31
0.0
  0
LINE
  5
3DD8
  8
0
 10
1460.8417234632391
 20
1005.226656520102
 30
0.0
 11
1457.0430692922871
 21
1005.226656520102
 31
0.0
  0
ARC
  5
3DD9
  8
0
 10
1458.3417234632391
 20
1002.226656520103
 30
0.0
 40
6.0
 50
90.000000000001521
 51
180.0
  0
LINE
  5
3DDA
  8
0
 10
1510.8417234632391
 20
994.22665652010301
 30
0.0
 11
1460.8417234632391
 21
994.22665652010448
 31
0.0
  0
LINE
  5
3DDC
  8
0
 10
1490.8417234632391
 20
985.26665440904992
 30
0.0
 11
1480.84172346324
 21
985.26665440904958
 31
0.0
  0
LINE
  5
3DDD
  8
0
 10
1477.84172346324
 20
994.22665652010335
 30
0.0
 11
1477.84172346324
 21
988.26665440904947
 31
0.0
  0
ARC
  5
3DDE
  8
0
 10
1480.84172346324
 20
988.26665440904947
 30
0.0
 40
3.0
 50
180.0
 51
270.0000000000004
  0
ARC
  5
3DDF
  8
0
 10
1490.8417234632391
 20
988.26665440904992
 30
0.0
 40
3.0
 50
270.00000000000102
 51
0.0
  0
LINE
  5
3DE0
  8
0
  6
CENTER
 10
1907.585706813014
 20
1000.43669550291
 30
0.0
 11
1907.585706813014
 21
994.03599645465124
 31
0.0
  0
LINE
  5
3DE1
  8
0
  6
CENTER
 10
1891.585706813014
 20
1000.436695502911
 30
0.0
 11
1891.585706813014
 21
994.03599645465124
 31
0.0
  0
LINE
  5
3DE2
  8
0
 10
1720.0172372127729
 20
684.39908950136885
 30
0.0
 11
1786.017237212772
 21
684.39908950136885
 31
0.0
  0
LINE
  5
3DE3
  8
0
 10
1790.0172372127729
 20
680.39908950136885
 30
0.0
 11
1790.0172372127729
 21
621.39908950136896
 31
0.0
  0
LINE
  5
3DE4
  8
0
 10
1720.0172372127729
 20
617.39908950136896
 30
0.0
 11
1786.017237212772
 21
617.39908950136896
 31
0.0
  0
ARC
  5
3DE5
  8
0
 10
1786.017237212772
 20
621.39908950136896
 30
0.0
 40
4.0
 50
270.0
 51
0.0
  0
ARC
  5
3DE6
  8
0
 10
1786.017237212772
 20
680.39908950136885
 30
0.0
 40
4.0
 50
0.0
 51
90.0
  0
LINE
  5
3DE7
  8
0
 10
1790.0172372127729
 20
675.89908950136885
 30
0.0
 11
1812.7321933727219
 21
675.89908950136874
 31
0.0
  0
LINE
  5
3DE8
  8
0
 10
1790.0172372127729
 20
625.89908950136885
 30
0.0
 11
1812.7321933727219
 21
625.89908950136919
 31
0.0
  0
ARC
  5
3DE9
  8
0
 10
1677.1158511857391
 20
650.89908950136885
 30
0.0
 40
137.9013860270332
 50
349.55515243580481
 51
10.44484756419512
  0
LINE
  5
3DEA
  8
0
 10
1782.017237212772
 20
663.39908950136885
 30
0.0
 11
1782.0172372127729
 21
638.39908950136896
 31
0.0
  0
LINE
  5
3DEB
  8
0
 10
1752.5172372127729
 20
663.39908950136885
 30
0.0
 11
1782.0172372127729
 21
663.39908950136885
 31
0.0
  0
LINE
  5
3DEC
  8
0
 10
1756.0172372127729
 20
663.39908950136885
 30
0.0
 11
1756.0172372127729
 21
638.39908950136896
 31
0.0
  0
LINE
  5
3DED
  8
0
 10
1752.5172372127729
 20
638.39908950136885
 30
0.0
 11
1782.0172372127729
 21
638.39908950136885
 31
0.0
  0
LINE
  5
3DEE
  8
0
 10
1745.749900007819
 20
667.39908950136885
 30
0.0
 11
1750.0172372127729
 21
667.39908950136896
 31
0.0
  0
LINE
  5
3DEF
  8
0
 10
1752.5172372127729
 20
664.89908950136908
 30
0.0
 11
1752.5172372127729
 21
663.39908950136885
 31
0.0
  0
LINE
  5
3DF0
  8
0
 10
1745.749900007819
 20
634.39908950136885
 30
0.0
 11
1750.017237212772
 21
634.39908950136885
 31
0.0
  0
ARC
  5
3DF1
  8
0
 10
1879.1422372127729
 20
650.89908950136794
 30
0.0
 40
136.6250000000002
 50
174.0085391470943
 51
185.99146085290479
  0
ARC
  5
3DF2
  8
0
 10
1750.0172372127729
 20
664.89908950136908
 30
0.0
 40
2.5
 50
359.9999999999996
 51
90.000000000000725
  0
ARC
  5
3DF3
  8
0
 10
1750.017237212772
 20
636.89908950136885
 30
0.0
 40
2.5
 50
269.9999999999992
 51
359.9999999999996
  0
ARC
  5
3DF4
  8
0
 10
1745.749900007819
 20
636.89908950136885
 30
0.0
 40
2.5
 50
185.99146085290579
 51
270.0
  0
ARC
  5
3DF5
  8
0
 10
1745.749900007819
 20
664.89908950136885
 30
0.0
 40
2.5
 50
90.0
 51
174.0085391470941
  0
LINE
  5
3DF6
  8
0
 10
1752.517237212772
 20
638.39908950136896
 30
0.0
 11
1752.517237212772
 21
636.89908950136885
 31
0.0
  0
LINE
  5
3E3C
  8
0
 10
1720.7328468243311
 20
881.63236725210345
 30
0.0
 11
1743.832148839316
 21
858.53306523711831
 31
0.0
  0
LINE
  5
3E3D
  8
0
 10
1719.0171382581409
 20
879.10543513117454
 30
0.0
 11
1741.710828495756
 21
856.41174489355853
 31
0.0
  0
LINE
  5
3E3E
  8
0
 10
1724.9315150503739
 20
895.72665652010255
 30
0.0
 11
1757.995598094971
 21
895.72665652010255
 31
0.0
  0
LINE
  5
3E3F
  8
0
 10
1724.402534108249
 20
892.72665652010255
 30
0.0
 11
1757.995598094971
 21
892.7266565201021
 31
0.0
  0
LINE
  5
3E40
  8
0
 10
1719.8141939839079
 20
910.14493363479755
 30
0.0
 11
1741.7108284957569
 21
932.04156814664623
 31
0.0
  0
LINE
  5
3E41
  8
0
 10
1720.0782654934719
 20
906.16636445724191
 30
0.0
 11
1743.8321488393169
 21
929.92024780308623
 31
0.0
  0
LINE
  5
3E46
  8
0
 10
1680.824616381979
 20
892.72665652010278
 30
0.0
 11
1654.038876330575
 21
892.72665652010278
 31
0.0
  0
LINE
  5
3E47
  8
0
 10
1678.6342845032809
 20
895.72665652010289
 30
0.0
 11
1654.038876330575
 21
895.72665652010335
 31
0.0
  0
LINE
  5
3E48
  8
0
 10
1692.40275753678
 20
878.49085650055076
 30
0.0
 11
1670.323645929788
 21
856.41174489355899
 31
0.0
  0
LINE
  5
3E49
  8
0
 10
1689.9836558301049
 20
880.31439548099502
 30
0.0
 11
1668.202325586228
 21
858.53306523711865
 31
0.0
  0
LINE
  5
3E8B
  8
0
 10
1506.8417234632391
 20
976.72665652010255
 30
0.0
 11
1501.2112394313849
 21
991.54050522018372
 31
0.0
  0
LINE
  5
3E8C
  8
0
 10
1464.8417234632391
 20
976.72665652010255
 30
0.0
 11
1470.472207495093
 21
991.54050522018372
 31
0.0
  0
ARC
  5
3E91
  8
0
 10
1499.3417234632391
 20
990.82993499504823
 30
0.0
 40
2.0
 50
0.0
 51
71.337075115057672
  0
ARC
  5
3E92
  8
0
 10
1490.8417234632391
 20
965.66415652010335
 30
0.0
 40
28.562499999999361
 50
71.337075115057104
 51
74.77667240763131
  0
ARC
  5
3E94
  8
0
 10
1464.8417234632379
 20
972.72665652010255
 30
0.0
 40
4.0
 50
90.000000000000028
 51
180.0
  0
ARC
  5
3E95
  8
0
 10
1506.8417234632391
 20
972.72665652010255
 30
0.0
 40
4.0
 50
359.99999999999989
 51
90.000000000000028
  0
LINE
  5
3E96
  8
0
 10
1493.8417234632379
 20
994.22665652010335
 30
0.0
 11
1493.8417234632379
 21
988.26665440904947
 31
0.0
  0
ARC
  5
3ED8
  8
0
 10
1489.2550408799859
 20
944.4944574389657
 30
0.0
 40
56.865205474505231
 50
119.0067127228392
 51
124.5038690413685
  0
ARC
  5
3ED9
  8
0
 10
1485.8417234632391
 20
826.29334780958902
 30
0.0
 40
167.9333087105137
 50
87.098715450971326
 51
87.269512615466411
  0
ARC
  5
3EDC
  8
0
 10
1473.8667027950521
 20
1001.11468589171
 30
0.0
 40
7.9077424500286071
 50
266.19344722992321
 51
296.06849780080393
  0
ARC
  5
3EDF
  8
0
 10
1497.816744131426
 20
1001.11468589171
 30
0.0
 40
7.9077424500286071
 50
243.93150219919599
 51
273.80655277007668
  0
ARC
  5
3EE0
  8
0
 10
1485.8417234632391
 20
826.29334780958902
 30
0.0
 40
167.9333087105137
 50
92.730487384533518
 51
92.901284549028702
  0
ARC
  5
3EE1
  8
0
 10
1472.3417234632391
 20
990.82993499504823
 30
0.0
 40
2.0
 50
108.6629248849423
 51
180.0
  0
ARC
  5
3EE2
  8
0
 10
1480.8417234632391
 20
965.66415652010335
 30
0.0
 40
28.562499999999361
 50
105.22332759236861
 51
108.6629248849428
  0
LINE
  5
3F24
  8
0
 10
1874.5857068130149
 20
815.72665652010255
 30
0.0
 11
1874.585706813014
 21
972.72665652010221
 31
0.0
  0
LINE
  5
3F25
  8
0
 10
1924.5857068130149
 20
815.72665652010255
 30
0.0
 11
1924.5857068130149
 21
972.72665652010221
 31
0.0
  0
LINE
  5
3F26
  8
0
 10
1884.0857068130149
 20
990.82993499504801
 30
0.0
 11
1884.0857068130149
 21
797.2561123556053
 31
0.0
  0
LINE
  5
3F27
  8
0
 10
1878.585706813014
 20
976.72665652010232
 30
0.0
 11
1878.5857068130149
 21
811.72665652010255
 31
0.0
  0
LINE
  5
3F28
  8
0
 10
1915.0857068130149
 20
990.82993499504778
 30
0.0
 11
1915.0857068130149
 21
797.25611235560518
 31
0.0
  0
LINE
  5
3F29
  8
0
 10
1920.5857068130149
 20
976.72665652010232
 30
0.0
 11
1920.5857068130149
 21
811.72665652010255
 31
0.0
  0
LINE
  5
3F2A
  8
0
 10
1884.0857068130149
 20
990.82993499504778
 30
0.0
 11
1884.0857068130149
 21
797.25611235560518
 31
0.0
  0
LINE
  5
3F2B
  8
0
 10
1912.085706813014
 20
993.22438885312181
 30
0.0
 11
1912.0857068130149
 21
795.22892418708318
 31
0.0
  0
LINE
  5
3F2C
  8
0
 10
1908.085706813014
 20
994.01140341023267
 30
0.0
 11
1908.085706813014
 21
794.44190962997197
 31
0.0
  0
LINE
  5
3F2D
  8
0
 10
1891.0857068130149
 20
994.0114034102329
 30
0.0
 11
1891.085706813014
 21
794.44190962997209
 31
0.0
  0
LINE
  5
3F2E
  8
0
 10
1887.0857068130149
 20
993.22438885312181
 30
0.0
 11
1887.085706813014
 21
795.22892418708318
 31
0.0
  0
LINE
  5
3F2F
  8
0
 10
1920.5857068130149
 20
811.72665652010244
 30
0.0
 11
1914.95522278116
 21
796.91280782002127
 31
0.0
  0
LINE
  5
3F30
  8
0
 10
1878.5857068130149
 20
811.72665652010244
 30
0.0
 11
1884.2161908448691
 21
796.91280782002127
 31
0.0
  0
ARC
  5
3F31
  8
0
 10
1899.5857068130149
 20
962.15996523061597
 30
0.0
 40
167.9333087105137
 50
267.09871545097133
 51
272.90128454902862
  0
ARC
  5
3F32
  8
0
 10
1886.0857068130149
 20
797.62337804515676
 30
0.0
 40
2.0
 50
180.0
 51
251.3370751150587
  0
ARC
  5
3F33
  8
0
 10
1894.585706813014
 20
822.78915652010176
 30
0.0
 40
28.562499999999361
 50
251.3370751150581
 51
254.7766724076304
  0
ARC
  5
3F34
  8
0
 10
1887.6106861448279
 20
787.33862714849499
 30
0.0
 40
7.9077424500286071
 50
63.931502199196089
 51
93.806552770076735
  0
ARC
  5
3F35
  8
0
 10
1913.0857068130149
 20
797.62337804515676
 30
0.0
 40
2.0
 50
288.6629248849423
 51
0.0
  0
ARC
  5
3F36
  8
0
 10
1904.585706813014
 20
822.78915652010176
 30
0.0
 40
28.562499999999361
 50
285.2233275923694
 51
288.66292488494292
  0
ARC
  5
3F37
  8
0
 10
1911.560727481201
 20
787.33862714849499
 30
0.0
 40
7.9077424500286071
 50
86.193447229923294
 51
116.0684978008039
  0
ARC
  5
3F38
  8
0
 10
1878.585706813014
 20
815.72665652010255
 30
0.0
 40
4.0
 50
179.99999999999989
 51
270.0
  0
ARC
  5
3F39
  8
0
 10
1920.5857068130149
 20
815.72665652010255
 30
0.0
 40
4.0
 50
270.0
 51
0.0000000000000649
  0
LINE
  5
3F3A
  8
0
 10
1920.5857068130149
 20
976.72665652010278
 30
0.0
 11
1914.95522278116
 21
991.54050522018395
 31
0.0
  0
LINE
  5
3F3B
  8
0
 10
1878.5857068130149
 20
976.72665652010278
 30
0.0
 11
1884.2161908448691
 21
991.54050522018395
 31
0.0
  0
ARC
  5
3F3C
  8
0
 10
1899.5857068130149
 20
826.29334780958925
 30
0.0
 40
167.9333087105137
 50
87.098715450971326
 51
92.901284549028702
  0
ARC
  5
3F3D
  8
0
 10
1886.0857068130149
 20
990.82993499504846
 30
0.0
 40
2.0
 50
108.66292488494121
 51
180.0
  0
ARC
  5
3F3E
  8
0
 10
1894.585706813014
 20
965.66415652010357
 30
0.0
 40
28.562499999999361
 50
105.2233275923695
 51
108.6629248849418
  0
ARC
  5
3F3F
  8
0
 10
1887.6106861448279
 20
1001.11468589171
 30
0.0
 40
7.9077424500286071
 50
266.19344722992321
 51
296.06849780080393
  0
ARC
  5
3F40
  8
0
 10
1913.0857068130149
 20
990.82993499504835
 30
0.0
 40
2.0
 50
0.0
 51
71.337075115057672
  0
ARC
  5
3F41
  8
0
 10
1904.585706813014
 20
965.66415652010357
 30
0.0
 40
28.562499999999361
 50
71.337075115057104
 51
74.776672407630485
  0
ARC
  5
3F42
  8
0
 10
1911.560727481201
 20
1001.11468589171
 30
0.0
 40
7.9077424500286071
 50
243.93150219919599
 51
273.80655277007668
  0
ARC
  5
3F43
  8
0
 10
1878.585706813014
 20
972.72665652010267
 30
0.0
 40
4.0
 50
90.000000000000028
 51
180.0
  0
ARC
  5
3F44
  8
0
 10
1920.5857068130149
 20
972.72665652010267
 30
0.0
 40
4.0
 50
359.99999999999989
 51
90.000000000000028
  0
LINE
  5
3FC6
  8
0
 10
1926.5857068130099
 20
992.55198732742679
 30
0.0
 11
1926.5857068130081
 21
874.22665652010255
 31
0.0
  0
LINE
  5
3FCA
  8
0
 10
1874.585706813014
 20
879.72665652010255
 30
0.0
 11
1872.585706813021
 21
879.72665652010255
 31
0.0
  0
LINE
  5
3FCB
  8
0
 10
1874.585706813014
 20
908.72665652010255
 30
0.0
 11
1872.5857068130199
 21
908.72665652010255
 31
0.0
  0
LINE
  5
3FCC
  8
0
 10
1872.585706813019
 20
992.55198732742679
 30
0.0
 11
1872.585706813021
 21
874.22665652010255
 31
0.0
  0
LINE
  5
400D
  8
0
 10
1876.585706813019
 20
995.03420301435858
 30
0.0
 11
1876.5857068130199
 21
982.28023224803201
 31
0.0
  0
LINE
  5
400E
  8
0
 10
1922.585706813009
 20
995.03420301435858
 30
0.0
 11
1922.585706813009
 21
982.28023224803201
 31
0.0
  0
LINE
  5
400F
  8
0
 10
1922.585706813009
 20
982.28023224803201
 30
0.0
 11
1926.5857068130099
 21
982.28023224803201
 31
0.0
  0
LINE
  5
4010
  8
0
 10
1876.5857068130199
 20
982.28023224803201
 30
0.0
 11
1872.585706813019
 21
982.28023224803201
 31
0.0
  0
LINE
  5
4011
  8
0
 10
1461.0430692922871
 20
982.28023224803223
 30
0.0
 11
1457.0430692922871
 21
982.28023224803201
 31
0.0
  0
LINE
  5
4012
  8
0
 10
1461.0430692922871
 20
993.86789415135718
 30
0.0
 11
1461.0430692922871
 21
982.28023224803201
 31
0.0
  0
LINE
  5
4013
  8
0
 10
1510.6403776341911
 20
982.28023224803223
 30
0.0
 11
1514.6403776341911
 21
982.28023224803201
 31
0.0
  0
LINE
  5
4014
  8
0
 10
1510.6403776341911
 20
993.86789415135718
 30
0.0
 11
1510.6403776341911
 21
982.28023224803201
 31
0.0
  0
LINE
  5
4072
  8
0
 10
1149.542596807408
 20
972.10198050299732
 30
0.0
 11
1149.542596807408
 21
959.53081877331431
 31
0.0
  0
LINE
  5
4073
  8
0
 10
1148.542596807408
 20
959.53081877331431
 30
0.0
 11
1149.542596807408
 21
959.53081877331454
 31
0.0
  0
LINE
  5
4074
  8
0
 10
1200.1399051492999
 20
972.10198050299732
 30
0.0
 11
1200.1399051492999
 21
959.53081877331431
 31
0.0
  0
LINE
  5
4075
  8
0
 10
1201.139905149299
 20
959.53081877331431
 30
0.0
 11
1200.1399051492999
 21
959.53081877331454
 31
0.0
  0
VIEWPORT
  5
8D
 67
     1
  8
0
 10
143.47825622558591
 20
99.980751991271987
 30
0.0
 40
339.12752973873143
 41
222.1965796813964
 68
     1
 69
     1
1001
ACAD
1000
MVIEW
1002
{
1070
    16
1010
0.0
1020
0.0
1030
0.0
1010
0.0
1020
0.0
1030
1.0
1040
0.0
1040
222.1965796813964
1040
143.47825622558591
1040
99.980751991271987
1040
50.0
1040
0.0
1040
0.0
1070
     0
1070
   100
1070
     1
1070
     1
1070
     0
1070
     0
1070
     0
1070
     0
1040
0.0
1040
0.0
1040
0.0
1040
10.0
1040
10.0
1040
10.0
1040
10.0
1070
     0
1002
{
1002
}
1002
}
  0
VIEWPORT
  5
8F
 67
     1
  8
0
 10
143.37242841720581
 20
99.874916553497314
 30
0.0
 40
229.3958854675293
 41
159.79986648559569
 68
     2
 69
     2
1001
ACAD
1000
MVIEW
1002
{
1070
    16
1010
0.0
1020
0.0
1030
0.0
1010
0.0
1020
0.0
1030
1.0
1040
0.0
1040
300.10452961672468
1040
210.0
1040
148.5
1040
50.0
1040
0.0
1040
0.0
1070
     0
1070
   100
1070
     1
1070
     2
1070
     0
1070
     0
1070
     0
1070
     0
1040
0.0
1040
0.0
1040
0.0
1040
10.0
1040
10.0
1040
10.0
1040
10.0
1070
     0
1002
{
1002
}
1002
}
  0
ENDSEC
  0
EOF
