  0
SECTION
  2
HEADER
  9
$ACADVER
  1
AC1009
  9
$INSBASE
 10
0.0
 20
0.0
 30
0.0
  9
$EXTMIN
 10
-667.2447329632904
 20
626.17833629910126
 30
-0.0015258207003583
  9
$EXTMAX
 10
779.49404099793446
 20
970.68157680187949
 30
0.0000000349246037
  9
$LIMMIN
 10
0.0
 20
0.0
  9
$LIMMAX
 10
420.0
 20
297.0
  9
$ORTHOMODE
 70
     1
  9
$REGENMODE
 70
     1
  9
$FILLMODE
 70
     1
  9
$QTEXTMODE
 70
     0
  9
$MIRRTEXT
 70
     1
  9
$DRAGMODE
 70
     2
  9
$LTSCALE
 40
1.0
  9
$OSMODE
 70
    40
  9
$ATTMODE
 70
     1
  9
$TEXTSIZE
 40
2.5
  9
$TRACEWID
 40
1.0
  9
$TEXTSTYLE
  7
STANDARD
  9
$CLAYER
  8
0
  9
$CELTYPE
  6
BYLAYER
  9
$CECOLOR
 62
   256
  9
$DIMSCALE
 40
1.0
  9
$DIMASZ
 40
2.5
  9
$DIMEXO
 40
0.625
  9
$DIMDLI
 40
3.75
  9
$DIMRND
 40
0.0
  9
$DIMDLE
 40
0.0
  9
$DIMEXE
 40
1.25
  9
$DIMTP
 40
0.0
  9
$DIMTM
 40
0.0
  9
$DIMTXT
 40
2.5
  9
$DIMCEN
 40
2.5
  9
$DIMTSZ
 40
0.0
  9
$DIMTOL
 70
     0
  9
$DIMLIM
 70
     0
  9
$DIMTIH
 70
     1
  9
$DIMTOH
 70
     1
  9
$DIMSE1
 70
     0
  9
$DIMSE2
 70
     0
  9
$DIMTAD
 70
     1
  9
$DIMZIN
 70
     8
  9
$DIMBLK
  1

  9
$DIMASO
 70
     1
  9
$DIMSHO
 70
     1
  9
$DIMPOST
  1

  9
$DIMAPOST
  1

  9
$DIMALT
 70
     0
  9
$DIMALTD
 70
     3
  9
$DIMALTF
 40
0.03937007874016
  9
$DIMLFAC
 40
1.0
  9
$DIMTOFL
 70
     1
  9
$DIMTVP
 40
0.0
  9
$DIMTIX
 70
     0
  9
$DIMSOXD
 70
     0
  9
$DIMSAH
 70
     0
  9
$DIMBLK1
  1

  9
$DIMBLK2
  1

  9
$DIMSTYLE
  2
ISO-25
  9
$DIMCLRD
 70
     0
  9
$DIMCLRE
 70
     0
  9
$DIMCLRT
 70
     0
  9
$DIMTFAC
 40
1.0
  9
$DIMGAP
 40
0.625
  9
$LUNITS
 70
     2
  9
$LUPREC
 70
     4
  9
$SKETCHINC
 40
1.0
  9
$FILLETRAD
 40
6.0
  9
$AUNITS
 70
     0
  9
$AUPREC
 70
     0
  9
$MENU
  1
.
  9
$ELEVATION
 40
0.0
  9
$PELEVATION
 40
0.0
  9
$THICKNESS
 40
0.0
  9
$LIMCHECK
 70
     0
  9
$BLIPMODE
 70
     0
  9
$CHAMFERA
 40
0.5
  9
$CHAMFERB
 40
0.5
  9
$SKPOLY
 70
     0
  9
$TDCREATE
 40
2453692.5269630789
  9
$TDUPDATE
 40
2453696.4762293282
  9
$TDINDWG
 40
1.0213318171000001
  9
$TDUSRTIMER
 40
1.0213317014000001
  9
$USRTIMER
 70
     1
  9
$ANGBASE
 50
0.0
  9
$ANGDIR
 70
     0
  9
$PDMODE
 70
     3
  9
$PDSIZE
 40
2.0
  9
$PLINEWID
 40
0.0
  9
$COORDS
 70
     0
  9
$SPLFRAME
 70
     0
  9
$SPLINETYPE
 70
     6
  9
$SPLINESEGS
 70
     8
  9
$ATTDIA
 70
     0
  9
$ATTREQ
 70
     1
  9
$HANDLING
 70
-16383
  9
$HANDSEED
  5
1E50
  9
$SURFTAB1
 70
     6
  9
$SURFTAB2
 70
     6
  9
$SURFTYPE
 70
     6
  9
$SURFU
 70
     6
  9
$SURFV
 70
     6
  9
$UCSNAME
  2

  9
$UCSORG
 10
-579.29072134070861
 20
631.42125299352665
 30
0.0
  9
$UCSXDIR
 10
1.0
 20
0.0
 30
0.0
  9
$UCSYDIR
 10
0.0
 20
1.0
 30
0.0
  9
$PUCSNAME
  2

  9
$PUCSORG
 10
0.0
 20
0.0
 30
0.0
  9
$PUCSXDIR
 10
1.0
 20
0.0
 30
0.0
  9
$PUCSYDIR
 10
0.0
 20
1.0
 30
0.0
  9
$USERI1
 70
     0
  9
$USERI2
 70
     0
  9
$USERI3
 70
     0
  9
$USERI4
 70
     0
  9
$USERI5
 70
     0
  9
$USERR1
 40
0.0
  9
$USERR2
 40
0.0
  9
$USERR3
 40
0.0
  9
$USERR4
 40
0.0
  9
$USERR5
 40
0.0
  9
$WORLDVIEW
 70
     1
  9
$SHADEDGE
 70
     3
  9
$SHADEDIF
 70
    70
  9
$TILEMODE
 70
     1
  9
$MAXACTVP
 70
    48
  9
$PLIMCHECK
 70
     0
  9
$PEXTMIN
 10
28.674485683441159
 20
19.97498331069945
 30
0.0
  9
$PEXTMAX
 10
258.0703711509704
 20
179.77484979629509
 30
0.0
  9
$PLIMMIN
 10
-5.027069091796875
 20
-5.0270833969116211
  9
$PLIMMAX
 10
291.98358154296869
 20
204.98858737945551
  9
$UNITMODE
 70
     0
  9
$VISRETAIN
 70
     1
  9
$PLINEGEN
 70
     0
  9
$PSLTSCALE
 70
     1
  0
ENDSEC
  0
SECTION
  2
TABLES
  0
TABLE
  2
VPORT
 70
     5
  0
VPORT
  2
*ACTIVE
 70
     0
 10
0.0
 20
0.0
 11
1.0
 21
1.0
 12
56.124654017321973
 22
798.4299565504906
 13
0.0
 23
0.0
 14
10.0
 24
10.0
 15
10.0
 25
10.0
 16
0.0
 26
0.0
 36
1.0
 17
0.0
 27
0.0
 37
0.0
 40
951.36568048677555
 41
1.5281602002503121
 42
50.0
 43
0.0
 44
0.0
 50
0.0
 51
0.0
 71
     0
 72
   100
 73
     1
 74
     2
 75
     0
 76
     0
 77
     0
 78
     1
  0
ENDTAB
  0
TABLE
  2
LTYPE
 70
     2
  0
LTYPE
  2
CONTINUOUS
 70
     0
  3
Solid line
 72
    65
 73
     0
 40
0.0
  0
LTYPE
  2
CENTER
 70
     0
  3
Center (.5x) ___ _ ___ _ ___ _ ___ _ ___ _ ___
 72
    65
 73
     4
 40
28.574999999999989
 49
19.050000000000001
 49
-3.1749999999999989
 49
3.1749999999999989
 49
-3.1749999999999989
  0
ENDTAB
  0
TABLE
  2
LAYER
 70
     1
  0
LAYER
  2
0
 70
     0
 62
     7
  6
CONTINUOUS
  0
ENDTAB
  0
TABLE
  2
STYLE
 70
     1
  0
STYLE
  2
STANDARD
 70
     0
 40
0.0
 41
1.0
 50
0.0
 71
     0
 42
2.5
  3
txt
  4

  0
ENDTAB
  0
TABLE
  2
VIEW
 70
     0
  0
ENDTAB
  0
TABLE
  2
UCS
 70
     0
  0
ENDTAB
  0
TABLE
  2
APPID
 70
     1
  0
APPID
  2
ACAD
 70
     0
  0
ENDTAB
  0
TABLE
  2
DIMSTYLE
 70
     1
  0
DIMSTYLE
  2
ISO-25
 70
     0
  3

  4

  5

  6

  7

 40
1.0
 41
2.5
 42
0.625
 43
3.75
 44
1.25
 45
0.0
 46
0.0
 47
0.0
 48
0.0
140
2.5
141
2.5
142
0.0
143
0.03937007874016
144
1.0
145
0.0
146
1.0
147
0.625
 71
     0
 72
     0
 73
     1
 74
     1
 75
     0
 76
     0
 77
     1
 78
     8
170
     0
171
     3
172
     1
173
     0
174
     0
175
     0
176
     0
177
     0
178
     0
  0
ENDTAB
  0
ENDSEC
  0
SECTION
  2
BLOCKS
  0
BLOCK
  8
0
  2
$MODEL_SPACE
 70
     0
 10
0.0
 20
0.0
 30
0.0
  3
$MODEL_SPACE
  1

  0
ENDBLK
  5
21
  8
0
  0
BLOCK
 67
     1
  8
0
  2
$PAPER_SPACE
 70
     0
 10
0.0
 20
0.0
 30
0.0
  3
$PAPER_SPACE
  1

  0
ENDBLK
  5
53
 67
     1
  8
0
  0
ENDSEC
  0
SECTION
  2
ENTITIES
  0
ARC
  5
147
  8
0
 10
-191.5923864445522
 20
782.68284184022571
 30
0.0
 40
50.0
 50
153.04261096977089
 51
80.480011836113377
  0
POLYLINE
  5
148
  8
0
 66
     1
 10
0.0
 20
0.0
 30
0.0
 70
     1
  0
VERTEX
  5
1E17
  8
0
 10
-195.34516319428479
 20
789.18284184022571
 30
0.0
  0
VERTEX
  5
1E18
  8
0
 10
-199.09793994401741
 20
782.68284184022571
 30
0.0
  0
VERTEX
  5
1E19
  8
0
 10
-195.34516319428479
 20
776.18284184022571
 30
0.0
  0
VERTEX
  5
1E1A
  8
0
 10
-187.8396096948197
 20
776.18284184022571
 30
0.0
  0
VERTEX
  5
1E1B
  8
0
 10
-184.08683294508711
 20
782.68284184022571
 30
0.0
  0
VERTEX
  5
1E1C
  8
0
 10
-187.8396096948197
 20
789.18284184022571
 30
0.0
  0
SEQEND
  5
1E1D
  8
0
  0
CIRCLE
  5
149
  8
0
 10
-191.5923864445522
 20
782.68284184022571
 30
0.0
 40
6.5
  0
ARC
  5
14A
  8
0
 10
-193.49885383830679
 20
781.95186648901881
 30
0.0
 40
13.0
 50
225.6379573356578
 51
349.22731283228251
  0
LINE
  5
14C
  8
0
  6
CENTER
 10
-191.5923864445522
 20
729.68284184022571
 30
0.0
 11
-191.5923864445522
 21
835.68284184022559
 31
0.0
  0
LINE
  5
155
  8
0
 10
-257.97006931832527
 20
853.93284184022571
 30
0.0
 11
-201.5923864445522
 21
853.93284184022559
 31
0.0
  0
LINE
  5
158
  8
0
 10
-259.59238644455229
 20
848.68284184022548
 30
0.0
 11
-259.46928223422299
 21
852.48142818404472
 31
0.0
  0
LINE
  5
159
  8
0
 10
-259.59238644455229
 20
848.68284184022548
 30
0.0
 11
-256.16265254797361
 21
837.68284184022559
 31
0.0
  0
ARC
  5
15A
  8
0
 10
-99.146873884587336
 20
912.46585383634965
 30
0.0
 40
173.91507592063991
 50
205.46738840009189
 51
233.50295153760351
  0
LINE
  5
15B
  8
0
 10
-201.5923864445522
 20
853.93284184022559
 30
0.0
 11
-185.09238644455229
 21
853.05898589983235
 31
0.0
  0
ARC
  5
15C
  8
0
 10
-191.5923864445522
 20
782.68284184022571
 30
0.0
 40
38.0
 50
160.90537251866149
 51
75.089587721367636
  0
ARC
  5
15D
  8
0
 10
-191.5923864445522
 20
782.68284184022571
 30
0.0
 40
45.0
 50
155.92557155682951
 51
78.51286775117218
  0
ARC
  5
15E
  8
0
 10
-191.5923864445522
 20
782.68284184022571
 30
0.0
 40
36.0
 50
162.6184048252081
 51
73.908893530428031
  0
LINE
  5
15F
  8
0
 10
-185.09238644455229
 20
853.05898589983235
 30
0.0
 11
-185.09238644455229
 21
850.55548227499924
 31
0.0
  0
LINE
  5
160
  8
0
 10
-186.59238644455229
 20
853.13842734895911
 30
0.0
 11
-186.59238644455229
 21
850.63492372412588
 31
0.0
  0
LINE
  5
161
  8
0
 10
-186.59238644455229
 20
850.63492372412588
 30
0.0
 11
-185.09238644455229
 21
850.55548227499924
 31
0.0
  0
ARC
  5
162
  8
0
 10
-470.85839604233553
 20
791.16746460486581
 30
0.0
 40
290.4195980073448
 50
357.84936409849178
 51
11.815680265872681
  0
ARC
  5
163
  8
0
 10
-185.63984212971181
 20
780.45656218414786
 30
0.0
 40
5.0
 50
349.22731283228251
 51
357.84936409849018
  0
LINE
  5
164
  8
0
 10
-205.43879803499061
 20
781.18626770933406
 30
0.0
 11
-205.43879803499061
 21
848.93284184022571
 31
0.0
  0
LINE
  5
165
  8
0
 10
-211.93879803499061
 20
786.72689917342404
 30
0.0
 11
-211.9387980349905
 21
848.93284184022548
 31
0.0
  0
LINE
  5
166
  8
0
  6
CENTER
 10
-244.5923864445522
 20
782.68284184022571
 30
0.0
 11
-138.5923864445522
 21
782.68284184022571
 31
0.0
  0
LINE
  5
167
  8
0
  6
CENTER
 10
-265.59238644455218
 20
662.20868028091991
 30
0.0
 11
-138.5923864445522
 21
662.20868028091991
 31
0.0
  0
LINE
  5
168
  8
0
  6
CENTER
 10
-229.59238644455229
 20
695.20868028091991
 30
0.0
 11
-229.59238644455229
 21
629.20868028091979
 31
0.0
  0
ARC
  5
16A
  8
0
 10
-325.9257197778835
 20
662.20868028091979
 30
0.0
 40
140.83333333333121
 50
351.98387862436857
 51
8.0161213756313785
  0
ARC
  5
16B
  8
0
 10
-187.45871608707441
 20
681.70868028091991
 30
0.0
 40
1.0
 50
8.0161213756313785
 51
90.0
  0
LINE
  5
16C
  8
0
 10
-191.0923864445524
 20
682.70868028091991
 30
0.0
 11
-180.43879803499061
 21
682.70868028091991
 31
0.0
  0
LINE
  5
16D
  8
0
 10
-186.00421400490669
 20
678.20868028091991
 30
0.0
 11
-146.34000808078821
 21
678.20868028091991
 31
0.0
  0
LINE
  5
16E
  8
0
 10
-186.00421400490669
 20
646.20868028091979
 30
0.0
 11
-146.34000808078821
 21
646.20868028091979
 31
0.0
  0
ARC
  5
16F
  8
0
 10
-185.75905311121889
 20
662.20868028091991
 30
0.0
 40
44.166666666666679
 50
341.09499869712818
 51
18.905001302871739
  0
ARC
  5
170
  8
0
 10
-146.34000808078821
 20
675.70868028092002
 30
0.0
 40
2.5
 50
18.905001302871739
 51
90.0
  0
ARC
  5
171
  8
0
 10
-146.34000808078821
 20
648.70868028092002
 30
0.0
 40
2.5
 50
270.0
 51
341.09499869712818
  0
LINE
  5
172
  8
0
 10
-180.43879803499061
 20
682.70868028091991
 30
0.0
 11
-180.43879803499061
 21
680.20868028092013
 31
0.0
  0
LINE
  5
173
  8
0
 10
-186.2474187509267
 20
680.20868028092002
 30
0.0
 11
-180.43879803499061
 21
680.20868028092002
 31
0.0
  0
LINE
  5
174
  8
0
 10
-186.2474187509267
 20
644.20868028091979
 30
0.0
 11
-180.43879803499061
 21
644.20868028091979
 31
0.0
  0
ARC
  5
175
  8
0
 10
-187.45871608707441
 20
642.70868028091991
 30
0.0
 40
1.0
 50
270.0
 51
351.98387862436857
  0
LINE
  5
176
  8
0
 10
-180.43879803499061
 20
641.70868028091979
 30
0.0
 11
-180.43879803499061
 21
644.20868028091957
 31
0.0
  0
LINE
  5
177
  8
0
 10
-191.0923864445522
 20
641.70868028091979
 30
0.0
 11
-180.43879803499061
 21
641.70868028091979
 31
0.0
  0
LINE
  5
178
  8
0
 10
-184.08683294508711
 20
641.70868028091979
 30
0.0
 11
-184.08683294508711
 21
638.3487512994044
 31
0.0
  0
LINE
  5
17B
  8
0
 10
-187.83960969481959
 20
641.70868028091979
 30
0.0
 11
-187.83960969481959
 21
638.3487512994044
 31
0.0
  0
LINE
  5
17C
  8
0
 10
-191.0923864445522
 20
637.59875129940428
 30
0.0
 11
-185.96322131995339
 21
637.59875129940428
 31
0.0
  0
ARC
  5
186
  8
0
 10
-191.59238644455209
 20
647.36264018829354
 30
0.0
 40
9.7638888888889532
 50
272.93534940706519
 51
292.60355901515521
  0
ARC
  5
188
  8
0
 10
-185.96322131995319
 20
640.32097352162657
 30
0.0
 40
2.7222222222221419
 50
226.42642140347641
 51
270.00000000000159
  0
ARC
  5
189
  8
0
 10
-185.96322131995319
 20
640.32097352162657
 30
0.0
 40
2.7222222222221419
 50
270.0
 51
313.57357859652581
  0
ARC
  5
18A
  8
0
 10
-191.59238644455209
 20
677.05472037354616
 30
0.0
 40
9.7638888888889532
 50
67.396440984844816
 51
87.064650592935394
  0
LINE
  5
18B
  8
0
 10
-191.0923864445524
 20
686.81860926243519
 30
0.0
 11
-185.96322131995339
 21
686.81860926243542
 31
0.0
  0
ARC
  5
191
  8
0
 10
-185.96322131995319
 20
684.09638704021313
 30
0.0
 40
2.7222222222221419
 50
46.42642140347413
 51
90.0
  0
ARC
  5
192
  8
0
 10
-185.96322131995319
 20
684.09638704021313
 30
0.0
 40
2.7222222222221419
 50
89.999999999998366
 51
133.5735785965235
  0
LINE
  5
193
  8
0
 10
-187.83960969481959
 20
682.70868028092013
 30
0.0
 11
-187.83960969481959
 21
686.06860926243542
 31
0.0
  0
LINE
  5
194
  8
0
 10
-184.08683294508711
 20
682.70868028092013
 30
0.0
 11
-184.08683294508711
 21
686.06860926243542
 31
0.0
  0
ARC
  5
195
  8
0
 10
-187.45871608707441
 20
681.70868028091991
 30
0.0
 40
1.0
 50
8.0161213756313785
 51
90.0
  0
LINE
  5
197
  8
0
 10
-187.59238644455249
 20
688.99875129940415
 30
0.0
 11
-187.59238644455229
 21
686.81860926243542
 31
0.0
  0
LINE
  5
198
  8
0
 10
-191.43533057085631
 20
689.59875129940451
 30
0.0
 11
-188.19238644455251
 21
689.59875129940417
 31
0.0
  0
ARC
  5
1A1
  8
0
 10
-257.97006931832527
 20
852.43284184022571
 30
0.0
 40
1.5
 50
90.0
 51
178.1438136990557
  0
LINE
  5
1A4
  8
0
 10
-186.2474187509267
 20
679.70868028092002
 30
0.0
 11
-169.5923864445522
 21
679.70868028092002
 31
0.0
  0
LINE
  5
1A5
  8
0
 10
-186.2474187509267
 20
644.70868028091979
 30
0.0
 11
-169.5923864445522
 21
644.70868028091979
 31
0.0
  0
LINE
  5
1A6
  8
0
 10
-169.5923864445522
 20
679.70868028092002
 30
0.0
 11
-155.5923864445522
 21
678.20868028091991
 31
0.0
  0
LINE
  5
1A7
  8
0
 10
-169.5923864445522
 20
644.70868028091979
 30
0.0
 11
-155.5923864445522
 21
646.20868028091979
 31
0.0
  0
LINE
  5
2A4
  8
0
 10
-188.19238644455251
 20
689.59875129940417
 30
0.0
 11
-187.59238644455249
 21
688.99875129940415
 31
0.0
  0
LINE
  5
2A6
  8
0
 10
-188.19238644455251
 20
689.59875129940417
 30
0.0
 11
-188.19238644455251
 21
686.8186092624353
 31
0.0
  0
LINE
  5
350
  8
0
 10
-356.58830413163372
 20
853.93284184022571
 30
0.0
 11
-299.18830413163357
 21
853.93284184022559
 31
0.0
  0
LINE
  5
3AD
  8
0
 10
-358.58830413163372
 20
851.93284184022559
 30
0.0
 11
-358.58830413163378
 21
801.32337512507388
 31
0.0
  0
ARC
  5
3AE
  8
0
 10
-356.58830413163372
 20
851.93284184022559
 30
0.0
 40
2.0
 50
89.999999999999886
 51
180.0
  0
LINE
  5
3B3
  8
0
  6
CENTER
 10
-327.88830413163367
 20
872.68284184022559
 30
0.0
 11
-327.88830413163367
 21
727.68284184022559
 31
0.0
  0
LINE
  5
3B4
  8
0
 10
-347.3883041316339
 20
850.05898589983258
 30
0.0
 11
-347.38830413163367
 21
768.9518664890187
 31
0.0
  0
ARC
  5
3B5
  8
0
 10
-303.70442462872552
 20
817.28181436185434
 30
0.0
 40
57.63648205005925
 50
199.5728159093903
 51
213.1029594044457
  0
LINE
  5
3B6
  8
0
 10
-345.38830413163379
 20
849.55898589983235
 30
0.0
 11
-345.38830413163379
 21
763.18284184022571
 31
0.0
  0
LINE
  5
3F5
  8
0
 10
-345.38830413163379
 20
768.9518664890187
 30
0.0
 11
-347.38830413163367
 21
768.95186648901893
 31
0.0
  0
LINE
  5
3F6
  8
0
 10
-311.3883041316335
 20
853.05898589983235
 30
0.0
 11
-344.3883041316339
 21
853.05898589983246
 31
0.0
  0
LINE
  5
3F7
  8
0
 10
-311.88830413163362
 20
851.05898589983235
 30
0.0
 11
-343.88830413163379
 21
851.05898589983235
 31
0.0
  0
ARC
  5
3F9
  8
0
 10
-344.3883041316339
 20
850.05898589983258
 30
0.0
 40
3.0
 50
90.0
 51
180.0
  0
ARC
  5
3FC
  8
0
 10
-343.88830413163379
 20
849.55898589983235
 30
0.0
 40
1.5
 50
90.000000000000028
 51
180.0
  0
ARC
  5
3FD
  8
0
 10
-311.3883041316335
 20
850.05898589983258
 30
0.0
 40
3.0
 50
359.99999999999989
 51
90.0
  0
ARC
  5
3FE
  8
0
 10
-311.88830413163362
 20
849.55898589983235
 30
0.0
 40
1.5
 50
359.99999999999989
 51
89.999999999999986
  0
LINE
  5
3FF
  8
0
 10
-310.38830413163362
 20
849.55898589983235
 30
0.0
 11
-310.38830413163362
 21
763.18284184022593
 31
0.0
  0
LINE
  5
400
  8
0
 10
-308.3883041316335
 20
850.05898589983258
 30
0.0
 11
-308.38830413163367
 21
768.9518664890187
 31
0.0
  0
LINE
  5
401
  8
0
 10
-310.38830413163362
 20
768.9518664890187
 30
0.0
 11
-308.38830413163367
 21
768.95186648901893
 31
0.0
  0
LINE
  5
440
  8
0
 10
-297.18830413163369
 20
851.93284184022559
 30
0.0
 11
-297.18830413163352
 21
801.32337512507445
 31
0.0
  0
ARC
  5
441
  8
0
 10
-352.07218363454189
 20
817.28181436185446
 30
0.0
 40
57.636482050059328
 50
327.84145925419239
 51
340.4271840906099
  0
ARC
  5
442
  8
0
 10
-299.18830413163357
 20
851.93284184022559
 30
0.0
 40
2.0
 50
0.000000000000007
 51
90.000000000000114
  0
LINE
  5
445
  8
0
 10
-301.09823311314898
 20
786.68284184022582
 30
0.0
 11
-301.09823311314938
 21
778.68284184022605
 31
0.0
  0
LINE
  5
446
  8
0
 10
-300.49823311314901
 20
786.0828418402258
 30
0.0
 11
-300.4982331131493
 21
779.28284184022596
 31
0.0
  0
ARC
  5
447
  8
0
 10
-313.04226403900731
 20
782.68284184022571
 30
0.0
 40
9.7638888888889532
 50
337.39644098484479
 51
22.60355901515517
  0
LINE
  5
448
  8
0
 10
-303.27837515011839
 20
788.3120069648246
 30
0.0
 11
-303.27837515011822
 21
777.05367671562703
 31
0.0
  0
LINE
  5
44A
  8
0
 10
-300.4982331131493
 20
786.08284184022568
 30
0.0
 11
-303.27837515011828
 21
786.08284184022568
 31
0.0
  0
LINE
  5
44B
  8
0
 10
-301.09823311314898
 20
786.68284184022582
 30
0.0
 11
-303.27837515011822
 21
786.68284184022582
 31
0.0
  0
LINE
  5
44C
  8
0
 10
-300.49823311314901
 20
786.0828418402258
 30
0.0
 11
-301.09823311314898
 21
786.68284184022582
 31
0.0
  0
LINE
  5
44D
  8
0
 10
-308.38830413163367
 20
786.43561858995827
 30
0.0
 11
-304.02837515011828
 21
786.43561858995815
 31
0.0
  0
LINE
  5
44E
  8
0
 10
-308.38830413163362
 20
790.18839533969094
 30
0.0
 11
-304.02837515011828
 21
790.18839533969083
 31
0.0
  0
ARC
  5
44F
  8
0
 10
-306.00059737234051
 20
788.31200696482472
 30
0.0
 40
2.7222222222221419
 50
0.0
 51
43.573578596525849
  0
ARC
  5
450
  8
0
 10
-306.00059737234051
 20
788.31200696482472
 30
0.0
 40
2.7222222222221419
 50
316.42642140347641
 51
0.000000000001603
  0
LINE
  5
451
  8
0
 10
-308.38830413163367
 20
775.1772883407607
 30
0.0
 11
-304.02837515011822
 21
775.1772883407607
 31
0.0
  0
ARC
  5
452
  8
0
 10
-306.00059737234051
 20
777.05367671562692
 30
0.0
 40
2.7222222222221419
 50
316.42642140347402
 51
0.0
  0
LINE
  5
453
  8
0
 10
-300.4982331131493
 20
779.28284184022596
 30
0.0
 11
-303.27837515011828
 21
779.28284184022596
 31
0.0
  0
LINE
  5
455
  8
0
 10
-301.09823311314938
 20
778.68284184022605
 30
0.0
 11
-303.27837515011822
 21
778.68284184022582
 31
0.0
  0
LINE
  5
456
  8
0
 10
-300.4982331131493
 20
779.28284184022596
 30
0.0
 11
-301.09823311314938
 21
778.68284184022605
 31
0.0
  0
LINE
  5
457
  8
0
 10
-308.38830413163367
 20
778.93006509049314
 30
0.0
 11
-304.02837515011822
 21
778.93006509049314
 31
0.0
  0
ARC
  5
459
  8
0
 10
-306.00059737234051
 20
777.05367671562692
 30
0.0
 40
2.7222222222221419
 50
359.99999999999829
 51
43.573578596523539
  0
ARC
  5
45F
  8
0
 10
-342.7343442242601
 20
782.68284184022571
 30
0.0
 40
9.7638888888889532
 50
157.39644098484479
 51
202.60355901515521
  0
LINE
  5
461
  8
0
 10
-352.49823311314901
 20
788.3120069648246
 30
0.0
 11
-352.49823311314918
 21
777.05367671562703
 31
0.0
  0
LINE
  5
462
  8
0
 10
-347.38830413163367
 20
786.43561858995849
 30
0.0
 11
-351.74823311314913
 21
786.43561858995815
 31
0.0
  0
LINE
  5
463
  8
0
 10
-347.38830413163367
 20
790.18839533969106
 30
0.0
 11
-351.74823311314913
 21
790.18839533969083
 31
0.0
  0
ARC
  5
464
  8
0
 10
-349.7760108909269
 20
788.31200696482472
 30
0.0
 40
2.7222222222221419
 50
136.42642140347411
 51
180.0
  0
ARC
  5
465
  8
0
 10
-349.7760108909269
 20
788.31200696482472
 30
0.0
 40
2.7222222222221419
 50
179.99999999999829
 51
223.5735785965235
  0
LINE
  5
466
  8
0
 10
-347.38830413163367
 20
775.1772883407607
 30
0.0
 11
-351.74823311314918
 21
775.1772883407607
 31
0.0
  0
ARC
  5
467
  8
0
 10
-349.7760108909269
 20
777.05367671562692
 30
0.0
 40
2.7222222222221419
 50
180.0
 51
223.57357859652581
  0
LINE
  5
468
  8
0
 10
-347.38830413163367
 20
778.93006509049314
 30
0.0
 11
-351.74823311314918
 21
778.93006509049314
 31
0.0
  0
LINE
  5
469
  8
0
  6
CENTER
 10
-295.49823311314913
 20
782.68284184022605
 30
0.0
 11
-360.27837515011822
 21
782.68284184022571
 31
0.0
  0
ARC
  5
46A
  8
0
 10
-349.7760108909269
 20
777.05367671562692
 30
0.0
 40
2.7222222222221419
 50
136.42642140347641
 51
180.00000000000159
  0
LINE
  5
530
  8
0
 10
-310.38830413163362
 20
763.18284184022593
 30
0.0
 11
-311.88830413163367
 21
746.68284184022605
 31
0.0
  0
LINE
  5
532
  8
0
 10
-311.88830413163362
 20
825.77033815291077
 30
0.0
 11
-311.88830413163367
 21
739.59534552754076
 31
0.0
  0
LINE
  5
533
  8
0
 10
-343.88830413163367
 20
746.68284184022571
 30
0.0
 11
-343.88830413163367
 21
739.59534552754076
 31
0.0
  0
LINE
  5
534
  8
0
 10
-345.38830413163379
 20
763.18284184022593
 30
0.0
 11
-343.88830413163362
 21
746.68284184022536
 31
0.0
  0
ARC
  5
535
  8
0
 10
-327.88830413163367
 20
760.78284184022561
 30
0.0
 40
28.09999999999993
 50
239.46064452340951
 51
300.53935547659017
  0
ARC
  5
536
  8
0
 10
-340.38830413163367
 20
739.59534552754076
 30
0.0
 40
3.5
 50
180.0
 51
239.4606445234094
  0
ARC
  5
537
  8
0
 10
-315.38830413163367
 20
739.59534552754076
 30
0.0
 40
3.5
 50
300.53935547658972
 51
0.0
  0
ARC
  5
538
  8
0
 10
-327.88830413163367
 20
804.58284184022602
 30
0.0
 40
28.09999999999993
 50
59.460644523409719
 51
120.5393554765904
  0
ARC
  5
53A
  8
0
 10
-340.38830413163367
 20
825.77033815291077
 30
0.0
 40
3.5
 50
120.5393554765906
 51
180.0
  0
ARC
  5
53C
  8
0
 10
-315.38830413163367
 20
825.77033815291077
 30
0.0
 40
3.5
 50
0.0
 51
59.460644523410231
  0
LINE
  5
53D
  8
0
 10
-310.38830413163362
 20
802.18284184022571
 30
0.0
 11
-311.88830413163367
 21
818.68284184022582
 31
0.0
  0
LINE
  5
53E
  8
0
 10
-345.38830413163379
 20
802.18284184022571
 30
0.0
 11
-343.88830413163367
 21
818.68284184022582
 31
0.0
  0
LINE
  5
540
  8
0
 10
-343.88830413163379
 20
825.77033815291077
 30
0.0
 11
-343.88830413163367
 21
739.59534552754076
 31
0.0
  0
LINE
  5
5FD
  8
0
 10
-55.048867800356653
 20
779.68284184022571
 30
0.0
 11
-55.048867800356682
 21
768.9518664890187
 31
0.0
  0
LINE
  5
5FF
  8
0
  6
CENTER
 10
-74.548867800356675
 20
872.68284184022559
 30
0.0
 11
-74.548867800356675
 21
727.68284184022559
 31
0.0
  0
LINE
  5
600
  8
0
 10
-105.24886780035671
 20
851.93284184022559
 30
0.0
 11
-105.24886780035671
 21
801.32337512507388
 31
0.0
  0
LINE
  5
601
  8
0
 10
-94.048867800356703
 20
779.68284184022559
 30
0.0
 11
-94.048867800356675
 21
768.9518664890187
 31
0.0
  0
LINE
  5
603
  8
0
 10
-57.048867800356611
 20
802.18284184022571
 30
0.0
 11
-58.548867800356668
 21
818.68284184022582
 31
0.0
  0
LINE
  5
604
  8
0
 10
-57.048867800356611
 20
763.18284184022593
 30
0.0
 11
-58.548867800356668
 21
746.68284184022571
 31
0.0
  0
LINE
  5
605
  8
0
  6
CENTER
 10
-42.158796781872127
 20
782.68284184022605
 30
0.0
 11
-104.158796781872
 21
782.68284184022548
 31
0.0
  0
LINE
  5
606
  8
0
 10
-58.548867800356618
 20
825.77033815291077
 30
0.0
 11
-58.548867800356668
 21
739.59534552754076
 31
0.0
  0
LINE
  5
607
  8
0
 10
-99.158796781871985
 20
786.60399963048542
 30
0.0
 11
-99.158796781872184
 21
777.05367671562703
 31
0.0
  0
ARC
  5
608
  8
0
 10
-96.436574559649912
 20
777.05367671562692
 30
0.0
 40
2.7222222222221419
 50
136.42642140347641
 51
180.00000000000159
  0
LINE
  5
609
  8
0
 10
-90.548867800356732
 20
825.77033815291077
 30
0.0
 11
-90.548867800356675
 21
739.59534552754076
 31
0.0
  0
ARC
  5
60A
  8
0
 10
-87.048867800356675
 20
739.59534552754076
 30
0.0
 40
3.5
 50
180.0
 51
239.4606445234094
  0
LINE
  5
60B
  8
0
 10
-90.548867800356675
 20
746.68284184022571
 30
0.0
 11
-90.548867800356675
 21
739.59534552754076
 31
0.0
  0
LINE
  5
60C
  8
0
 10
-92.048867800356732
 20
763.18284184022593
 30
0.0
 11
-90.548867800356675
 21
746.68284184022571
 31
0.0
  0
LINE
  5
60D
  8
0
 10
-94.048867800356717
 20
775.1772883407607
 30
0.0
 11
-98.408796781872184
 21
775.1772883407607
 31
0.0
  0
ARC
  5
60E
  8
0
 10
-96.436574559649912
 20
777.05367671562692
 30
0.0
 40
2.7222222222221419
 50
180.0
 51
223.57357859652581
  0
LINE
  5
60F
  8
0
 10
-92.048867800356774
 20
768.9518664890187
 30
0.0
 11
-94.048867800356675
 21
768.95186648901893
 31
0.0
  0
ARC
  5
610
  8
0
 10
-74.548867800356675
 20
760.78284184022561
 30
0.0
 40
28.09999999999993
 50
239.46064452340951
 51
300.53935547659017
  0
ARC
  5
611
  8
0
 10
-62.048867800356682
 20
739.59534552754076
 30
0.0
 40
3.5
 50
300.53935547658972
 51
0.0
  0
ARC
  5
612
  8
0
 10
-87.048867800356675
 20
825.77033815291077
 30
0.0
 40
3.5
 50
120.5393554765906
 51
180.0
  0
LINE
  5
613
  8
0
 10
-92.048867800356732
 20
802.18284184022571
 30
0.0
 11
-90.548867800356675
 21
818.68284184022582
 31
0.0
  0
ARC
  5
614
  8
0
 10
-50.364988297448519
 20
817.28181436185434
 30
0.0
 40
57.63648205005925
 50
199.5728159093903
 51
220.71877235022359
  0
LINE
  5
617
  8
0
 10
-94.048867800356675
 20
778.93006509049314
 30
0.0
 11
-98.408796781872184
 21
778.93006509049314
 31
0.0
  0
ARC
  5
618
  8
0
 10
-89.394907892983042
 20
782.68284184022571
 30
0.0
 40
9.7638888888889532
 50
161.3578952510922
 51
202.60355901515521
  0
ARC
  5
61B
  8
0
 10
-74.548867800356675
 20
804.58284184022602
 30
0.0
 40
28.09999999999993
 50
59.460644523409719
 51
120.5393554765904
  0
ARC
  5
61C
  8
0
 10
-62.048867800356682
 20
825.77033815291077
 30
0.0
 40
3.5
 50
0.0
 51
59.460644523410231
  0
LINE
  5
61D
  8
0
 10
-49.938938818841372
 20
786.68284184022593
 30
0.0
 11
-49.938938818841159
 21
777.05367671562703
 31
0.0
  0
ARC
  5
61E
  8
0
 10
-52.661161041063451
 20
777.05367671562692
 30
0.0
 40
2.7222222222221419
 50
359.99999999999829
 51
43.573578596523539
  0
LINE
  5
61F
  8
0
 10
-55.048867800356682
 20
775.1772883407607
 30
0.0
 11
-50.688938818841159
 21
775.1772883407607
 31
0.0
  0
ARC
  5
620
  8
0
 10
-52.661161041063451
 20
777.05367671562692
 30
0.0
 40
2.7222222222221419
 50
316.42642140347402
 51
0.0
  0
LINE
  5
621
  8
0
 10
-57.048867800356561
 20
768.9518664890187
 30
0.0
 11
-55.048867800356682
 21
768.95186648901893
 31
0.0
  0
ARC
  5
622
  8
0
 10
-98.732747303264887
 20
817.28181436185446
 30
0.0
 40
57.636482050059328
 50
319.28122764977633
 51
340.4271840906099
  0
LINE
  5
623
  8
0
 10
-47.758796781871972
 20
786.68284184022582
 30
0.0
 11
-49.938938818841159
 21
786.68284184022582
 31
0.0
  0
LINE
  5
624
  8
0
 10
-47.75879678187232
 20
778.68284184022605
 30
0.0
 11
-49.938938818841159
 21
778.68284184022582
 31
0.0
  0
LINE
  5
625
  8
0
 10
-47.158796781872297
 20
786.08284184022568
 30
0.0
 11
-49.938938818841279
 21
786.08284184022568
 31
0.0
  0
LINE
  5
626
  8
0
 10
-47.158796781872297
 20
779.28284184022596
 30
0.0
 11
-49.938938818841279
 21
779.28284184022596
 31
0.0
  0
LINE
  5
627
  8
0
 10
-55.048867800356682
 20
778.93006509049314
 30
0.0
 11
-50.688938818841159
 21
778.93006509049314
 31
0.0
  0
ARC
  5
62A
  8
0
 10
-59.702827707730307
 20
782.68284184022571
 30
0.0
 40
9.7638888888889532
 50
337.39644098484479
 51
18.642104748907741
  0
LINE
  5
62D
  8
0
 10
-47.158796781871949
 20
786.0828418402258
 30
0.0
 11
-47.158796781872297
 21
779.28284184022596
 31
0.0
  0
LINE
  5
62E
  8
0
 10
-47.758796781871972
 20
786.68284184022582
 30
0.0
 11
-47.75879678187232
 21
778.68284184022605
 31
0.0
  0
LINE
  5
62F
  8
0
 10
-47.158796781871949
 20
786.0828418402258
 30
0.0
 11
-47.758796781871972
 21
786.68284184022582
 31
0.0
  0
LINE
  5
630
  8
0
 10
-47.158796781872297
 20
779.28284184022596
 30
0.0
 11
-47.75879678187232
 21
778.68284184022605
 31
0.0
  0
LINE
  5
634
  8
0
 10
-103.24886780035671
 20
853.93284184022571
 30
0.0
 11
-45.848867800356622
 21
853.93284184022559
 31
0.0
  0
ARC
  5
638
  8
0
 10
-103.24886780035671
 20
851.93284184022559
 30
0.0
 40
2.0
 50
89.999999999999886
 51
180.0
  0
ARC
  5
640
  8
0
 10
-45.848867800356622
 20
851.93284184022559
 30
0.0
 40
2.0
 50
0.000000000000007
 51
90.000000000000114
  0
ARC
  5
6BE
  8
0
 10
-95.248867800356777
 20
801.32337512507411
 30
0.0
 40
10.0
 50
180.0000000000006
 51
199.57281590939019
  0
ARC
  5
6BF
  8
0
 10
-53.848867800356572
 20
801.32337512507445
 30
0.0
 40
10.0
 50
340.42718409061001
 51
359.99999999999932
  0
ARC
  5
6C0
  8
0
 10
-348.58830413163378
 20
801.32337512507411
 30
0.0
 40
10.0
 50
180.0000000000006
 51
199.5728159093901
  0
ARC
  5
6C2
  8
0
 10
-307.18830413163352
 20
801.32337512507445
 30
0.0
 40
10.0
 50
340.4271840906099
 51
0.0
  0
LINE
  5
744
  8
0
 10
-92.048867800356774
 20
763.1828418402265
 30
0.0
 11
-92.048867800356774
 21
843.04173044413733
 31
0.0
  0
ARC
  5
74A
  8
0
 10
-50.364988297448519
 20
817.28181436185434
 30
0.0
 40
55.636482050059243
 50
200.00141657396281
 51
221.4772760756577
  0
LINE
  5
753
  8
0
 10
-43.848867800356629
 20
851.93284184022559
 30
0.0
 11
-43.848867800356572
 21
801.32337512507388
 31
0.0
  0
ARC
  5
754
  8
0
 10
-98.732747303264844
 20
817.28181436185434
 30
0.0
 40
55.636482050059243
 50
318.52272392434219
 51
341.90175049065942
  0
ARC
  5
755
  8
0
 10
-53.848867800356572
 20
801.32337512507411
 30
0.0
 40
10.0
 50
340.42718409060973
 51
359.99999999999932
  0
LINE
  5
756
  8
0
 10
-57.048867800356561
 20
763.18284184022639
 30
0.0
 11
-57.048867800356561
 21
843.04173044413733
 31
0.0
  0
LINE
  5
758
  8
0
 10
-103.24886780035671
 20
820.02387784150108
 30
0.0
 11
-103.24886780035671
 21
801.67215796956316
 31
0.0
  0
ARC
  5
75A
  8
0
 10
-93.248867800356777
 20
801.67215796956316
 30
0.0
 40
10.0
 50
180.0
 51
200.00141657396281
  0
ARC
  5
75F
  8
0
 10
-75.658081215832254
 20
820.45380628172154
 30
0.0
 40
29.59390966321584
 50
87.851985839781364
 51
180.83239936706701
  0
ARC
  5
760
  8
0
 10
-72.398505339709146
 20
819.2256459085047
 30
0.0
 40
30.876246977947851
 50
93.993571857333478
 51
182.3462579507341
  0
ARC
  5
762
  8
0
 10
-76.699230261004189
 20
819.2256459085047
 30
0.0
 40
30.876246977947769
 50
357.65374204926582
 51
86.006428142666536
  0
ARC
  5
763
  8
0
 10
-73.439654384881095
 20
820.45380628172154
 30
0.0
 40
29.593909663215861
 50
359.16760063293287
 51
92.148014160218636
  0
LINE
  5
764
  8
0
 10
-45.848867800356587
 20
820.02387784150108
 30
0.0
 11
-45.848867800356572
 21
799.99848645232134
 31
0.0
  0
ARC
  5
821
  8
0
 10
-531.2907213407085
 20
763.68880182208852
 30
0.0
 40
37.5
 50
154.5382430026819
 51
85.661581498206687
  0
ARC
  5
822
  8
0
 10
-531.2907213407085
 20
763.68880182208852
 30
0.0
 40
34.0
 50
157.18509403145561
 51
83.161551590739379
  0
LINE
  5
824
  8
0
  6
CENTER
 10
-531.2907213407085
 20
721.18880182208852
 30
0.0
 11
-531.2907213407085
 21
806.18880182208852
 31
0.0
  0
LINE
  5
863
  8
0
  6
CENTER
 10
-573.79072134070861
 20
763.68880182208852
 30
0.0
 11
-488.79072134070861
 21
763.68880182208852
 31
0.0
  0
ARC
  5
864
  8
0
 10
-531.2907213407085
 20
763.68880182208852
 30
0.0
 40
25.0
 50
164.8161369651275
 51
75.249645586785277
  0
LINE
  5
866
  8
0
  6
CENTER
 10
-555.29072134070861
 20
808.18880182208829
 30
0.0
 11
-555.29072134070861
 21
831.18880182208852
 31
0.0
  0
ARC
  5
8F3
  8
0
 10
-520.07175563084411
 20
815.8936969517714
 30
0.0
 40
57.740051557214699
 50
185.02262631334489
 51
239.85307095107521
  0
LINE
  5
8F7
  8
0
 10
-535.33354552186779
 20
757.9742963631503
 30
0.0
 11
-549.06991728491289
 21
765.96354399271956
 31
0.0
  0
ARC
  5
946
  8
0
 10
-531.2907213407085
 20
763.68880182208852
 30
0.0
 40
7.0
 50
234.7218523219027
 51
344.88955744808129
  0
ARC
  5
94B
  8
0
 10
-604.66087785267541
 20
773.65699961051826
 30
0.0
 40
80.991305354344078
 50
351.62752626102622
 51
29.600351637531471
  0
ARC
  5
94C
  8
0
 10
-531.2907213407085
 20
763.68880182208852
 30
0.0
 40
7.0
 50
359.63657644359148
 51
0.0
  0
ARC
  5
98B
  8
0
 10
-531.2907213407085
 20
763.68880182208852
 30
0.0
 40
26.0
 50
164.8161369651275
 51
75.249645586785277
  0
POLYLINE
  5
9CA
  8
0
 66
     1
 10
0.0
 20
0.0
 30
0.0
 70
     1
  0
VERTEX
  5
1E1E
  8
0
 10
-534.17747268665676
 20
768.68880182208841
 30
0.0
  0
VERTEX
  5
1E1F
  8
0
 10
-537.06422403260478
 20
763.68880182208852
 30
0.0
  0
VERTEX
  5
1E20
  8
0
 10
-534.17747268665676
 20
758.68880182208852
 30
0.0
  0
VERTEX
  5
1E21
  8
0
 10
-528.40396999476036
 20
758.68880182208852
 30
0.0
  0
VERTEX
  5
1E22
  8
0
 10
-525.51721864881233
 20
763.68880182208852
 30
0.0
  0
VERTEX
  5
1E23
  8
0
 10
-528.40396999476036
 20
768.68880182208841
 30
0.0
  0
SEQEND
  5
1E24
  8
0
  0
LINE
  5
A49
  8
0
  6
CENTER
 10
-555.29072134070861
 20
696.42125299352665
 30
0.0
 11
-555.29072134070861
 21
626.42125299352665
 31
0.0
  0
LINE
  5
A4E
  8
0
  6
CENTER
 10
-590.29072134070861
 20
661.42125299352665
 30
0.0
 11
-488.79072134070861
 21
661.42125299352665
 31
0.0
  0
LINE
  5
A8E
  8
0
 10
-523.66957249833115
 20
677.42125299352665
 30
0.0
 11
-523.66957249833115
 21
675.42125299352665
 31
0.0
  0
LINE
  5
A8F
  8
0
 10
-525.29072134070861
 20
677.42125299352665
 30
0.0
 11
-523.66957249833115
 21
677.42125299352665
 31
0.0
  0
LINE
  5
A93
  8
0
 10
-525.29072134070861
 20
645.42125299352676
 30
0.0
 11
-523.66957249833115
 21
645.42125299352676
 31
0.0
  0
LINE
  5
AD3
  8
0
 10
-525.29072134070861
 20
675.42125299352665
 30
0.0
 11
-513.29072134070861
 21
675.42125299352665
 31
0.0
  0
LINE
  5
AD4
  8
0
 10
-525.29072134070861
 20
647.42125299352665
 30
0.0
 11
-513.29072134070861
 21
647.42125299352665
 31
0.0
  0
LINE
  5
AD5
  8
0
 10
-523.66957249833115
 20
647.42125299352665
 30
0.0
 11
-523.66957249833115
 21
645.42125299352676
 31
0.0
  0
CIRCLE
  5
AD6
  8
0
 10
-531.2907213407085
 20
763.68880182208852
 30
0.0
 40
5.0
  0
LINE
  5
B7D
  8
0
 10
-525.29072134070861
 20
673.92125299352665
 30
0.0
 11
-501.00016513535883
 21
673.92125299352665
 31
0.0
  0
LINE
  5
B7E
  8
0
 10
-525.29072134070861
 20
648.92125299352665
 30
0.0
 11
-501.00016513535883
 21
648.92125299352665
 31
0.0
  0
ARC
  5
B7F
  8
0
 10
-517.86214991213728
 20
661.42125299352665
 30
0.0
 40
24.071428571428751
 50
338.91922196571971
 51
21.080778034280321
  0
ARC
  5
B80
  8
0
 10
-501.00016513535883
 20
667.92125299352665
 30
0.0
 40
6.0
 50
21.080778034280559
 51
90.0
  0
ARC
  5
B81
  8
0
 10
-501.00016513535883
 20
654.92125299352665
 30
0.0
 40
6.0
 50
270.0
 51
338.91922196571937
  0
LINE
  5
B86
  8
0
 10
-513.29072134070861
 20
675.42125299352665
 30
0.0
 11
-506.2907213407085
 21
673.92125299352665
 31
0.0
  0
LINE
  5
B87
  8
0
 10
-513.29072134070861
 20
647.42125299352665
 30
0.0
 11
-506.2907213407085
 21
648.92125299352665
 31
0.0
  0
LINE
  5
C44
  8
0
 10
-651.19031505398004
 20
815.18880182208875
 30
0.0
 11
-612.39031505398043
 21
815.18880182208852
 31
0.0
  0
LINE
  5
C45
  8
0
 10
-661.79031505398018
 20
826.18880182208829
 30
0.0
 11
-601.79031505398007
 21
826.18880182208852
 31
0.0
  0
LINE
  5
C4A
  8
0
 10
-653.19031505398004
 20
817.18880182208852
 30
0.0
 11
-653.19031505398004
 21
820.18880182208841
 31
0.0
  0
LINE
  5
C55
  8
0
 10
-609.39031505398054
 20
811.18880182208829
 30
0.0
 11
-609.39031505398566
 21
767.39060459963764
 31
0.0
  0
LINE
  5
C5B
  8
0
 10
-545.29072134070861
 20
767.39060459963753
 30
0.0
 11
-545.29072134070861
 21
809.54801881722062
 31
0.0
  0
LINE
  5
C5C
  8
0
 10
-542.29072134070861
 20
765.26200327615061
 30
0.0
 11
-542.29072134070861
 21
809.54801881722062
 31
0.0
  0
LINE
  5
CA1
  8
0
 10
-618.79031505397995
 20
811.18880182208841
 30
0.0
 11
-644.79031505398075
 21
811.18880182208841
 31
0.0
  0
LINE
  5
CA2
  8
0
 10
-615.79031505398018
 20
756.68880182208852
 30
0.0
 11
-615.79031505398018
 21
811.18880182208864
 31
0.0
  0
LINE
  5
CE3
  8
0
 10
-645.79031505398018
 20
781.68880182208852
 30
0.0
 11
-644.29031505398029
 21
788.68880182208852
 31
0.0
  0
LINE
  5
CE4
  8
0
 10
-617.79031505398029
 20
781.68880182208852
 30
0.0
 11
-619.29031505398029
 21
788.68880182208852
 31
0.0
  0
ARC
  5
CE5
  8
0
 10
-631.79031505398052
 20
777.11737325065974
 30
0.0
 40
24.071428571428751
 50
68.919221965719672
 51
111.0807780342803
  0
ARC
  5
CE6
  8
0
 10
-625.29031505398052
 20
793.97935802743814
 30
0.0
 40
6.0
 50
0.0
 51
68.91922196571943
  0
ARC
  5
CE7
  8
0
 10
-638.29031505398052
 20
793.97935802743814
 30
0.0
 40
6.0
 50
111.0807780342805
 51
180.0
  0
LINE
  5
CE8
  8
0
 10
-644.29031505398052
 20
733.39824561673879
 30
0.0
 11
-644.29031505398029
 21
793.97935802743814
 31
0.0
  0
LINE
  5
CE9
  8
0
 10
-619.29031505398029
 20
733.39824561673879
 30
0.0
 11
-619.29031505398029
 21
793.97935802743814
 31
0.0
  0
LINE
  5
CEA
  8
0
  6
CENTER
 10
-631.79031505398029
 20
713.28880182208854
 30
0.0
 11
-631.79031505398029
 21
831.18880182208852
 31
0.0
  0
LINE
  5
CEB
  8
0
 10
-617.79031505398075
 20
745.68880182208568
 30
0.0
 11
-617.79031505397995
 21
810.18880182208852
 31
0.0
  0
ARC
  5
CEE
  8
0
 10
-631.79031505398052
 20
750.2602303935173
 30
0.0
 40
24.071428571428751
 50
248.9192219657196
 51
291.08077803428029
  0
LINE
  5
CEF
  8
0
 10
-645.79031505398018
 20
745.68880182208852
 30
0.0
 11
-644.29031505398029
 21
738.68880182208852
 31
0.0
  0
ARC
  5
CF0
  8
0
 10
-638.29031505398052
 20
733.39824561673879
 30
0.0
 40
6.0
 50
180.0
 51
248.9192219657194
  0
LINE
  5
CF1
  8
0
 10
-617.79031505398029
 20
745.68880182208852
 30
0.0
 11
-619.29031505398029
 21
738.68880182208852
 31
0.0
  0
ARC
  5
CF2
  8
0
 10
-625.29031505398052
 20
733.39824561673879
 30
0.0
 40
6.0
 50
291.08077803428051
 51
0.0
  0
LINE
  5
CF3
  8
0
 10
-617.79031505398029
 20
813.18880182208864
 30
0.0
 11
-645.79031505398052
 21
813.18880182208864
 31
0.0
  0
LINE
  5
CF5
  8
0
 10
-615.79031505398018
 20
756.68880182208852
 30
0.0
 11
-617.79031505398052
 21
756.68880182208852
 31
0.0
  0
ARC
  5
D34
  8
0
 10
-617.79031505398029
 20
811.18880182208864
 30
0.0
 40
2.0
 50
0.0
 51
90.000000000000099
  0
ARC
  5
D36
  8
0
 10
-618.79031505397995
 20
810.18880182208852
 30
0.0
 40
1.0
 50
359.9999999999992
 51
90.0
  0
ARC
  5
D37
  8
0
 10
-621.10663359172622
 20
768.71293803333685
 30
0.0
 40
11.790703362721059
 50
296.80084495473608
 51
301.76952247703122
  0
LINE
  5
D38
  8
0
 10
-645.79031505397984
 20
745.68880182208568
 30
0.0
 11
-645.79031505398075
 21
810.18880182208852
 31
0.0
  0
LINE
  5
D39
  8
0
 10
-647.79031505398029
 20
756.68880182208852
 30
0.0
 11
-647.79031505398052
 21
811.18880182208864
 31
0.0
  0
ARC
  5
D3A
  8
0
 10
-645.79031505398052
 20
811.18880182208864
 30
0.0
 40
2.0
 50
89.999999999999915
 51
180.0
  0
ARC
  5
D3B
  8
0
 10
-644.79031505398075
 20
810.18880182208852
 30
0.0
 40
1.0
 50
90.0
 51
180.0000000000008
  0
LINE
  5
D3C
  8
0
 10
-654.19031505398004
 20
811.18880182208829
 30
0.0
 11
-654.19031505397516
 21
767.39060459963764
 31
0.0
  0
ARC
  5
D3E
  8
0
 10
-642.47399651623459
 20
768.71293803333685
 30
0.0
 40
11.790703362721059
 50
186.43929813161219
 51
217.88897956692719
  0
LINE
  5
D3F
  8
0
 10
-647.79031505398029
 20
756.68880182208852
 30
0.0
 11
-645.79031505398007
 21
756.68880182208852
 31
0.0
  0
LINE
  5
D40
  8
0
 10
-612.79031505398018
 20
768.68880182208841
 30
0.0
 11
-615.79031505398018
 21
768.68880182208841
 31
0.0
  0
LINE
  5
D41
  8
0
 10
-612.79031505398018
 20
763.68880182208841
 30
0.0
 11
-615.79031505398018
 21
763.68880182208841
 31
0.0
  0
LINE
  5
D42
  8
0
 10
-612.79031505398018
 20
758.68880182208852
 30
0.0
 11
-615.79031505398018
 21
758.68880182208852
 31
0.0
  0
ARC
  5
D46
  8
0
 10
-615.41531505398018
 20
761.18880182208852
 30
0.0
 40
3.624999999999917
 50
316.39718102729512
 51
43.602818972704867
  0
ARC
  5
D47
  8
0
 10
-615.41531505398018
 20
766.18880182208852
 30
0.0
 40
3.624999999999917
 50
316.39718102729512
 51
43.602818972704853
  0
LINE
  5
D48
  8
0
 10
-611.79031505398018
 20
761.18880182208852
 30
0.0
 11
-611.79031505398018
 21
766.18880182208852
 31
0.0
  0
ARC
  5
D4A
  8
0
 10
-621.10663359172622
 20
768.71293803333685
 30
0.0
 40
11.790703362721059
 50
322.11102043307272
 51
322.19869322238151
  0
ARC
  5
D4B
  8
0
 10
-648.16531505398052
 20
766.18880182208852
 30
0.0
 40
3.624999999999917
 50
136.39718102729509
 51
223.6028189727048
  0
LINE
  5
D4C
  8
0
 10
-650.79031505398052
 20
763.68880182208841
 30
0.0
 11
-647.79031505398052
 21
763.68880182208841
 31
0.0
  0
LINE
  5
D4D
  8
0
 10
-650.79031505398029
 20
768.68880182208841
 30
0.0
 11
-647.79031505398029
 21
768.68880182208841
 31
0.0
  0
LINE
  5
D4E
  8
0
 10
-651.79031505398029
 20
761.18880182208852
 30
0.0
 11
-651.79031505398029
 21
766.18880182208852
 31
0.0
  0
ARC
  5
D4F
  8
0
 10
-648.16531505398052
 20
761.18880182208852
 30
0.0
 40
3.624999999999917
 50
136.39718102729509
 51
223.6028189727048
  0
LINE
  5
D50
  8
0
 10
-650.79031505398029
 20
758.68880182208852
 30
0.0
 11
-647.79031505398029
 21
758.68880182208852
 31
0.0
  0
ARC
  5
D51
  8
0
 10
-642.47399651623459
 20
768.71293803333685
 30
0.0
 40
11.790703362721059
 50
238.2304775229687
 51
243.19915504526381
  0
LINE
  5
D54
  8
0
 10
-608.79031505398052
 20
766.18880182208818
 30
0.0
 11
-608.79031505398052
 21
761.18880182208852
 31
0.0
  0
LINE
  5
D55
  8
0
 10
-609.29031505398052
 20
766.68880182208852
 30
0.0
 11
-609.29031505398052
 21
760.68880182208852
 31
0.0
  0
LINE
  5
D56
  8
0
 10
-609.29031505398052
 20
766.68880182208852
 30
0.0
 11
-608.79031505398052
 21
766.18880182208852
 31
0.0
  0
LINE
  5
D57
  8
0
 10
-609.29031505398052
 20
766.68880182208852
 30
0.0
 11
-611.79031505398018
 21
766.68880182208852
 31
0.0
  0
LINE
  5
D58
  8
0
 10
-608.79031505398075
 20
766.18880182208852
 30
0.0
 11
-611.79031505398052
 21
766.18880182208864
 31
0.0
  0
LINE
  5
D59
  8
0
 10
-609.29031505398052
 20
766.68880182208852
 30
0.0
 11
-608.79031505398052
 21
766.18880182208852
 31
0.0
  0
LINE
  5
D5A
  8
0
 10
-609.29031505398052
 20
760.68880182208852
 30
0.0
 11
-608.79031505398052
 21
761.18880182208852
 31
0.0
  0
LINE
  5
D5B
  8
0
 10
-608.79031505398075
 20
761.18880182208852
 30
0.0
 11
-611.79031505398052
 21
761.18880182208829
 31
0.0
  0
LINE
  5
D5C
  8
0
 10
-609.29031505398052
 20
760.68880182208852
 30
0.0
 11
-611.79031505398018
 21
760.68880182208852
 31
0.0
  0
ARC
  5
D5D
  8
0
 10
-621.10663359172622
 20
768.71293803333685
 30
0.0
 40
11.790703362721059
 50
350.11494034339239
 51
353.5607018683877
  0
LINE
  5
D9C
  8
0
 10
-463.81959325833623
 20
811.18880182208795
 30
0.0
 11
-463.8195932583323
 21
776.18880182208716
 31
0.0
  0
LINE
  5
D9E
  8
0
 10
-455.41959325833608
 20
745.68880182208568
 30
0.0
 11
-455.4195932583367
 21
801.05846568527147
 31
0.0
  0
LINE
  5
D9F
  8
0
 10
-427.4195932583371
 20
745.68880182208568
 30
0.0
 11
-427.41959325833642
 21
801.05846568527136
 31
0.0
  0
LINE
  5
DA1
  8
0
 10
-453.9195932583367
 20
733.39824561673879
 30
0.0
 11
-453.91959325833659
 21
793.97935802743814
 31
0.0
  0
LINE
  5
DA2
  8
0
 10
-428.91959325833659
 20
733.39824561673879
 30
0.0
 11
-428.91959325833659
 21
793.97935802743814
 31
0.0
  0
LINE
  5
DA3
  8
0
  6
CENTER
 10
-441.41959325833659
 20
713.28880182208854
 30
0.0
 11
-441.4195932583367
 21
831.18880182208852
 31
0.0
  0
LINE
  5
DA4
  8
0
 10
-419.01959325833712
 20
811.18880182208807
 30
0.0
 11
-419.01959325834071
 21
776.18880182209296
 31
0.0
  0
ARC
  5
DA5
  8
0
 10
-441.4195932583367
 20
750.2602303935173
 30
0.0
 40
24.071428571428751
 50
248.9192219657196
 51
291.08077803428029
  0
ARC
  5
DA6
  8
0
 10
-447.9195932583367
 20
733.39824561673879
 30
0.0
 40
6.0
 50
180.0
 51
248.9192219657194
  0
LINE
  5
DA7
  8
0
 10
-457.41959325833659
 20
756.68880182208852
 30
0.0
 11
-455.41959325833642
 21
756.68880182208852
 31
0.0
  0
LINE
  5
DAA
  8
0
 10
-460.41959325833659
 20
758.68880182208852
 30
0.0
 11
-457.41959325833659
 21
758.68880182208852
 31
0.0
  0
ARC
  5
DAB
  8
0
 10
-457.7945932583367
 20
761.18880182208852
 30
0.0
 40
3.624999999999917
 50
136.39718102729509
 51
223.6028189727048
  0
LINE
  5
DAC
  8
0
 10
-461.41959325833659
 20
761.18880182208852
 30
0.0
 11
-461.41959325833659
 21
766.18880182208852
 31
0.0
  0
LINE
  5
DAE
  8
0
 10
-460.4195932583367
 20
763.68880182208841
 30
0.0
 11
-457.4195932583367
 21
763.68880182208841
 31
0.0
  0
ARC
  5
DAF
  8
0
 10
-457.7945932583367
 20
766.18880182208852
 30
0.0
 40
3.624999999999917
 50
163.54437984768171
 51
223.6028189727048
  0
LINE
  5
DB0
  8
0
 10
-455.41959325833659
 20
745.68880182208852
 30
0.0
 11
-453.91959325833659
 21
738.68880182208852
 31
0.0
  0
ARC
  5
DB1
  8
0
 10
-434.9195932583367
 20
733.39824561673879
 30
0.0
 40
6.0
 50
291.08077803428051
 51
0.0
  0
LINE
  5
DB2
  8
0
 10
-427.41959325833648
 20
745.68880182208852
 30
0.0
 11
-428.91959325833659
 21
738.68880182208852
 31
0.0
  0
ARC
  5
DB3
  8
0
 10
-425.04459325833648
 20
766.18880182208852
 30
0.0
 40
3.624999999999917
 50
316.39718102729512
 51
16.45562015231819
  0
ARC
  5
DB4
  8
0
 10
-425.04459325833648
 20
761.18880182208852
 30
0.0
 40
3.624999999999917
 50
316.39718102729512
 51
43.602818972704867
  0
LINE
  5
DB6
  8
0
 10
-422.41959325833648
 20
763.68880182208841
 30
0.0
 11
-425.41959325833648
 21
763.68880182208841
 31
0.0
  0
LINE
  5
DB8
  8
0
 10
-422.41959325833659
 20
758.68880182208852
 30
0.0
 11
-425.41959325833659
 21
758.68880182208852
 31
0.0
  0
LINE
  5
DB9
  8
0
 10
-425.41959325833659
 20
756.68880182208852
 30
0.0
 11
-427.41959325833682
 21
756.68880182208852
 31
0.0
  0
ARC
  5
DBB
  8
0
 10
-430.73591179608252
 20
768.71293803333685
 30
0.0
 40
11.790703362721059
 50
322.11102043307272
 51
322.19869322238151
  0
LINE
  5
DBC
  8
0
 10
-418.91959325833682
 20
766.68880182208852
 30
0.0
 11
-421.41959325833659
 21
766.68880182208852
 31
0.0
  0
LINE
  5
DBD
  8
0
 10
-418.91959325833682
 20
766.68880182208852
 30
0.0
 11
-418.41959325833682
 21
766.18880182208852
 31
0.0
  0
LINE
  5
DBE
  8
0
 10
-418.41959325833687
 20
766.18880182208852
 30
0.0
 11
-421.4195932583367
 21
766.18880182208864
 31
0.0
  0
LINE
  5
DBF
  8
0
 10
-418.91959325833682
 20
766.68880182208852
 30
0.0
 11
-418.41959325833682
 21
766.18880182208852
 31
0.0
  0
LINE
  5
DC0
  8
0
 10
-418.91959325833682
 20
760.68880182208852
 30
0.0
 11
-421.41959325833659
 21
760.68880182208852
 31
0.0
  0
LINE
  5
DC1
  8
0
 10
-418.41959325833687
 20
761.18880182208852
 30
0.0
 11
-421.4195932583367
 21
761.18880182208829
 31
0.0
  0
LINE
  5
DC2
  8
0
 10
-418.91959325833682
 20
760.68880182208852
 30
0.0
 11
-418.41959325833682
 21
761.18880182208852
 31
0.0
  0
LINE
  5
DC3
  8
0
 10
-418.91959325833682
 20
766.68880182208852
 30
0.0
 11
-418.91959325833682
 21
760.68880182208852
 31
0.0
  0
LINE
  5
DC4
  8
0
 10
-418.4195932583367
 20
766.18880182208818
 30
0.0
 11
-418.41959325833682
 21
761.18880182208852
 31
0.0
  0
LINE
  5
DC5
  8
0
 10
-421.41959325833659
 20
761.18880182208852
 30
0.0
 11
-421.41959325833659
 21
766.18880182208852
 31
0.0
  0
ARC
  5
DC8
  8
0
 10
-441.4195932583367
 20
777.11737325065974
 30
0.0
 40
24.071428571428751
 50
68.919221965719672
 51
111.0807780342803
  0
LINE
  5
DCB
  8
0
 10
-455.41959325833659
 20
781.68880182208852
 30
0.0
 11
-453.91959325833659
 21
788.68880182208852
 31
0.0
  0
ARC
  5
DCC
  8
0
 10
-447.9195932583367
 20
793.97935802743814
 30
0.0
 40
6.0
 50
111.0807780342805
 51
180.0
  0
LINE
  5
DD8
  8
0
 10
-427.41959325833648
 20
781.68880182208852
 30
0.0
 11
-428.91959325833659
 21
788.68880182208852
 31
0.0
  0
ARC
  5
DD9
  8
0
 10
-434.9195932583367
 20
793.97935802743814
 30
0.0
 40
6.0
 50
0.0
 51
68.91922196571943
  0
LINE
  5
DE4
  8
0
  6
CENTER
 10
-659.79031505397995
 20
763.68880182208852
 30
0.0
 11
-603.79031505398052
 21
763.68880182208716
 31
0.0
  0
POLYLINE
  5
E62
  8
0
 66
     1
 10
0.0
 20
0.0
 30
0.0
 70
     1
  0
VERTEX
  5
1E25
  8
0
 10
-379.24374888094201
 20
881.84454212938795
 30
0.0
  0
VERTEX
  5
1E26
  8
0
 10
-30.613027218765779
 20
881.84454212938795
 30
0.0
  0
VERTEX
  5
1E27
  8
0
 10
-30.613027218765779
 20
626.21604376252685
 30
0.0
  0
VERTEX
  5
1E28
  8
0
 10
-379.24374888094201
 20
626.21604376252685
 30
0.0
  0
SEQEND
  5
1E29
  8
0
  0
LINE
  5
E63
  8
0
  6
CENTER
 10
-469.41959325833631
 20
763.68880182208852
 30
0.0
 11
-413.41959325833682
 21
763.68880182208716
 31
0.0
  0
LINE
  5
EE3
  8
0
 10
-425.41959325833659
 20
756.68880182208852
 30
0.0
 11
-425.4195932583367
 21
762.68880182208852
 31
0.0
  0
ARC
  5
EE4
  8
0
 10
-437.0062187046143
 20
776.44875758920705
 30
0.0
 40
17.98850388290791
 50
310.0991881548324
 51
0.8280225458819503
  0
ARC
  5
F25
  8
0
 10
-459.41668892080941
 20
777.21135269878414
 30
0.0
 40
40.400222577001308
 50
359.287136205472
 51
46.866469546498443
  0
ARC
  5
F26
  8
0
 10
-423.42249759586372
 20
777.21135269878391
 30
0.0
 40
40.400222577001443
 50
133.13353045350129
 51
180.71286379452761
  0
ARC
  5
F27
  8
0
 10
-445.83296781205888
 20
776.44875758920705
 30
0.0
 40
17.98850388290791
 50
179.17197745411801
 51
229.90081184516751
  0
LINE
  5
F28
  8
0
 10
-457.41959325833659
 20
756.68880182208852
 30
0.0
 11
-457.41959325833648
 21
762.68880182208852
 31
0.0
  0
ARC
  5
F68
  8
0
 10
-441.41959325833659
 20
795.18880182208852
 30
0.0
 40
15.0
 50
50.085903885862443
 51
129.91409611413749
  0
ARC
  5
FA8
  8
0
 10
-425.55189016282009
 20
780.19551505528068
 30
0.0
 40
36.432710538626857
 50
136.586120830455
 51
185.45260133934079
  0
ARC
  5
FA9
  8
0
 10
-445.83296781205888
 20
776.44875758920705
 30
0.0
 40
15.98850388290791
 50
179.17197745411801
 51
232.94625643995289
  0
ARC
  5
FAA
  8
0
 10
-440.74958688088952
 20
794.94483262326014
 30
0.0
 40
15.258686230493369
 50
92.516657318788802
 51
137.5970211095694
  0
ARC
  5
FAB
  8
0
 10
-442.0895996357836
 20
794.94483262326014
 30
0.0
 40
15.258686230493369
 50
42.402978890430511
 51
87.483342681211212
  0
ARC
  5
FAC
  8
0
 10
-457.28729635385309
 20
780.19551505528068
 30
0.0
 40
36.432710538626857
 50
354.54739866065898
 51
43.413879169544963
  0
ARC
  5
FAD
  8
0
 10
-437.0062187046143
 20
776.44875758920705
 30
0.0
 40
15.98850388290791
 50
307.053743560047
 51
0.8280225458819552
  0
POLYLINE
  5
FEC
  8
0
 66
     1
 10
0.0
 20
0.0
 30
0.0
 70
     1
  0
VERTEX
  5
1E2A
  8
0
 10
-667.20058806252041
 20
835.7595615233588
 30
0.0
  0
VERTEX
  5
1E2B
  8
0
 10
-398.53161755773789
 20
835.7595615233588
 30
0.0
  0
VERTEX
  5
1E2C
  8
0
 10
-398.53161755773789
 20
626.21604376252685
 30
0.0
  0
VERTEX
  5
1E2D
  8
0
 10
-667.20058806252041
 20
626.21604376252685
 30
0.0
  0
SEQEND
  5
1E2E
  8
0
  0
LINE
  5
FF2
  8
0
  6
CENTER
 10
115.8347290167201
 20
805.606521791369
 30
0.0
 11
250.8347290167201
 21
805.606521791369
 31
0.0
  0
LINE
  5
FF7
  8
0
  6
CENTER
 10
491.53200733103353
 20
690.27319397416045
 30
0.0
 11
660.03200733103336
 21
690.27319397416045
 31
0.0
  0
ARC
  5
FF8
  8
0
 10
441.6986739977022
 20
690.27319397416034
 30
0.0
 40
140.83333333333121
 50
351.98387862436857
 51
8.0161213756313785
  0
LINE
  5
FFD
  8
0
 10
583.53756083049859
 20
669.66326499264551
 30
0.0
 11
573.53200733103336
 21
669.66326499264505
 31
0.0
  0
LINE
  5
FFE
  8
0
 10
573.53200733103336
 20
669.77319397416011
 30
0.0
 11
587.18559574059509
 21
669.77319397416034
 31
0.0
  0
ARC
  5
FFF
  8
0
 10
576.0320073310337
 20
675.42715388153397
 30
0.0
 40
9.7638888888889532
 50
255.16445409931089
 51
292.60355901515521
  0
LINE
  5
1000
  8
0
 10
573.53200733103358
 20
665.66326499264505
 30
0.0
 11
581.66117245563225
 21
665.66326499264494
 31
0.0
  0
LINE
  5
1006
  8
0
 10
581.37697502465903
 20
672.27319397416034
 30
0.0
 11
612.03200733103097
 21
672.27319397416034
 31
0.0
  0
ARC
  5
1007
  8
0
 10
580.16567768851132
 20
670.77319397416045
 30
0.0
 40
1.0
 50
270.0
 51
351.98387862436857
  0
ARC
  5
1008
  8
0
 10
581.6611724556326
 20
668.38548721486723
 30
0.0
 40
2.7222222222221419
 50
270.0
 51
313.57357859652581
  0
ARC
  5
1009
  8
0
 10
581.6611724556326
 20
668.38548721486723
 30
0.0
 40
2.7222222222221419
 50
226.42642140347641
 51
270.00000000000159
  0
LINE
  5
100A
  8
0
 10
583.53756083049859
 20
669.66326499264494
 30
0.0
 11
583.53756083049859
 21
666.41326499264494
 31
0.0
  0
LINE
  5
100B
  8
0
 10
579.78478408076614
 20
669.66326499264505
 30
0.0
 11
579.78478408076614
 21
666.41326499264494
 31
0.0
  0
LINE
  5
100C
  8
0
  6
CENTER
 10
576.03200733103347
 20
672.77319397416034
 30
0.0
 11
576.0320073310337
 21
662.66326499264494
 31
0.0
  0
LINE
  5
100D
  8
0
 10
587.18559574059509
 20
669.77319397416034
 30
0.0
 11
587.18559574059509
 21
672.27319397416022
 31
0.0
  0
LINE
  5
1011
  8
0
 10
587.18559574059509
 20
710.77319397416045
 30
0.0
 11
587.18559574059509
 21
708.27319397416068
 31
0.0
  0
ARC
  5
1012
  8
0
 10
580.16567768851132
 20
709.77319397416045
 30
0.0
 40
1.0
 50
8.0161213756313785
 51
90.0
  0
ARC
  5
1013
  8
0
 10
580.16567768851132
 20
709.77319397416045
 30
0.0
 40
1.0
 50
8.0161213756313785
 51
90.0
  0
LINE
  5
1014
  8
0
  6
CENTER
 10
576.03200733103336
 20
720.66326499264505
 30
0.0
 11
576.03200733103347
 21
707.77319397416045
 31
0.0
  0
LINE
  5
1016
  8
0
 10
581.37697502465903
 20
708.27319397416056
 30
0.0
 11
612.03200733103506
 21
708.27319397416068
 31
0.0
  0
ARC
  5
1017
  8
0
 10
576.0320073310337
 20
705.11923406678682
 30
0.0
 40
9.7638888888889532
 50
67.396440984844816
 51
104.8355459006896
  0
LINE
  5
1018
  8
0
 10
573.18906320472945
 20
717.66326499264505
 30
0.0
 11
579.43200733103311
 21
717.66326499264483
 31
0.0
  0
LINE
  5
101B
  8
0
 10
583.53756083049859
 20
710.88312295567539
 30
0.0
 11
573.53200733103336
 21
710.8831229556755
 31
0.0
  0
LINE
  5
101C
  8
0
 10
573.53200733103336
 20
710.77319397416045
 30
0.0
 11
587.18559574059509
 21
710.77319397416045
 31
0.0
  0
ARC
  5
1024
  8
0
 10
581.6611724556326
 20
712.16090073345356
 30
0.0
 40
2.7222222222221419
 50
46.42642140347413
 51
90.0
  0
LINE
  5
1025
  8
0
 10
583.53756083049859
 20
710.88312295567584
 30
0.0
 11
583.53756083049859
 21
714.13312295567584
 31
0.0
  0
LINE
  5
1026
  8
0
 10
579.78478408076614
 20
710.88312295567584
 30
0.0
 11
579.78478408076614
 21
714.13312295567584
 31
0.0
  0
LINE
  5
1027
  8
0
 10
579.43200733103311
 20
717.66326499264483
 30
0.0
 11
580.03200733103336
 21
717.0632649926448
 31
0.0
  0
LINE
  5
1028
  8
0
 10
580.03200733103336
 20
717.0632649926448
 30
0.0
 11
580.03200733103336
 21
714.88312295567584
 31
0.0
  0
LINE
  5
1029
  8
0
 10
579.43200733103311
 20
710.88312295567562
 30
0.0
 11
579.43200733103311
 21
710.77319397416045
 31
0.0
  0
LINE
  5
102A
  8
0
 10
579.43200733103311
 20
717.66326499264483
 30
0.0
 11
579.43200733103311
 21
714.88312295567584
 31
0.0
  0
ARC
  5
102B
  8
0
 10
581.6611724556326
 20
712.16090073345356
 30
0.0
 40
2.7222222222221419
 50
89.999999999998366
 51
133.5735785965235
  0
ARC
  5
102D
  8
0
 10
71.222690832546959
 20
840.20549431299787
 30
0.0
 40
57.63648205005925
 50
199.5728159093903
 51
213.1029594044457
  0
LINE
  5
102F
  8
0
 10
18.338811329638698
 20
889.35652179136935
 30
0.0
 11
75.738811329638793
 21
889.35652179136912
 31
0.0
  0
LINE
  5
1030
  8
0
  6
CENTER
 10
79.428882348123352
 20
805.60652179136935
 30
0.0
 11
14.64874031115415
 21
805.606521791369
 31
0.0
  0
ARC
  5
1032
  8
0
 10
18.338811329638698
 20
887.35652179136912
 30
0.0
 40
2.0
 50
89.999999999999886
 51
180.0
  0
LINE
  5
1033
  8
0
 10
16.338811329638698
 20
887.35652179136912
 30
0.0
 11
16.338811329638698
 21
824.24705507621741
 31
0.0
  0
ARC
  5
1034
  8
0
 10
26.338811329638709
 20
824.24705507621741
 30
0.0
 40
10.0
 50
180.0000000000006
 51
199.5728159093901
  0
ARC
  5
1038
  8
0
 10
75.738811329638793
 20
887.35652179136912
 30
0.0
 40
2.0
 50
0.000000000000007
 51
90.000000000000114
  0
LINE
  5
1039
  8
0
  6
CENTER
 10
142.3347290167201
 20
884.35652179136935
 30
0.0
 11
142.3347290167201
 21
906.10652179136935
 31
0.0
  0
LINE
  5
103A
  8
0
  6
CENTER
 10
47.03881132963874
 20
908.10652179136912
 30
0.0
 11
47.03881132963874
 21
738.10652179136912
 31
0.0
  0
LINE
  5
103B
  8
0
 10
74.428882348123466
 20
809.0065217913691
 30
0.0
 11
74.428882348123125
 21
802.20652179136948
 31
0.0
  0
LINE
  5
103C
  8
0
 10
73.828882348123443
 20
809.60652179136912
 30
0.0
 11
73.828882348123102
 21
801.60652179136946
 31
0.0
  0
ARC
  5
103D
  8
0
 10
61.884851422265108
 20
805.606521791369
 30
0.0
 40
9.7638888888889532
 50
337.39644098484479
 51
22.60355901515517
  0
ARC
  5
103E
  8
0
 10
32.19277123701238
 20
805.606521791369
 30
0.0
 40
9.7638888888889532
 50
157.39644098484479
 51
202.60355901515521
  0
LINE
  5
103F
  8
0
 10
71.648740311154015
 20
811.2356869159679
 30
0.0
 11
71.648740311154256
 21
799.97735666677045
 31
0.0
  0
LINE
  5
1040
  8
0
 10
63.038811329638747
 20
861.19401810405429
 30
0.0
 11
63.038811329638747
 21
750.01902547868417
 31
0.0
  0
LINE
  5
1041
  8
0
 10
22.428882348123469
 20
811.2356869159679
 30
0.0
 11
22.428882348123238
 21
799.97735666677045
 31
0.0
  0
LINE
  5
1042
  8
0
 10
31.038811329638751
 20
861.19401810405429
 30
0.0
 11
31.038811329638751
 21
750.01902547868417
 31
0.0
  0
LINE
  5
1043
  8
0
 10
66.538811329638975
 20
885.4826658509761
 30
0.0
 11
66.538811329638733
 21
791.87554644016222
 31
0.0
  0
LINE
  5
1044
  8
0
 10
64.538811329638861
 20
884.98266585097576
 30
0.0
 11
64.538811329638747
 21
780.60652179136912
 31
0.0
  0
LINE
  5
1045
  8
0
 10
27.538811329638531
 20
885.4826658509761
 30
0.0
 11
27.538811329638751
 21
791.87554644016222
 31
0.0
  0
LINE
  5
1046
  8
0
 10
29.538811329638641
 20
884.98266585097576
 30
0.0
 11
29.538811329638641
 21
780.60652179136889
 31
0.0
  0
LINE
  5
1047
  8
0
 10
64.538811329638861
 20
791.87554644016222
 30
0.0
 11
66.538811329638733
 21
791.87554644016234
 31
0.0
  0
LINE
  5
1048
  8
0
 10
64.538811329638747
 20
780.60652179136912
 30
0.0
 11
63.038811329638747
 21
764.10652179136889
 31
0.0
  0
LINE
  5
1049
  8
0
 10
29.538811329638751
 20
780.60652179136912
 30
0.0
 11
31.038811329638751
 21
764.10652179136889
 31
0.0
  0
ARC
  5
104A
  8
0
 10
47.03881132963874
 20
771.20652179136903
 30
0.0
 40
28.09999999999993
 50
239.46064452340951
 51
300.53935547659017
  0
ARC
  5
104B
  8
0
 10
34.538811329638747
 20
750.01902547868417
 30
0.0
 40
3.5
 50
180.0
 51
239.4606445234094
  0
LINE
  5
104C
  8
0
 10
31.038811329638751
 20
764.10652179136889
 30
0.0
 11
31.038811329638751
 21
750.01902547868417
 31
0.0
  0
ARC
  5
104D
  8
0
 10
59.538811329638747
 20
750.01902547868417
 30
0.0
 40
3.5
 50
300.53935547658972
 51
0.0
  0
LINE
  5
104E
  8
0
 10
27.538811329638751
 20
801.85374504163644
 30
0.0
 11
23.178882348123238
 21
801.85374504163644
 31
0.0
  0
LINE
  5
104F
  8
0
 10
29.538811329638641
 20
791.87554644016222
 30
0.0
 11
27.538811329638751
 21
791.87554644016234
 31
0.0
  0
ARC
  5
1050
  8
0
 10
25.151104570345531
 20
799.97735666677033
 30
0.0
 40
2.7222222222221419
 50
180.0
 51
223.57357859652581
  0
LINE
  5
1051
  8
0
 10
27.538811329638751
 20
798.10096829190411
 30
0.0
 11
23.178882348123238
 21
798.10096829190411
 31
0.0
  0
ARC
  5
1052
  8
0
 10
25.151104570345531
 20
799.97735666677033
 30
0.0
 40
2.7222222222221419
 50
136.42642140347641
 51
180.00000000000159
  0
LINE
  5
1053
  8
0
 10
74.428882348123125
 20
802.20652179136948
 30
0.0
 11
71.648740311154143
 21
802.20652179136948
 31
0.0
  0
LINE
  5
1054
  8
0
 10
73.828882348123102
 20
801.60652179136946
 30
0.0
 11
71.648740311154256
 21
801.60652179136912
 31
0.0
  0
LINE
  5
1055
  8
0
 10
74.428882348123125
 20
802.20652179136948
 30
0.0
 11
73.828882348123102
 21
801.60652179136946
 31
0.0
  0
LINE
  5
1056
  8
0
 10
66.538811329638733
 20
801.85374504163644
 30
0.0
 11
70.898740311154256
 21
801.85374504163644
 31
0.0
  0
LINE
  5
1057
  8
0
 10
66.538811329638733
 20
798.10096829190411
 30
0.0
 11
70.898740311154256
 21
798.10096829190411
 31
0.0
  0
ARC
  5
1058
  8
0
 10
68.926518088931971
 20
799.97735666677033
 30
0.0
 40
2.7222222222221419
 50
316.42642140347402
 51
0.0
  0
ARC
  5
1059
  8
0
 10
68.926518088931971
 20
799.97735666677033
 30
0.0
 40
2.7222222222221419
 50
359.99999999999829
 51
43.573578596523539
  0
ARC
  5
105A
  8
0
 10
63.538811329638982
 20
885.4826658509761
 30
0.0
 40
3.0
 50
359.99999999999989
 51
90.0
  0
ARC
  5
105C
  8
0
 10
25.151104570345531
 20
811.23568691596813
 30
0.0
 40
2.7222222222221419
 50
179.99999999999829
 51
223.5735785965235
  0
ARC
  5
105D
  8
0
 10
25.151104570345531
 20
811.23568691596813
 30
0.0
 40
2.7222222222221419
 50
136.42642140347411
 51
180.0
  0
LINE
  5
105E
  8
0
 10
27.538811329638751
 20
813.11207529083435
 30
0.0
 11
23.178882348123359
 21
813.11207529083424
 31
0.0
  0
LINE
  5
105F
  8
0
 10
27.538811329638751
 20
809.35929854110191
 30
0.0
 11
23.178882348123359
 21
809.35929854110168
 31
0.0
  0
LINE
  5
1061
  8
0
 10
63.538811329638982
 20
888.48266585097599
 30
0.0
 11
30.53881132963852
 21
888.48266585097599
 31
0.0
  0
LINE
  5
1062
  8
0
 10
63.038811329638861
 20
886.48266585097588
 30
0.0
 11
31.038811329638641
 21
886.48266585097588
 31
0.0
  0
ARC
  5
1065
  8
0
 10
31.038811329638641
 20
884.98266585097576
 30
0.0
 40
1.5
 50
90.000000000000028
 51
180.0
  0
ARC
  5
1066
  8
0
 10
30.53881132963852
 20
885.4826658509761
 30
0.0
 40
3.0
 50
90.0
 51
180.0
  0
ARC
  5
1068
  8
0
 10
63.038811329638861
 20
884.98266585097576
 30
0.0
 40
1.5
 50
359.99999999999989
 51
89.999999999999986
  0
LINE
  5
1069
  8
0
 10
77.738811329638793
 20
887.35652179136912
 30
0.0
 11
77.73881132963902
 21
824.24705507621775
 31
0.0
  0
ARC
  5
106A
  8
0
 10
67.738811329638906
 20
824.24705507621775
 30
0.0
 40
10.0
 50
340.4271840906099
 51
0.0
  0
LINE
  5
106B
  8
0
 10
74.428882348123466
 20
809.0065217913691
 30
0.0
 11
73.828882348123443
 21
809.60652179136912
 31
0.0
  0
LINE
  5
106C
  8
0
 10
73.828882348123443
 20
809.60652179136912
 30
0.0
 11
71.648740311154256
 21
809.60652179136912
 31
0.0
  0
LINE
  5
106D
  8
0
 10
74.428882348123125
 20
809.0065217913691
 30
0.0
 11
71.648740311154143
 21
809.0065217913691
 31
0.0
  0
LINE
  5
106E
  8
0
 10
66.538811329638733
 20
809.35929854110168
 30
0.0
 11
70.898740311154143
 21
809.35929854110168
 31
0.0
  0
LINE
  5
106F
  8
0
 10
66.538811329638733
 20
813.11207529083424
 30
0.0
 11
70.898740311154143
 21
813.11207529083424
 31
0.0
  0
ARC
  5
1070
  8
0
 10
68.926518088931971
 20
811.23568691596813
 30
0.0
 40
2.7222222222221419
 50
316.42642140347641
 51
0.000000000001603
  0
ARC
  5
1071
  8
0
 10
68.926518088931971
 20
811.23568691596813
 30
0.0
 40
2.7222222222221419
 50
0.0
 51
43.573578596525849
  0
ARC
  5
1072
  8
0
 10
22.854931826730539
 20
840.20549431299787
 30
0.0
 40
57.636482050059328
 50
327.84145925419239
 51
340.4271840906099
  0
LINE
  5
1073
  8
0
  6
CENTER
 10
183.3347290167201
 20
738.10652179136912
 30
0.0
 11
183.3347290167201
 21
873.10652179136912
 31
0.0
  0
CIRCLE
  5
1074
  8
0
 10
183.3347290167201
 20
805.606521791369
 30
0.0
 40
6.5
  0
POLYLINE
  5
1075
  8
0
 66
     1
 10
0.0
 20
0.0
 30
0.0
 70
     1
  0
VERTEX
  5
1E2F
  8
0
 10
179.5819522669876
 20
812.10652179136923
 30
0.0
  0
VERTEX
  5
1E30
  8
0
 10
175.82917551725501
 20
805.606521791369
 30
0.0
  0
VERTEX
  5
1E31
  8
0
 10
179.5819522669876
 20
799.10652179136912
 30
0.0
  0
VERTEX
  5
1E32
  8
0
 10
187.08750576645269
 20
799.10652179136912
 30
0.0
  0
VERTEX
  5
1E33
  8
0
 10
190.84028251618531
 20
805.606521791369
 30
0.0
  0
VERTEX
  5
1E34
  8
0
 10
187.08750576645269
 20
812.10652179136923
 30
0.0
  0
SEQEND
  5
1E35
  8
0
  0
ARC
  5
1078
  8
0
 10
-207.0662066828101
 20
816.02588354442605
 30
0.0
 40
401.5550794610736
 50
358.16857562041901
 51
10.04396314224365
  0
ARC
  5
1079
  8
0
 10
181.42826162296549
 20
804.87554644016222
 30
0.0
 40
13.0
 50
258.44125227686152
 51
349.22731283228251
  0
ARC
  5
107A
  8
0
 10
189.28727333156061
 20
803.38024213529127
 30
0.0
 40
5.0
 50
349.22731283228251
 51
357.84936409849018
  0
LINE
  5
107B
  8
0
 10
113.95704614294711
 20
889.35652179136935
 30
0.0
 11
170.3347290167203
 21
889.35652179136935
 31
0.0
  0
ARC
  5
107C
  8
0
 10
113.95704614294711
 20
887.85652179136935
 30
0.0
 40
1.5
 50
90.0
 51
178.1438136990557
  0
LINE
  5
107D
  8
0
 10
112.33472901672
 20
884.10652179136923
 30
0.0
 11
112.45783322704941
 21
887.90510813518836
 31
0.0
  0
LINE
  5
1080
  8
0
 10
170.3347290167203
 20
889.35652179136935
 30
0.0
 11
189.83472901671999
 21
888.48266585097599
 31
0.0
  0
LINE
  5
1081
  8
0
 10
188.33472901671999
 20
886.05860367526941
 30
0.0
 11
189.83472901671999
 21
885.97916222614288
 31
0.0
  0
LINE
  5
1082
  8
0
 10
189.83472901671999
 20
888.48266585097599
 30
0.0
 11
189.8347290167201
 21
885.97916222614288
 31
0.0
  0
LINE
  5
1083
  8
0
 10
188.33472901671999
 20
888.56210730010275
 30
0.0
 11
188.33472901671999
 21
886.05860367526941
 31
0.0
  0
ARC
  5
1094
  8
0
 10
329.07824766091579
 20
887.35652179136935
 30
0.0
 40
2.0
 50
0.000000000000007
 51
90.000000000000114
  0
ARC
  5
1096
  8
0
 10
271.6782476609157
 20
887.35652179136935
 30
0.0
 40
2.0
 50
89.999999999999886
 51
180.0
  0
ARC
  5
1097
  8
0
 10
309.0569519357021
 20
844.797566381553
 30
0.0
 40
39.420986273301089
 50
104.5765092226293
 51
177.3460638742998
  0
ARC
  5
1098
  8
0
 10
313.4526111343377
 20
843.49175370972398
 30
0.0
 40
41.855597581611711
 50
110.754923797977
 51
183.57026400069071
  0
ARC
  5
1099
  8
0
 10
291.69954338612951
 20
844.797566381553
 30
0.0
 40
39.420986273301018
 50
2.6539361257016392
 51
75.423490777370773
  0
ARC
  5
109A
  8
0
 10
287.30388418749402
 20
843.49175370972375
 30
0.0
 40
41.85559758161159
 50
356.4297359993094
 51
69.245076202023824
  0
LINE
  5
109B
  8
0
  6
CENTER
 10
300.3782476609158
 20
908.10652179136935
 30
0.0
 11
300.3782476609158
 21
738.10652179136912
 31
0.0
  0
LINE
  5
109C
  8
0
 10
271.6782476609157
 20
889.35652179136935
 30
0.0
 11
329.07824766091579
 21
889.35652179136935
 31
0.0
  0
LINE
  5
109F
  8
0
  6
CENTER
 10
332.76831867940041
 20
805.60652179136935
 30
0.0
 11
270.76831867940041
 21
805.606521791369
 31
0.0
  0
ARC
  5
10A0
  8
0
 10
285.53220756828938
 20
805.606521791369
 30
0.0
 40
9.7638888888889532
 50
161.3578952510922
 51
202.60355901515521
  0
ARC
  5
10A1
  8
0
 10
324.56212716382402
 20
840.20549431299787
 30
0.0
 40
57.63648205005925
 50
199.5728159093903
 51
220.71877235022359
  0
ARC
  5
10A2
  8
0
 10
324.56212716382402
 20
840.20549431299787
 30
0.0
 40
55.636482050059243
 50
200.00141657396281
 51
221.4772760756577
  0
LINE
  5
10A4
  8
0
 10
275.76831867940052
 20
809.52767958162872
 30
0.0
 11
275.76831867940029
 21
799.97735666677045
 31
0.0
  0
LINE
  5
10A5
  8
0
 10
282.87824766091558
 20
780.60652179136935
 30
0.0
 11
282.87824766091558
 21
872.07670337049638
 31
0.0
  0
LINE
  5
10A9
  8
0
 10
280.8782476609158
 20
801.85374504163644
 30
0.0
 11
276.51831867940018
 21
801.85374504163644
 31
0.0
  0
LINE
  5
10AA
  8
0
 10
280.8782476609158
 20
798.10096829190411
 30
0.0
 11
276.51831867940018
 21
798.10096829190411
 31
0.0
  0
ARC
  5
10AB
  8
0
 10
278.49054090162252
 20
799.97735666677033
 30
0.0
 40
2.7222222222221419
 50
180.0
 51
223.57357859652581
  0
LINE
  5
10AC
  8
0
 10
282.87824766091558
 20
791.87554644016222
 30
0.0
 11
280.8782476609158
 21
791.87554644016234
 31
0.0
  0
ARC
  5
10AD
  8
0
 10
278.49054090162252
 20
799.97735666677033
 30
0.0
 40
2.7222222222221419
 50
136.42642140347641
 51
180.00000000000159
  0
LINE
  5
10AE
  8
0
 10
280.8782476609158
 20
802.60652179136889
 30
0.0
 11
280.8782476609158
 21
791.87554644016222
 31
0.0
  0
LINE
  5
10AF
  8
0
 10
271.6782476609157
 20
840.88529916297841
 30
0.0
 11
271.6782476609157
 21
824.59583792070646
 31
0.0
  0
LINE
  5
10B0
  8
0
 10
269.6782476609157
 20
887.35652179136935
 30
0.0
 11
269.6782476609157
 21
824.24705507621741
 31
0.0
  0
ARC
  5
10B1
  8
0
 10
281.6782476609157
 20
824.59583792070646
 30
0.0
 40
10.0
 50
180.0
 51
200.00141657396281
  0
ARC
  5
10B2
  8
0
 10
279.6782476609157
 20
824.24705507621741
 30
0.0
 40
10.0
 50
180.0000000000006
 51
199.57281590939019
  0
LINE
  5
10B5
  8
0
 10
327.1683186794005
 20
809.60652179136912
 30
0.0
 11
327.1683186794001
 21
801.60652179136946
 31
0.0
  0
LINE
  5
10B6
  8
0
 10
327.76831867940052
 20
809.0065217913691
 30
0.0
 11
327.76831867940012
 21
802.20652179136948
 31
0.0
  0
ARC
  5
10B7
  8
0
 10
315.22428775354211
 20
805.606521791369
 30
0.0
 40
9.7638888888889532
 50
337.39644098484479
 51
18.642104748907741
  0
ARC
  5
10B8
  8
0
 10
276.19436815800748
 20
840.20549431299787
 30
0.0
 40
57.636482050059328
 50
319.28122764977633
 51
340.4271840906099
  0
ARC
  5
10B9
  8
0
 10
276.19436815800748
 20
840.20549431299787
 30
0.0
 40
55.636482050059243
 50
318.52272392434219
 51
341.90175049065942
  0
LINE
  5
10BB
  8
0
 10
324.98817664243097
 20
809.60652179136935
 30
0.0
 11
324.98817664243131
 21
799.97735666677045
 31
0.0
  0
LINE
  5
10BC
  8
0
 10
317.87824766091592
 20
780.60652179136935
 30
0.0
 11
317.87824766091592
 21
872.07670337049638
 31
0.0
  0
LINE
  5
10BF
  8
0
 10
317.87824766091592
 20
791.87554644016222
 30
0.0
 11
319.87824766091569
 21
791.87554644016234
 31
0.0
  0
LINE
  5
10C0
  8
0
 10
327.76831867940012
 20
802.20652179136948
 30
0.0
 11
327.1683186794001
 21
801.60652179136946
 31
0.0
  0
LINE
  5
10C1
  8
0
 10
319.87824766091569
 20
801.85374504163644
 30
0.0
 11
324.23817664243131
 21
801.85374504163644
 31
0.0
  0
LINE
  5
10C2
  8
0
 10
327.1683186794001
 20
801.60652179136946
 30
0.0
 11
324.98817664243131
 21
801.60652179136912
 31
0.0
  0
LINE
  5
10C3
  8
0
 10
327.76831867940012
 20
802.20652179136948
 30
0.0
 11
324.9881766424312
 21
802.20652179136948
 31
0.0
  0
ARC
  5
10C4
  8
0
 10
322.26595442020903
 20
799.97735666677033
 30
0.0
 40
2.7222222222221419
 50
316.42642140347402
 51
0.0
  0
LINE
  5
10C5
  8
0
 10
319.87824766091569
 20
798.10096829190411
 30
0.0
 11
324.23817664243131
 21
798.10096829190411
 31
0.0
  0
ARC
  5
10C6
  8
0
 10
322.26595442020903
 20
799.97735666677033
 30
0.0
 40
2.7222222222221419
 50
359.99999999999829
 51
43.573578596523539
  0
LINE
  5
10C7
  8
0
 10
319.87824766091569
 20
802.60652179136912
 30
0.0
 11
319.87824766091569
 21
791.87554644016222
 31
0.0
  0
LINE
  5
10C8
  8
0
 10
329.07824766091579
 20
840.88529916297875
 30
0.0
 11
329.07824766091579
 21
822.92216640346476
 31
0.0
  0
LINE
  5
10C9
  8
0
 10
331.07824766091579
 20
887.35652179136935
 30
0.0
 11
331.07824766091579
 21
824.24705507621741
 31
0.0
  0
ARC
  5
10CB
  8
0
 10
321.07824766091579
 20
824.24705507621775
 30
0.0
 40
10.0
 50
340.42718409061001
 51
359.99999999999932
  0
ARC
  5
10CC
  8
0
 10
321.07824766091579
 20
824.24705507621741
 30
0.0
 40
10.0
 50
340.42718409060973
 51
359.99999999999932
  0
LINE
  5
10CD
  8
0
 10
327.76831867940052
 20
809.0065217913691
 30
0.0
 11
327.1683186794005
 21
809.60652179136912
 31
0.0
  0
LINE
  5
10CE
  8
0
 10
327.76831867940012
 20
809.0065217913691
 30
0.0
 11
324.9881766424312
 21
809.0065217913691
 31
0.0
  0
LINE
  5
10CF
  8
0
 10
327.1683186794005
 20
809.60652179136912
 30
0.0
 11
324.98817664243131
 21
809.60652179136912
 31
0.0
  0
ARC
  5
10D8
  8
0
 10
183.3347290167201
 20
805.606521791369
 30
0.0
 40
62.5
 50
146.8342925136711
 51
82.806307718499212
  0
ARC
  5
10DE
  8
0
 10
183.3347290167201
 20
805.606521791369
 30
0.0
 40
56.5
 50
149.50627970454349
 51
81.268984369513106
  0
ARC
  5
10DF
  8
0
 10
183.3347290167201
 20
805.606521791369
 30
0.0
 40
42.5
 50
157.34540438176171
 51
76.441268763587786
  0
ARC
  5
10E0
  8
0
 10
183.3347290167201
 20
805.606521791369
 30
0.0
 40
40.0
 50
159.12670454229169
 51
75.288876259140793
  0
ARC
  5
10E1
  8
0
 10
183.3347290167201
 20
805.606521791369
 30
0.0
 40
25.0
 50
175.8658347905251
 51
63.963740619127769
  0
ARC
  5
1161
  8
0
 10
258.10537457649951
 20
919.47485357398443
 30
0.0
 40
150.0
 50
193.6381290159523
 51
238.09270809252681
  0
LINE
  5
11DE
  8
0
 10
162.98831742628181
 20
809.65057912456746
 30
0.0
 11
162.98831742628181
 21
884.4766635083397
 31
0.0
  0
LINE
  5
11DF
  8
0
 10
169.48831742628181
 20
803.34195159541594
 30
0.0
 11
169.48831742628181
 21
884.4766635083397
 31
0.0
  0
ARC
  5
11E2
  8
0
 10
47.03881132963874
 20
840.00652179136932
 30
0.0
 40
28.09999999999993
 50
59.460644523409719
 51
120.5393554765904
  0
ARC
  5
11E3
  8
0
 10
34.538811329638747
 20
861.19401810405429
 30
0.0
 40
3.5
 50
120.5393554765906
 51
180.0
  0
ARC
  5
11E4
  8
0
 10
59.538811329638747
 20
861.19401810405429
 30
0.0
 40
3.5
 50
0.0
 51
59.460644523410231
  0
LINE
  5
11E5
  8
0
 10
64.538811329638747
 20
830.60652179136935
 30
0.0
 11
63.038811329638747
 21
847.10652179136946
 31
0.0
  0
LINE
  5
11E6
  8
0
 10
29.538811329638751
 20
830.60652179136935
 30
0.0
 11
31.038811329638751
 21
847.10652179136946
 31
0.0
  0
ARC
  5
1229
  8
0
 10
300.37824766091552
 20
877.95039431465739
 30
0.0
 40
5.0
 50
69.414016925310548
 51
110.5859830746906
  0
ARC
  5
122A
  8
0
 10
300.3782476609158
 20
878.10652179136923
 30
0.0
 40
5.0
 50
75.611501730800114
 51
104.3884982691998
  0
ARC
  5
1269
  8
0
 10
300.3782476609158
 20
840.00652179136932
 30
0.0
 40
28.09999999999993
 50
59.460644523409719
 51
120.5393554765904
  0
ARC
  5
126A
  8
0
 10
312.8782476609158
 20
861.19401810405429
 30
0.0
 40
3.5
 50
0.0
 51
59.460644523410231
  0
ARC
  5
126B
  8
0
 10
287.8782476609158
 20
861.19401810405429
 30
0.0
 40
3.5
 50
120.5393554765906
 51
180.0
  0
LINE
  5
126C
  8
0
 10
282.8782476609158
 20
830.60652179136935
 30
0.0
 11
284.3782476609158
 21
847.10652179136946
 31
0.0
  0
LINE
  5
126D
  8
0
 10
317.87824766091569
 20
830.60652179136935
 30
0.0
 11
316.3782476609158
 21
847.10652179136946
 31
0.0
  0
LINE
  5
126E
  8
0
 10
284.3782476609158
 20
861.19401810405429
 30
0.0
 11
284.3782476609158
 21
750.01902547868417
 31
0.0
  0
LINE
  5
126F
  8
0
 10
316.3782476609158
 20
861.19401810405429
 30
0.0
 11
316.3782476609158
 21
750.01902547868417
 31
0.0
  0
LINE
  5
1270
  8
0
 10
317.87824766091569
 20
780.60652179136912
 30
0.0
 11
316.3782476609158
 21
764.10652179136889
 31
0.0
  0
ARC
  5
1271
  8
0
 10
300.3782476609158
 20
771.20652179136903
 30
0.0
 40
28.09999999999993
 50
239.46064452340951
 51
300.53935547659017
  0
ARC
  5
1272
  8
0
 10
312.8782476609158
 20
750.01902547868417
 30
0.0
 40
3.5
 50
300.53935547658972
 51
0.0
  0
LINE
  5
1273
  8
0
 10
282.8782476609158
 20
780.60652179136912
 30
0.0
 11
284.3782476609158
 21
764.10652179136889
 31
0.0
  0
ARC
  5
1274
  8
0
 10
287.8782476609158
 20
750.01902547868417
 30
0.0
 40
3.5
 50
180.0
 51
239.4606445234094
  0
LINE
  5
1275
  8
0
 10
284.3782476609158
 20
764.10652179136889
 30
0.0
 11
284.3782476609158
 21
750.01902547868417
 31
0.0
  0
ARC
  5
1277
  8
0
 10
626.93200733103356
 20
690.27319397416045
 30
0.0
 40
28.09999999999993
 50
329.4606445234096
 51
30.539355476590309
  0
ARC
  5
1278
  8
0
 10
648.1195036437183
 20
677.77319397416045
 30
0.0
 40
3.5
 50
270.0
 51
329.46064452340931
  0
LINE
  5
1279
  8
0
 10
634.0320073310337
 20
674.27319397416045
 30
0.0
 11
648.1195036437183
 21
674.27319397416045
 31
0.0
  0
ARC
  5
127A
  8
0
 10
648.11950364371842
 20
702.77319397416045
 30
0.0
 40
3.5
 50
30.539355476589751
 51
90.0
  0
LINE
  5
127B
  8
0
 10
612.03200733103358
 20
708.27319397416068
 30
0.0
 11
634.0320073310337
 21
706.27319397416045
 31
0.0
  0
LINE
  5
127C
  8
0
 10
581.62017977067887
 20
706.27319397416034
 30
0.0
 11
648.1195036437183
 21
706.27319397416045
 31
0.0
  0
LINE
  5
127D
  8
0
 10
612.03200733103199
 20
672.27319397416045
 30
0.0
 11
634.0320073310337
 21
674.27319397416045
 31
0.0
  0
LINE
  5
127E
  8
0
 10
581.62017977067899
 20
674.27319397416045
 30
0.0
 11
648.1195036437183
 21
674.27319397416045
 31
0.0
  0
LINE
  5
12BF
  8
0
  6
CENTER
 10
-229.5923864445522
 20
848.93284184022593
 30
0.0
 11
-229.5923864445522
 21
872.68284184022559
 31
0.0
  0
LINE
  5
1301
  8
0
 10
414.69216161636712
 20
921.08299022092854
 30
0.0
 11
472.09216161636732
 21
921.08299022092831
 31
0.0
  0
LINE
  5
1304
  8
0
 10
459.39216161636722
 20
918.2091342805353
 30
0.0
 11
427.39216161636699
 21
918.20913428053507
 31
0.0
  0
LINE
  5
1305
  8
0
 10
459.89216161636728
 20
920.2091342805353
 30
0.0
 11
426.89216161636699
 21
920.20913428053552
 31
0.0
  0
LINE
  5
1306
  8
0
  6
CENTER
 10
475.78223263485182
 20
824.83299022092876
 30
0.0
 11
411.00209059788273
 21
824.83299022092854
 31
0.0
  0
LINE
  5
130E
  8
0
 10
412.69216161636712
 20
919.08299022092854
 30
0.0
 11
412.69216161636712
 21
843.47352350577683
 31
0.0
  0
LINE
  5
130F
  8
0
 10
425.89216161636699
 20
916.70913428053507
 30
0.0
 11
425.89216161636699
 21
790.83299022092854
 31
0.0
  0
LINE
  5
1310
  8
0
 10
423.89216161636699
 20
917.2091342805353
 30
0.0
 11
423.89216161636722
 21
811.10201486972164
 31
0.0
  0
LINE
  5
1312
  8
0
 10
418.78223263485199
 20
830.46215534552732
 30
0.0
 11
418.78223263485171
 21
819.20382509632975
 31
0.0
  0
ARC
  5
1313
  8
0
 10
428.54612152374079
 20
824.83299022092854
 30
0.0
 40
9.7638888888889532
 50
157.39644098484479
 51
202.60355901515521
  0
LINE
  5
1314
  8
0
 10
425.89216161636722
 20
811.10201486972164
 30
0.0
 11
423.89216161636722
 21
811.10201486972176
 31
0.0
  0
ARC
  5
1315
  8
0
 10
421.50445485707399
 20
819.20382509632975
 30
0.0
 40
2.7222222222221419
 50
136.42642140347641
 51
180.00000000000159
  0
ARC
  5
1316
  8
0
 10
421.50445485707399
 20
819.20382509632975
 30
0.0
 40
2.7222222222221419
 50
180.0
 51
223.57357859652581
  0
LINE
  5
1317
  8
0
 10
423.89216161636722
 20
817.32743672146341
 30
0.0
 11
419.53223263485171
 21
817.32743672146341
 31
0.0
  0
LINE
  5
1318
  8
0
 10
423.89216161636722
 20
821.08021347119586
 30
0.0
 11
419.53223263485171
 21
821.08021347119586
 31
0.0
  0
ARC
  5
1319
  8
0
 10
467.57604111927537
 20
859.43196274255729
 30
0.0
 40
57.63648205005925
 50
199.5728159093903
 51
213.1029594044457
  0
ARC
  5
131A
  8
0
 10
422.69216161636717
 20
843.47352350577683
 30
0.0
 40
10.0
 50
180.0000000000006
 51
199.5728159093901
  0
ARC
  5
131B
  8
0
 10
421.50445485707399
 20
830.46215534552755
 30
0.0
 40
2.7222222222221419
 50
179.99999999999829
 51
223.5735785965235
  0
ARC
  5
131C
  8
0
 10
421.50445485707399
 20
830.46215534552755
 30
0.0
 40
2.7222222222221419
 50
136.42642140347411
 51
180.0
  0
LINE
  5
131D
  8
0
 10
423.89216161636722
 20
828.58576697066133
 30
0.0
 11
419.53223263485182
 21
828.5857669706611
 31
0.0
  0
LINE
  5
131E
  8
0
 10
423.89216161636722
 20
832.33854372039377
 30
0.0
 11
419.53223263485182
 21
832.33854372039366
 31
0.0
  0
ARC
  5
1321
  8
0
 10
414.69216161636712
 20
919.08299022092854
 30
0.0
 40
2.0
 50
89.999999999999886
 51
180.0
  0
ARC
  5
1323
  8
0
 10
427.39216161636699
 20
916.70913428053507
 30
0.0
 40
1.5
 50
90.000000000000028
 51
180.0
  0
ARC
  5
1324
  8
0
 10
426.89216161636699
 20
917.2091342805353
 30
0.0
 40
3.0
 50
90.0
 51
180.0
  0
LINE
  5
1329
  8
0
  6
CENTER
 10
580.03200733103336
 20
744.83299022092854
 30
0.0
 11
580.03200733103336
 21
904.83299022092854
 31
0.0
  0
LINE
  5
132D
  8
0
 10
700.68450741387699
 20
892.92048653361371
 30
0.0
 11
700.68450741387687
 21
756.74549390824359
 31
0.0
  0
LINE
  5
132E
  8
0
 10
732.68450741387676
 20
892.92048653361371
 30
0.0
 11
732.68450741387676
 21
756.74549390824359
 31
0.0
  0
LINE
  5
132F
  8
0
 10
734.18450741387687
 20
790.83299022092717
 30
0.0
 11
732.68450741387676
 21
774.33299022092694
 31
0.0
  0
LINE
  5
1330
  8
0
 10
699.18450741387676
 20
790.83299022092717
 30
0.0
 11
700.68450741387687
 21
774.33299022092694
 31
0.0
  0
LINE
  5
1331
  8
0
  6
CENTER
 10
716.68450741387687
 20
939.83299022092831
 30
0.0
 11
716.68450741387687
 21
744.83299022092854
 31
0.0
  0
ARC
  5
1370
  8
0
 10
716.68450741387687
 20
777.93299022092845
 30
0.0
 40
28.09999999999993
 50
239.46064452340951
 51
300.53935547659017
  0
ARC
  5
1371
  8
0
 10
704.18450741387687
 20
756.74549390824359
 30
0.0
 40
3.5
 50
180.0
 51
239.4606445234094
  0
LINE
  5
1372
  8
0
 10
700.68450741387687
 20
774.33299022092694
 30
0.0
 11
700.68450741387687
 21
756.74549390824359
 31
0.0
  0
ARC
  5
1373
  8
0
 10
729.18450741387687
 20
756.74549390824359
 30
0.0
 40
3.5
 50
300.53935547658972
 51
0.0
  0
LINE
  5
1376
  8
0
 10
687.98450741387683
 20
921.08299022092854
 30
0.0
 11
745.38450741387692
 21
921.08299022092831
 31
0.0
  0
ARC
  5
1377
  8
0
 10
744.68631016145821
 20
864.97587861716363
 30
0.0
 40
58.708301063794927
 50
124.87759273495151
 51
179.1475040975121
  0
ARC
  5
1378
  8
0
 10
750.12458313062211
 20
864.19412531038552
 30
0.0
 40
62.274028732845913
 50
129.5940175930761
 51
183.75870529830931
  0
LINE
  5
1379
  8
0
 10
697.18450741387676
 20
817.32743672146341
 30
0.0
 11
692.82457843236125
 21
817.32743672146341
 31
0.0
  0
LINE
  5
137A
  8
0
 10
697.18450741387676
 20
821.08021347119586
 30
0.0
 11
692.82457843236125
 21
821.08021347119586
 31
0.0
  0
ARC
  5
137B
  8
0
 10
740.86838691678508
 20
859.43196274255729
 30
0.0
 40
57.63648205005925
 50
199.5728159093903
 51
220.71877235022359
  0
ARC
  5
137C
  8
0
 10
740.86838691678508
 20
859.43196274255729
 30
0.0
 40
55.636482050059243
 50
200.00141657396281
 51
221.4772760756577
  0
LINE
  5
137D
  8
0
  6
CENTER
 10
749.07457843236136
 20
824.83299022092876
 30
0.0
 11
684.29443639539227
 21
824.83299022092854
 31
0.0
  0
LINE
  5
137F
  8
0
 10
506.65432445726037
 20
921.08299022092865
 30
0.0
 11
563.03200733103347
 21
921.08299022092854
 31
0.0
  0
ARC
  5
1382
  8
0
 10
683.29803742914135
 20
960.10232538603987
 30
0.0
 40
183.6805692578844
 50
193.9463136866633
 51
234.07221814006141
  0
LINE
  5
1383
  8
0
  6
CENTER
 10
500.03200733103353
 20
824.83299022092854
 30
0.0
 11
660.03200733103336
 21
824.83299022092854
 31
0.0
  0
LINE
  5
1384
  8
0
 10
555.68559574059498
 20
837.69854610710775
 30
0.0
 11
555.68559574059498
 21
916.20313193789889
 31
0.0
  0
LINE
  5
1385
  8
0
 10
474.09216161636732
 20
919.08299022092854
 30
0.0
 11
474.09216161636749
 21
843.47352350577717
 31
0.0
  0
LINE
  5
1386
  8
0
 10
460.89216161636722
 20
916.70913428053507
 30
0.0
 11
460.89216161636722
 21
799.83299022092854
 31
0.0
  0
LINE
  5
1387
  8
0
 10
462.89216161636728
 20
917.2091342805353
 30
0.0
 11
462.89216161636728
 21
811.10201486972164
 31
0.0
  0
LINE
  5
1389
  8
0
 10
468.00209059788261
 20
830.46215534552732
 30
0.0
 11
468.00209059788273
 21
819.20382509632975
 31
0.0
  0
LINE
  5
138A
  8
0
 10
470.18223263485191
 20
828.83299022092865
 30
0.0
 11
470.18223263485157
 21
820.83299022092888
 31
0.0
  0
ARC
  5
138B
  8
0
 10
458.23820170899359
 20
824.83299022092854
 30
0.0
 40
9.7638888888889532
 50
337.39644098484479
 51
22.60355901515517
  0
LINE
  5
138C
  8
0
 10
470.78223263485188
 20
828.23299022092851
 30
0.0
 11
470.7822326348516
 21
821.4329902209289
 31
0.0
  0
ARC
  5
138D
  8
0
 10
465.27986837566039
 20
819.20382509632975
 30
0.0
 40
2.7222222222221419
 50
359.99999999999829
 51
43.573578596523539
  0
ARC
  5
138E
  8
0
 10
465.27986837566039
 20
819.20382509632975
 30
0.0
 40
2.7222222222221419
 50
316.42642140347402
 51
0.0
  0
LINE
  5
138F
  8
0
 10
470.7822326348516
 20
821.4329902209289
 30
0.0
 11
470.18223263485157
 21
820.83299022092888
 31
0.0
  0
LINE
  5
1390
  8
0
 10
470.18223263485157
 20
820.83299022092888
 30
0.0
 11
468.00209059788273
 21
820.83299022092854
 31
0.0
  0
LINE
  5
1391
  8
0
 10
470.7822326348516
 20
821.4329902209289
 30
0.0
 11
468.00209059788261
 21
821.4329902209289
 31
0.0
  0
LINE
  5
1392
  8
0
 10
460.89216161636739
 20
811.10201486972164
 30
0.0
 11
462.89216161636728
 21
811.10201486972176
 31
0.0
  0
LINE
  5
1393
  8
0
 10
462.89216161636728
 20
817.32743672146341
 30
0.0
 11
467.25209059788273
 21
817.32743672146341
 31
0.0
  0
LINE
  5
1394
  8
0
 10
462.89216161636728
 20
821.08021347119586
 30
0.0
 11
467.25209059788273
 21
821.08021347119586
 31
0.0
  0
ARC
  5
1395
  8
0
 10
464.09216161636738
 20
843.47352350577717
 30
0.0
 40
10.0
 50
340.4271840906099
 51
0.0
  0
ARC
  5
1396
  8
0
 10
419.20828211345901
 20
859.43196274255752
 30
0.0
 40
57.636482050059328
 50
327.84145925419239
 51
340.4271840906099
  0
ARC
  5
1397
  8
0
 10
465.27986837566039
 20
830.46215534552755
 30
0.0
 40
2.7222222222221419
 50
316.42642140347641
 51
0.000000000001603
  0
LINE
  5
1398
  8
0
 10
470.78223263485188
 20
828.23299022092851
 30
0.0
 11
470.18223263485191
 21
828.83299022092865
 31
0.0
  0
LINE
  5
1399
  8
0
 10
470.7822326348516
 20
828.23299022092851
 30
0.0
 11
468.00209059788261
 21
828.23299022092851
 31
0.0
  0
LINE
  5
139A
  8
0
 10
470.18223263485191
 20
828.83299022092865
 30
0.0
 11
468.00209059788273
 21
828.83299022092865
 31
0.0
  0
ARC
  5
139B
  8
0
 10
465.27986837566039
 20
830.46215534552755
 30
0.0
 40
2.7222222222221419
 50
0.0
 51
43.573578596525849
  0
LINE
  5
139C
  8
0
 10
462.89216161636728
 20
828.5857669706611
 30
0.0
 11
467.25209059788261
 21
828.5857669706611
 31
0.0
  0
LINE
  5
139D
  8
0
 10
462.89216161636728
 20
832.33854372039366
 30
0.0
 11
467.25209059788261
 21
832.33854372039366
 31
0.0
  0
ARC
  5
13A0
  8
0
 10
459.89216161636728
 20
917.2091342805353
 30
0.0
 40
3.0
 50
359.99999999999989
 51
90.0
  0
ARC
  5
13A1
  8
0
 10
459.39216161636722
 20
916.70913428053507
 30
0.0
 40
1.5
 50
359.99999999999989
 51
89.999999999999986
  0
ARC
  5
13A2
  8
0
 10
472.09216161636732
 20
919.08299022092854
 30
0.0
 40
2.0
 50
0.000000000000007
 51
90.000000000000114
  0
LINE
  5
13A7
  8
0
 10
505.0320073310333
 20
915.83299022092854
 30
0.0
 11
505.15511154136271
 21
919.63157656474755
 31
0.0
  0
ARC
  5
13A9
  8
0
 10
506.65432445726037
 20
919.58299022092865
 30
0.0
 40
1.5
 50
90.0
 51
178.1438136990557
  0
LINE
  5
13AB
  8
0
  6
CENTER
 10
535.03200733103336
 20
916.08299022092876
 30
0.0
 11
535.03200733103336
 21
937.83299022092854
 31
0.0
  0
LINE
  5
13AC
  8
0
 10
685.98450741387671
 20
919.08299022092854
 30
0.0
 11
685.98450741387671
 21
843.47352350577683
 31
0.0
  0
LINE
  5
13AD
  8
0
 10
687.98450741387683
 20
860.11176759253783
 30
0.0
 11
687.98450741387683
 21
843.82230635026588
 31
0.0
  0
LINE
  5
13AE
  8
0
 10
562.18559574059509
 20
831.38991857795611
 30
0.0
 11
562.18559574059509
 21
916.20313193789889
 31
0.0
  0
ARC
  5
13AF
  8
0
 10
60.364043716269748
 20
837.18722985099043
 30
0.0
 40
530.82246016878116
 50
358.40575308825879
 51
8.7333277046366256
  0
POLYLINE
  5
13B0
  8
0
 66
     1
 10
0.0
 20
0.0
 30
0.0
 70
     1
  0
VERTEX
  5
1E36
  8
0
 10
576.27923058130079
 20
831.33299022092865
 30
0.0
  0
VERTEX
  5
1E37
  8
0
 10
572.52645383156835
 20
824.83299022092854
 30
0.0
  0
VERTEX
  5
1E38
  8
0
 10
576.27923058130079
 20
818.33299022092854
 30
0.0
  0
VERTEX
  5
1E39
  8
0
 10
583.78478408076603
 20
818.33299022092854
 30
0.0
  0
VERTEX
  5
1E3A
  8
0
 10
587.53756083049848
 20
824.83299022092854
 30
0.0
  0
VERTEX
  5
1E3B
  8
0
 10
583.78478408076603
 20
831.33299022092865
 30
0.0
  0
SEQEND
  5
1E3C
  8
0
  0
CIRCLE
  5
13B1
  8
0
 10
580.03200733103336
 20
824.83299022092854
 30
0.0
 40
6.5
  0
ARC
  5
13B2
  8
0
 10
578.12553993727875
 20
824.10201486972164
 30
0.0
 40
13.0
 50
258.44125227686152
 51
349.22731283228251
  0
ARC
  5
13B3
  8
0
 10
585.98455164587392
 20
822.60671056485069
 30
0.0
 40
5.0
 50
349.22731283228251
 51
357.84936409849018
  0
LINE
  5
13B4
  8
0
 10
692.07457843236148
 20
828.75414801118814
 30
0.0
 11
692.07457843236136
 21
819.20382509632975
 31
0.0
  0
ARC
  5
13B5
  8
0
 10
701.8384673212505
 20
824.83299022092854
 30
0.0
 40
9.7638888888889532
 50
161.3578952510922
 51
202.60355901515521
  0
ARC
  5
13B6
  8
0
 10
694.79680065458365
 20
819.20382509632975
 30
0.0
 40
2.7222222222221419
 50
136.42642140347641
 51
180.00000000000159
  0
ARC
  5
13B7
  8
0
 10
694.79680065458365
 20
819.20382509632975
 30
0.0
 40
2.7222222222221419
 50
180.0
 51
223.57357859652581
  0
ARC
  5
13B8
  8
0
 10
695.98450741387683
 20
843.47352350577683
 30
0.0
 40
10.0
 50
180.0000000000006
 51
199.57281590939019
  0
ARC
  5
13B9
  8
0
 10
697.98450741387683
 20
843.82230635026588
 30
0.0
 40
10.0
 50
180.0
 51
200.00141657396281
  0
LINE
  5
13BB
  8
0
 10
563.03200733103347
 20
921.08299022092854
 30
0.0
 11
586.53200733103336
 21
920.20913428053552
 31
0.0
  0
LINE
  5
13BD
  8
0
 10
585.03200733103336
 20
917.78507210482883
 30
0.0
 11
586.53200733103336
 21
917.70563065570207
 31
0.0
  0
LINE
  5
13BE
  8
0
 10
585.03200733103336
 20
920.28857572966206
 30
0.0
 11
585.03200733103336
 21
917.78507210482883
 31
0.0
  0
LINE
  5
13BF
  8
0
 10
586.53200733103336
 20
920.2091342805353
 30
0.0
 11
586.53200733103347
 21
917.70563065570207
 31
0.0
  0
ARC
  5
13C1
  8
0
 10
687.98450741387683
 20
919.08299022092854
 30
0.0
 40
2.0
 50
89.999999999999886
 51
180.0
  0
LINE
  5
13C3
  8
0
 10
747.38450741387692
 20
919.08299022092854
 30
0.0
 11
747.38450741387692
 21
843.47352350577683
 31
0.0
  0
LINE
  5
13C4
  8
0
 10
745.38450741387692
 20
860.11176759253806
 30
0.0
 11
745.38450741387692
 21
842.14863483302418
 31
0.0
  0
LINE
  5
13C5
  8
0
 10
699.18450741387676
 20
858.83299022092967
 30
0.0
 11
700.68450741387687
 21
875.33299022093001
 31
0.0
  0
LINE
  5
13C6
  8
0
 10
734.18450741387687
 20
858.83299022092967
 30
0.0
 11
732.68450741387676
 21
875.33299022093001
 31
0.0
  0
LINE
  5
13C7
  8
0
 10
699.18450741387664
 20
790.83299022092763
 30
0.0
 11
699.18450741387664
 21
900.01539469871909
 31
0.0
  0
LINE
  5
13C8
  8
0
 10
734.18450741387687
 20
790.83299022092763
 30
0.0
 11
734.18450741387687
 21
900.01539469871909
 31
0.0
  0
LINE
  5
13C9
  8
0
 10
743.47457843236157
 20
828.83299022092865
 30
0.0
 11
743.47457843236123
 21
820.83299022092888
 31
0.0
  0
LINE
  5
13CA
  8
0
 10
741.29443639539215
 20
828.83299022092865
 30
0.0
 11
741.29443639539238
 21
819.20382509632975
 31
0.0
  0
ARC
  5
13CB
  8
0
 10
692.50062791096866
 20
859.43196274255752
 30
0.0
 40
57.636482050059328
 50
319.28122764977633
 51
340.4271840906099
  0
ARC
  5
13CC
  8
0
 10
731.53054750650324
 20
824.83299022092854
 30
0.0
 40
9.7638888888889532
 50
337.39644098484479
 51
18.642104748907741
  0
LINE
  5
13CD
  8
0
 10
744.07457843236159
 20
828.23299022092851
 30
0.0
 11
744.07457843236125
 21
821.4329902209289
 31
0.0
  0
ARC
  5
13CE
  8
0
 10
692.50062791096866
 20
859.43196274255729
 30
0.0
 40
55.636482050059243
 50
318.52272392434219
 51
341.90175049065942
  0
LINE
  5
13CF
  8
0
 10
697.18450741387676
 20
821.83299022092831
 30
0.0
 11
697.18450741387676
 21
811.10201486972164
 31
0.0
  0
LINE
  5
13D0
  8
0
 10
699.18450741387664
 20
811.10201486972164
 30
0.0
 11
697.18450741387676
 21
811.10201486972176
 31
0.0
  0
LINE
  5
13D1
  8
0
 10
734.18450741387687
 20
811.10201486972164
 30
0.0
 11
736.18450741387676
 21
811.10201486972176
 31
0.0
  0
LINE
  5
13D2
  8
0
 10
744.07457843236125
 20
821.4329902209289
 30
0.0
 11
743.47457843236123
 21
820.83299022092888
 31
0.0
  0
LINE
  5
13D3
  8
0
 10
736.18450741387676
 20
821.83299022092854
 30
0.0
 11
736.18450741387676
 21
811.10201486972164
 31
0.0
  0
ARC
  5
13D4
  8
0
 10
738.5722141731701
 20
819.20382509632975
 30
0.0
 40
2.7222222222221419
 50
359.99999999999829
 51
43.573578596523539
  0
ARC
  5
13D5
  8
0
 10
738.5722141731701
 20
819.20382509632975
 30
0.0
 40
2.7222222222221419
 50
316.42642140347402
 51
0.0
  0
LINE
  5
13D6
  8
0
 10
736.18450741387676
 20
817.32743672146341
 30
0.0
 11
740.54443639539238
 21
817.32743672146341
 31
0.0
  0
LINE
  5
13D7
  8
0
 10
736.18450741387676
 20
821.08021347119586
 30
0.0
 11
740.54443639539238
 21
821.08021347119586
 31
0.0
  0
LINE
  5
13D8
  8
0
 10
744.07457843236125
 20
821.4329902209289
 30
0.0
 11
741.29443639539215
 21
821.4329902209289
 31
0.0
  0
LINE
  5
13D9
  8
0
 10
743.47457843236123
 20
820.83299022092888
 30
0.0
 11
741.29443639539238
 21
820.83299022092854
 31
0.0
  0
ARC
  5
13DA
  8
0
 10
737.38450741387692
 20
843.47352350577683
 30
0.0
 40
10.0
 50
340.42718409060973
 51
359.99999999999932
  0
ARC
  5
13DB
  8
0
 10
737.38450741387692
 20
843.47352350577717
 30
0.0
 40
10.0
 50
340.42718409061001
 51
359.99999999999932
  0
LINE
  5
13DC
  8
0
 10
744.07457843236159
 20
828.23299022092851
 30
0.0
 11
743.47457843236157
 21
828.83299022092865
 31
0.0
  0
LINE
  5
13DD
  8
0
 10
744.07457843236125
 20
828.23299022092851
 30
0.0
 11
741.29443639539215
 21
828.23299022092851
 31
0.0
  0
LINE
  5
13DE
  8
0
 10
743.47457843236157
 20
828.83299022092865
 30
0.0
 11
741.29443639539238
 21
828.83299022092865
 31
0.0
  0
ARC
  5
13DF
  8
0
 10
688.68270466629554
 20
864.97587861716363
 30
0.0
 40
58.708301063794821
 50
0.8524959024888321
 51
55.122407265048558
  0
ARC
  5
13E0
  8
0
 10
683.24443169713209
 20
864.19412531038574
 30
0.0
 40
62.274028732845267
 50
356.24129470169049
 51
50.405982406924252
  0
ARC
  5
13E8
  8
0
 10
745.38450741387692
 20
919.08299022092854
 30
0.0
 40
2.0
 50
0.000000000000007
 51
90.000000000000114
  0
ARC
  5
13EB
  8
0
 10
580.03200733103336
 20
824.83299022092854
 30
0.0
 40
75.0
 50
140.73756262916709
 51
84.269015693383096
  0
ARC
  5
13ED
  8
0
 10
580.03200733103336
 20
824.83299022092854
 30
0.0
 40
69.0
 50
142.68026142151271
 51
83.195416044661584
  0
ARC
  5
146A
  8
0
 10
580.03200733103336
 20
824.83299022092854
 30
0.0
 40
57.0
 50
147.15847152703401
 51
80.570943680491922
  0
ARC
  5
146B
  8
0
 10
580.03200733103336
 20
824.83299022092854
 30
0.0
 40
54.0
 50
148.452515132466
 51
79.775720429183067
  0
ARC
  5
146C
  8
0
 10
580.03200733103336
 20
824.83299022092854
 30
0.0
 40
34.0
 50
160.87509334354829
 51
71.511853397955477
  0
ARC
  5
1530
  8
0
 10
716.68450741387687
 20
904.37488506023385
 30
0.0
 40
10.0
 50
51.31873816324746
 51
128.68126183675301
  0
ARC
  5
1531
  8
0
 10
716.68450741387687
 20
904.83299022092842
 30
0.0
 40
10.0
 50
56.157790564142651
 51
123.8422094358573
  0
ARC
  5
1534
  8
0
 10
716.68450741387687
 20
871.73299022092885
 30
0.0
 40
28.09999999999993
 50
59.460644523409719
 51
120.5393554765904
  0
ARC
  5
1535
  8
0
 10
704.18450741387687
 20
892.92048653361371
 30
0.0
 40
3.5
 50
120.5393554765906
 51
180.0
  0
ARC
  5
1536
  8
0
 10
729.18450741387687
 20
892.92048653361371
 30
0.0
 40
3.5
 50
0.0
 51
59.460644523410231
  0
ARC
  5
1537
  8
0
 10
430.89216161636722
 20
892.92048653361348
 30
0.0
 40
3.5
 50
120.5393554765906
 51
180.0
  0
ARC
  5
1538
  8
0
 10
455.89216161636722
 20
892.92048653361348
 30
0.0
 40
3.5
 50
0.0
 51
59.460644523410231
  0
ARC
  5
1539
  8
0
 10
443.39216161636722
 20
871.73299022092885
 30
0.0
 40
28.09999999999993
 50
59.460644523409719
 51
120.5393554765904
  0
LINE
  5
153A
  8
0
 10
459.39216161636722
 20
892.92048653361348
 30
0.0
 11
459.39216161636722
 21
756.74549390824336
 31
0.0
  0
LINE
  5
153B
  8
0
 10
460.89216161636722
 20
790.83299022092706
 30
0.0
 11
459.39216161636722
 21
774.33299022092694
 31
0.0
  0
ARC
  5
153C
  8
0
 10
443.39216161636722
 20
777.93299022092833
 30
0.0
 40
28.09999999999993
 50
239.46064452340951
 51
300.53935547659017
  0
ARC
  5
153D
  8
0
 10
455.89216161636722
 20
756.74549390824336
 30
0.0
 40
3.5
 50
300.53935547658972
 51
0.0
  0
LINE
  5
153E
  8
0
 10
460.89216161636739
 20
790.83299022092751
 30
0.0
 11
460.89216161636739
 21
900.01539469871898
 31
0.0
  0
LINE
  5
153F
  8
0
 10
427.39216161636739
 20
892.92048653361348
 30
0.0
 11
427.39216161636722
 21
756.74549390824336
 31
0.0
  0
LINE
  5
1540
  8
0
 10
425.89216161636722
 20
790.83299022092706
 30
0.0
 11
427.39216161636722
 21
774.33299022092694
 31
0.0
  0
ARC
  5
1542
  8
0
 10
430.89216161636722
 20
756.74549390824336
 30
0.0
 40
3.5
 50
180.0
 51
239.4606445234094
  0
LINE
  5
1543
  8
0
 10
425.89216161636722
 20
858.83299022092967
 30
0.0
 11
427.39216161636722
 21
875.33299022093001
 31
0.0
  0
LINE
  5
1544
  8
0
 10
460.89216161636722
 20
858.83299022092967
 30
0.0
 11
459.39216161636722
 21
875.33299022093001
 31
0.0
  0
LINE
  5
15D2
  8
0
  6
CENTER
 10
443.39216161636722
 20
939.83299022092831
 30
0.0
 11
443.39216161636722
 21
744.83299022092842
 31
0.0
  0
LINE
  5
1658
  8
0
 10
-459.81959325833623
 20
815.18880182208829
 30
0.0
 11
-423.01959325833712
 21
815.18880182208852
 31
0.0
  0
ARC
  5
16E2
  8
0
 10
-647.65801814949691
 20
780.19551505528068
 30
0.0
 40
36.432710538626857
 50
34.934763387463519
 51
43.413879169544963
  0
ARC
  5
16E3
  8
0
 10
-649.787410716453
 20
777.21135269878414
 30
0.0
 40
40.400222577001308
 50
37.626913311794198
 51
46.866469546498443
  0
ARC
  5
16E4
  8
0
 10
-632.46032143142736
 20
794.94483262326014
 30
0.0
 40
15.258686230493369
 50
42.402978890430511
 51
87.483342681211212
  0
ARC
  5
16E5
  8
0
 10
-613.79321939150748
 20
777.21135269878391
 30
0.0
 40
40.400222577001443
 50
133.13353045350129
 51
142.373086688206
  0
ARC
  5
16E6
  8
0
 10
-631.79031505398029
 20
795.18880182208852
 30
0.0
 40
15.0
 50
50.085903885862443
 51
129.91409611413749
  0
ARC
  5
16E7
  8
0
 10
-631.12030867653334
 20
794.94483262326014
 30
0.0
 40
15.258686230493369
 50
92.516657318788802
 51
137.5970211095694
  0
ARC
  5
16E8
  8
0
 10
-615.9226119584639
 20
780.19551505528068
 30
0.0
 40
36.432710538626857
 50
136.586120830455
 51
145.06523661253669
  0
ARC
  5
16E9
  8
0
 10
-326.77909071615881
 20
820.45380628172154
 30
0.0
 40
29.593909663215861
 50
56.367993482212093
 51
92.148014160218636
  0
ARC
  5
16EA
  8
0
 10
-330.03866659228191
 20
819.2256459085047
 30
0.0
 40
30.876246977947769
 50
50.474373199455762
 51
86.006428142666536
  0
ARC
  5
16EB
  8
0
 10
-325.7379416709868
 20
819.2256459085047
 30
0.0
 40
30.876246977947851
 50
93.993571857333478
 51
129.52562680054081
  0
ARC
  5
16EC
  8
0
 10
-328.99751754710991
 20
820.45380628172154
 30
0.0
 40
29.59390966321584
 50
87.851985839781364
 51
123.6320065177847
  0
ARC
  5
172B
  8
0
 10
33.964447856217028
 20
843.49175370972375
 30
0.0
 40
41.85559758161159
 50
43.073979028668909
 51
69.245076202023824
  0
ARC
  5
172C
  8
0
 10
38.360107054852513
 20
844.797566381553
 30
0.0
 40
39.420986273301018
 50
48.38818530171509
 51
75.423490777370773
  0
ARC
  5
172D
  8
0
 10
47.03881132963852
 20
877.95039431465739
 30
0.0
 40
5.0
 50
69.414016925310548
 51
110.5859830746906
  0
ARC
  5
172E
  8
0
 10
60.113174803060701
 20
843.49175370972398
 30
0.0
 40
41.855597581611711
 50
110.754923797977
 51
136.92602097133121
  0
ARC
  5
172F
  8
0
 10
55.717515604425103
 20
844.797566381553
 30
0.0
 40
39.420986273301089
 50
104.5765092226293
 51
131.61181469828489
  0
ARC
  5
1730
  8
0
 10
409.9520858996226
 20
864.19412531038574
 30
0.0
 40
62.274028732845267
 50
35.115043287716951
 51
50.405982406924252
  0
ARC
  5
1731
  8
0
 10
415.39035886878588
 20
864.97587861716363
 30
0.0
 40
58.708301063794821
 50
39.190535955349858
 51
55.122407265048558
  0
ARC
  5
1732
  8
0
 10
443.39216161636722
 20
904.83299022092842
 30
0.0
 40
10.0
 50
56.157790564142651
 51
123.8422094358573
  0
ARC
  5
1733
  8
0
 10
443.39216161636722
 20
904.37488506023385
 30
0.0
 40
10.0
 50
51.31873816324746
 51
128.68126183675301
  0
ARC
  5
1734
  8
0
 10
476.83223733311252
 20
864.19412531038552
 30
0.0
 40
62.274028732845913
 50
129.5940175930761
 51
144.88495671228321
  0
ARC
  5
1735
  8
0
 10
471.39396436394873
 20
864.97587861716363
 30
0.0
 40
58.708301063794927
 50
124.87759273495151
 51
140.80946404465021
  0
LINE
  5
188F
  8
0
 10
-268.09238644455229
 20
867.68284184022548
 30
0.0
 11
-191.0923864445524
 21
867.68284184022548
 31
0.0
  0
LINE
  5
18CC
  8
0
 10
-259.59238644455212
 20
695.70868028092002
 30
0.0
 11
-199.5923864445524
 21
695.70868028092002
 31
0.0
  0
LINE
  5
18CD
  8
0
 10
-268.09238644455212
 20
687.20868028091991
 30
0.0
 11
-268.09238644455229
 21
637.20868028091979
 31
0.0
  0
LINE
  5
18CE
  8
0
 10
-259.5923864445524
 20
628.70868028091979
 30
0.0
 11
-199.5923864445522
 21
628.70868028091979
 31
0.0
  0
LINE
  5
18CF
  8
0
 10
-191.0923864445524
 20
687.20868028091991
 30
0.0
 11
-191.0923864445522
 21
637.20868028091979
 31
0.0
  0
ARC
  5
18DC
  8
0
 10
-259.59238644455212
 20
687.20868028091991
 30
0.0
 40
8.5
 50
90.0
 51
180.0
  0
ARC
  5
18DD
  8
0
 10
-199.5923864445524
 20
687.20868028091991
 30
0.0
 40
8.5
 50
0.0
 51
90.0
  0
ARC
  5
18DE
  8
0
 10
-199.5923864445522
 20
637.20868028091979
 30
0.0
 40
8.5
 50
270.0
 51
0.0
  0
ARC
  5
18DF
  8
0
 10
-259.5923864445524
 20
637.20868028091979
 30
0.0
 40
8.5
 50
180.0
 51
270.0
  0
CIRCLE
  5
18E0
  8
0
 10
-229.59238644455229
 20
662.20868028091991
 30
0.0
 40
7.5
  0
CIRCLE
  5
18E1
  8
0
 10
-229.59238644455229
 20
662.20868028091991
 30
0.0
 40
17.0
  0
CIRCLE
  5
18E2
  8
0
 10
-229.59238644455229
 20
662.20868028091991
 30
0.0
 40
27.0
  0
ARC
  5
18E3
  8
0
 10
-256.16381501598079
 20
684.95868028091991
 30
0.0
 40
4.25
 50
228.8140748342928
 51
48.814074834292803
  0
ARC
  5
18E4
  8
0
 10
-259.02095787312379
 20
687.45868028092002
 30
0.0
 40
4.25
 50
48.814074834292803
 51
228.81407483428731
  0
LINE
  5
18E5
  8
0
 10
-261.81960245656501
 20
684.26022932841579
 30
0.0
 11
-258.96245959942212
 21
681.76022932841556
 31
0.0
  0
LINE
  5
18E6
  8
0
 10
-256.2223132896828
 20
690.65713123342414
 30
0.0
 11
-253.36517043253971
 21
688.15713123342402
 31
0.0
  0
LINE
  5
18E7
  8
0
  6
CENTER
 10
-253.476732645374
 20
690.91228462283755
 30
0.0
 11
-261.70804024373069
 21
681.50507593900204
 31
0.0
  0
LINE
  5
18E8
  8
0
  6
CENTER
 10
-263.724562215042
 20
691.57433408009786
 30
0.0
 11
-251.46021067406289
 21
680.84302648174162
 31
0.0
  0
ARC
  5
18E9
  8
0
 10
-200.1638150159809
 20
687.45868028092002
 30
0.0
 40
4.25
 50
311.18592516571272
 51
131.18592516570709
  0
LINE
  5
18EA
  8
0
  6
CENTER
 10
-205.70804024373061
 20
690.91228462283755
 30
0.0
 11
-197.476732645374
 21
681.50507593900204
 31
0.0
  0
LINE
  5
18EB
  8
0
  6
CENTER
 10
-195.46021067406269
 20
691.57433408009786
 30
0.0
 11
-207.72456221504169
 21
680.84302648174162
 31
0.0
  0
ARC
  5
18EC
  8
0
 10
-203.02095787312379
 20
684.95868028091991
 30
0.0
 40
4.25
 50
131.18592516570709
 51
311.1859251657072
  0
LINE
  5
18ED
  8
0
 10
-197.36517043253971
 20
684.26022932841579
 30
0.0
 11
-200.2223132896826
 21
681.76022932841556
 31
0.0
  0
LINE
  5
18EE
  8
0
 10
-202.96245959942189
 20
690.65713123342414
 30
0.0
 11
-205.81960245656489
 21
688.15713123342402
 31
0.0
  0
ARC
  5
18EF
  8
0
 10
-200.1638150159809
 20
636.95868028091968
 30
0.0
 40
4.25
 50
228.8140748342928
 51
48.81407483428729
  0
LINE
  5
18F0
  8
0
 10
-197.36517043253971
 20
640.15713123342402
 30
0.0
 11
-200.2223132896826
 21
642.65713123342414
 31
0.0
  0
ARC
  5
18F1
  8
0
 10
-203.02095787312379
 20
639.45868028091979
 30
0.0
 40
4.25
 50
48.814074834292803
 51
228.8140748342928
  0
LINE
  5
18F2
  8
0
 10
-195.46021067406269
 20
632.84302648174184
 30
0.0
 11
-207.72456221504169
 21
643.5743340800982
 31
0.0
  0
LINE
  5
18F3
  8
0
 10
-205.70804024373061
 20
633.50507593900215
 30
0.0
 11
-197.476732645374
 21
642.91228462283766
 31
0.0
  0
LINE
  5
18F4
  8
0
 10
-202.96245959942189
 20
633.76022932841556
 30
0.0
 11
-205.81960245656489
 21
636.26022932841568
 31
0.0
  0
ARC
  5
18F5
  8
0
 10
-259.02095787312379
 20
636.95868028091968
 30
0.0
 40
4.25
 50
131.18592516571269
 51
311.1859251657072
  0
LINE
  5
18F6
  8
0
 10
-253.476732645374
 20
633.50507593900215
 30
0.0
 11
-261.70804024373069
 21
642.91228462283766
 31
0.0
  0
LINE
  5
18F7
  8
0
 10
-263.724562215042
 20
632.84302648174184
 30
0.0
 11
-251.46021067406289
 21
643.5743340800982
 31
0.0
  0
ARC
  5
18F8
  8
0
 10
-256.16381501598079
 20
639.45868028091979
 30
0.0
 40
4.25
 50
311.1859251657072
 51
131.18592516570709
  0
LINE
  5
18F9
  8
0
 10
-261.81960245656501
 20
640.15713123342402
 30
0.0
 11
-258.96245959942212
 21
642.65713123342414
 31
0.0
  0
LINE
  5
18FA
  8
0
 10
-256.2223132896828
 20
633.76022932841556
 30
0.0
 11
-253.36517043253971
 21
636.26022932841568
 31
0.0
  0
LINE
  5
18FB
  8
0
 10
-268.09238644455229
 20
865.18284184022582
 30
0.0
 11
-268.09238644455212
 21
867.68284184022548
 31
0.0
  0
LINE
  5
18FC
  8
0
 10
-268.09238644455229
 20
865.18284184022559
 30
0.0
 11
-191.0923864445524
 21
865.18284184022559
 31
0.0
  0
LINE
  5
18FD
  8
0
 10
-191.0923864445524
 20
865.18284184022559
 30
0.0
 11
-191.0923864445524
 21
867.68284184022548
 31
0.0
  0
LINE
  5
18FE
  8
0
 10
-256.09238644455229
 20
859.18284184022559
 30
0.0
 11
-203.0923864445522
 21
859.18284184022559
 31
0.0
  0
LINE
  5
18FF
  8
0
 10
-260.09238644455229
 20
863.18284184022548
 30
0.0
 11
-260.09238644455229
 21
864.18284184022548
 31
0.0
  0
ARC
  5
1900
  8
0
 10
-261.09238644455218
 20
864.18284184022548
 30
0.0
 40
1.0
 50
0.0
 51
90.0
  0
ARC
  5
1901
  8
0
 10
-198.09238644455229
 20
864.18284184022548
 30
0.0
 40
1.0
 50
90.0
 51
180.0
  0
ARC
  5
1902
  8
0
 10
-256.09238644455229
 20
863.18284184022548
 30
0.0
 40
4.0
 50
180.0
 51
270.0
  0
ARC
  5
1903
  8
0
 10
-203.0923864445522
 20
863.18284184022548
 30
0.0
 40
4.0
 50
270.0
 51
0.0
  0
LINE
  5
1904
  8
0
 10
-199.0923864445522
 20
863.18284184022548
 30
0.0
 11
-199.09238644455229
 21
864.18284184022548
 31
0.0
  0
ARC
  5
1905
  8
0
 10
-253.5923864445522
 20
855.18284184022548
 30
0.0
 40
4.0
 50
90.0
 51
180.0
  0
ARC
  5
1906
  8
0
 10
-205.5923864445522
 20
855.18284184022548
 30
0.0
 40
4.0
 50
0.0
 51
90.0
  0
LINE
  5
1988
  8
0
 10
-191.2830154846794
 20
688.9987512994046
 30
0.0
 11
-187.59238644455249
 21
688.99875129940415
 31
0.0
  0
LINE
  5
1989
  8
0
 10
-257.59238644455229
 20
855.18284184022548
 30
0.0
 11
-257.59238644455229
 21
853.93284184022571
 31
0.0
  0
LINE
  5
198A
  8
0
 10
-201.59238644455209
 20
855.18284184022548
 30
0.0
 11
-201.59238644455209
 21
853.93284184022571
 31
0.0
  0
LINE
  5
19DD
  8
0
 10
-361.38830413163367
 20
867.68284184022548
 30
0.0
 11
-294.38830413163362
 21
867.68284184022548
 31
0.0
  0
LINE
  5
19DE
  8
0
 10
-361.38830413163367
 20
865.18284184022559
 30
0.0
 11
-294.38830413163362
 21
865.18284184022559
 31
0.0
  0
LINE
  5
19DF
  8
0
 10
-354.38830413163379
 20
859.18284184022559
 30
0.0
 11
-301.38830413163367
 21
859.18284184022559
 31
0.0
  0
LINE
  5
19E1
  8
0
 10
-358.38830413163379
 20
863.18284184022548
 30
0.0
 11
-358.38830413163367
 21
864.18284184022548
 31
0.0
  0
ARC
  5
19E2
  8
0
 10
-359.38830413163367
 20
864.18284184022548
 30
0.0
 40
1.0
 50
0.0
 51
90.0
  0
ARC
  5
19E3
  8
0
 10
-354.38830413163379
 20
863.18284184022548
 30
0.0
 40
4.0
 50
180.0
 51
270.0
  0
ARC
  5
19E4
  8
0
 10
-301.38830413163367
 20
863.18284184022548
 30
0.0
 40
4.0
 50
270.0
 51
0.0
  0
ARC
  5
19E6
  8
0
 10
-296.38830413163367
 20
864.18284184022548
 30
0.0
 40
1.0
 50
90.0
 51
180.0
  0
LINE
  5
19E7
  8
0
 10
-297.38830413163367
 20
863.18284184022548
 30
0.0
 11
-297.38830413163367
 21
864.18284184022548
 31
0.0
  0
ARC
  5
19E8
  8
0
 10
-303.88830413163367
 20
855.18284184022548
 30
0.0
 40
4.0
 50
0.0
 51
90.0
  0
ARC
  5
19E9
  8
0
 10
-351.88830413163367
 20
855.18284184022548
 30
0.0
 40
4.0
 50
90.0
 51
180.0
  0
LINE
  5
19EA
  8
0
 10
-355.88830413163367
 20
855.18284184022548
 30
0.0
 11
-355.88830413163367
 21
853.93284184022571
 31
0.0
  0
LINE
  5
19EB
  8
0
 10
-294.38830413163362
 20
867.68284184022548
 30
0.0
 11
-294.38830413163362
 21
865.18284184022559
 31
0.0
  0
LINE
  5
19EC
  8
0
 10
-361.38830413163367
 20
867.68284184022548
 30
0.0
 11
-361.38830413163367
 21
865.18284184022559
 31
0.0
  0
LINE
  5
1A41
  8
0
  6
CENTER
 10
-201.5923864445522
 20
858.32183853307401
 30
0.0
 11
-201.59238644455229
 21
872.68284184022559
 31
0.0
  0
LINE
  5
1A42
  8
0
  6
CENTER
 10
-257.59238644455229
 20
858.32183853307401
 30
0.0
 11
-257.59238644455229
 21
872.68284184022559
 31
0.0
  0
LINE
  5
1A44
  8
0
  6
CENTER
 10
-303.88830413163367
 20
858.32183853307401
 30
0.0
 11
-303.88830413163367
 21
872.68284184022559
 31
0.0
  0
LINE
  5
1A45
  8
0
  6
CENTER
 10
-351.88830413163367
 20
858.32183853307401
 30
0.0
 11
-351.88830413163367
 21
872.68284184022559
 31
0.0
  0
LINE
  5
1A98
  8
0
 10
-108.0488678003567
 20
865.18284184022559
 30
0.0
 11
-41.048867800356618
 21
865.18284184022559
 31
0.0
  0
LINE
  5
1A99
  8
0
 10
-108.0488678003567
 20
867.68284184022548
 30
0.0
 11
-41.048867800356618
 21
867.68284184022548
 31
0.0
  0
LINE
  5
1A9A
  8
0
 10
-101.0488678003568
 20
859.18284184022559
 30
0.0
 11
-48.048867800356668
 21
859.18284184022559
 31
0.0
  0
ARC
  5
1A9B
  8
0
 10
-48.048867800356668
 20
863.18284184022548
 30
0.0
 40
4.0
 50
270.0
 51
0.0
  0
LINE
  5
1A9C
  8
0
  6
CENTER
 10
-50.548867800356668
 20
858.32183853307401
 30
0.0
 11
-50.548867800356668
 21
872.68284184022559
 31
0.0
  0
ARC
  5
1A9D
  8
0
 10
-50.548867800356668
 20
855.18284184022548
 30
0.0
 40
4.0
 50
0.0
 51
90.0
  0
LINE
  5
1A9E
  8
0
 10
-41.048867800356618
 20
867.68284184022548
 30
0.0
 11
-41.048867800356618
 21
865.18284184022559
 31
0.0
  0
LINE
  5
1A9F
  8
0
 10
-44.048867800356668
 20
863.18284184022548
 30
0.0
 11
-44.048867800356732
 21
864.18284184022548
 31
0.0
  0
ARC
  5
1AA0
  8
0
 10
-43.048867800356732
 20
864.18284184022548
 30
0.0
 40
1.0
 50
90.0
 51
180.0
  0
ARC
  5
1AA1
  8
0
 10
-98.548867800356675
 20
855.18284184022548
 30
0.0
 40
4.0
 50
90.0
 51
180.0
  0
ARC
  5
1AA2
  8
0
 10
-101.0488678003568
 20
863.18284184022548
 30
0.0
 40
4.0
 50
180.0
 51
270.0
  0
LINE
  5
1AA3
  8
0
 10
-108.0488678003567
 20
867.68284184022548
 30
0.0
 11
-108.0488678003567
 21
865.18284184022559
 31
0.0
  0
ARC
  5
1AA4
  8
0
 10
-106.0488678003566
 20
864.18284184022548
 30
0.0
 40
1.0
 50
0.0
 51
90.0
  0
LINE
  5
1AA5
  8
0
 10
-105.0488678003567
 20
863.18284184022548
 30
0.0
 11
-105.0488678003566
 21
864.18284184022548
 31
0.0
  0
LINE
  5
1AA6
  8
0
  6
CENTER
 10
-98.548867800356675
 20
858.32183853307401
 30
0.0
 11
-98.548867800356675
 21
872.68284184022559
 31
0.0
  0
LINE
  5
1AA7
  8
0
 10
-299.88830413163367
 20
855.18284184022548
 30
0.0
 11
-299.88830413163367
 21
853.93284184022559
 31
0.0
  0
LINE
  5
1AA8
  8
0
 10
-102.5488678003566
 20
855.18284184022548
 30
0.0
 11
-102.5488678003566
 21
853.93284184022559
 31
0.0
  0
LINE
  5
1AA9
  8
0
 10
-46.548867800356668
 20
855.18284184022548
 30
0.0
 11
-46.548867800356668
 21
853.93284184022559
 31
0.0
  0
LINE
  5
1B60
  8
0
 10
20.53881132963863
 20
894.60652179136912
 30
0.0
 11
73.538811329638733
 21
894.60652179136912
 31
0.0
  0
LINE
  5
1B61
  8
0
 10
13.538811329638749
 20
900.60652179136912
 30
0.0
 11
80.538811329638747
 21
900.60652179136912
 31
0.0
  0
LINE
  5
1B62
  8
0
 10
13.538811329638749
 20
903.106521791369
 30
0.0
 11
80.538811329638747
 21
903.106521791369
 31
0.0
  0
LINE
  5
1B65
  8
0
  6
CENTER
 10
23.038811329638751
 20
893.74551848421754
 30
0.0
 11
23.038811329638751
 21
908.10652179136912
 31
0.0
  0
ARC
  5
1B66
  8
0
 10
23.038811329638751
 20
890.606521791369
 30
0.0
 40
4.0
 50
90.0
 51
180.0
  0
ARC
  5
1B67
  8
0
 10
20.53881132963863
 20
898.606521791369
 30
0.0
 40
4.0
 50
180.0
 51
270.0
  0
LINE
  5
1B68
  8
0
 10
13.538811329638749
 20
903.106521791369
 30
0.0
 11
13.538811329638749
 21
900.60652179136912
 31
0.0
  0
ARC
  5
1B6A
  8
0
 10
15.538811329638749
 20
899.60652179136923
 30
0.0
 40
1.0
 50
0.0
 51
90.0
  0
LINE
  5
1B6B
  8
0
 10
16.538811329638641
 20
898.606521791369
 30
0.0
 11
16.538811329638751
 21
899.60652179136923
 31
0.0
  0
LINE
  5
1B6D
  8
0
  6
CENTER
 10
71.038811329638733
 20
893.74551848421754
 30
0.0
 11
71.038811329638733
 21
908.10652179136912
 31
0.0
  0
ARC
  5
1B6E
  8
0
 10
73.538811329638733
 20
898.606521791369
 30
0.0
 40
4.0
 50
270.0
 51
0.0
  0
ARC
  5
1B71
  8
0
 10
71.038811329638733
 20
890.606521791369
 30
0.0
 40
4.0
 50
0.0
 51
90.0
  0
LINE
  5
1B72
  8
0
 10
80.538811329638747
 20
903.106521791369
 30
0.0
 11
80.538811329638747
 21
900.60652179136912
 31
0.0
  0
LINE
  5
1B73
  8
0
 10
77.538811329638747
 20
898.606521791369
 30
0.0
 11
77.538811329638747
 21
899.60652179136923
 31
0.0
  0
ARC
  5
1B74
  8
0
 10
78.538811329638733
 20
899.60652179136923
 30
0.0
 40
1.0
 50
90.0
 51
180.0
  0
LINE
  5
1B76
  8
0
 10
19.038811329638751
 20
890.606521791369
 30
0.0
 11
19.038811329638751
 21
889.35652179136935
 31
0.0
  0
LINE
  5
1B77
  8
0
 10
75.038811329638747
 20
890.606521791369
 30
0.0
 11
75.038811329638747
 21
889.35652179136935
 31
0.0
  0
LINE
  5
1B78
  8
0
 10
115.8347290167201
 20
894.60652179136946
 30
0.0
 11
168.83472901672019
 21
894.60652179136946
 31
0.0
  0
LINE
  5
1B79
  8
0
 10
103.8347290167203
 20
900.60652179136946
 30
0.0
 11
180.8347290167201
 21
900.60652179136946
 31
0.0
  0
LINE
  5
1B7A
  8
0
 10
103.8347290167203
 20
903.10652179136935
 30
0.0
 11
180.83472901671999
 21
903.10652179136935
 31
0.0
  0
ARC
  5
1B7B
  8
0
 10
118.3347290167203
 20
890.60652179136935
 30
0.0
 40
4.0
 50
90.0
 51
180.0
  0
LINE
  5
1B7C
  8
0
  6
CENTER
 10
114.3347290167203
 20
893.74551848421777
 30
0.0
 11
114.3347290167203
 21
908.10652179136935
 31
0.0
  0
ARC
  5
1B7D
  8
0
 10
115.8347290167201
 20
898.60652179136935
 30
0.0
 40
4.0
 50
180.0
 51
270.0
  0
ARC
  5
1B7E
  8
0
 10
110.8347290167203
 20
899.60652179136935
 30
0.0
 40
1.0
 50
0.0
 51
90.0
  0
LINE
  5
1B7F
  8
0
 10
111.8347290167202
 20
898.60652179136935
 30
0.0
 11
111.8347290167203
 21
899.60652179136935
 31
0.0
  0
LINE
  5
1B80
  8
0
 10
103.8347290167203
 20
900.60652179136969
 30
0.0
 11
103.8347290167204
 21
903.10652179136935
 31
0.0
  0
ARC
  5
1B81
  8
0
 10
168.83472901672019
 20
898.60652179136935
 30
0.0
 40
4.0
 50
270.0
 51
0.0
  0
LINE
  5
1B82
  8
0
  6
CENTER
 10
170.3347290167203
 20
893.74551848421777
 30
0.0
 11
170.3347290167203
 21
908.10652179136935
 31
0.0
  0
ARC
  5
1B83
  8
0
 10
166.3347290167203
 20
890.60652179136935
 30
0.0
 40
4.0
 50
0.0
 51
90.0
  0
LINE
  5
1B84
  8
0
 10
172.8347290167203
 20
898.60652179136935
 30
0.0
 11
172.8347290167203
 21
899.60652179136935
 31
0.0
  0
ARC
  5
1B85
  8
0
 10
173.8347290167203
 20
899.60652179136935
 30
0.0
 40
1.0
 50
90.0
 51
180.0
  0
LINE
  5
1B86
  8
0
 10
180.8347290167201
 20
900.60652179136946
 30
0.0
 11
180.83472901671999
 21
903.10652179136935
 31
0.0
  0
LINE
  5
1B87
  8
0
 10
114.3347290167203
 20
890.60652179136935
 30
0.0
 11
114.3347290167203
 21
889.35652179136957
 31
0.0
  0
LINE
  5
1B88
  8
0
 10
496.53200733103353
 20
934.83299022092842
 30
0.0
 11
573.53200733103336
 21
934.83299022092842
 31
0.0
  0
LINE
  5
1B89
  8
0
 10
496.53200733103353
 20
932.33299022092865
 30
0.0
 11
573.53200733103336
 21
932.33299022092865
 31
0.0
  0
LINE
  5
1B8A
  8
0
 10
508.53200733103341
 20
926.33299022092854
 30
0.0
 11
561.53200733103358
 21
926.33299022092854
 31
0.0
  0
LINE
  5
1B8B
  8
0
  6
CENTER
 10
507.03200733103358
 20
925.47198691377685
 30
0.0
 11
507.03200733103358
 21
939.83299022092854
 31
0.0
  0
ARC
  5
1B8C
  8
0
 10
508.53200733103341
 20
930.33299022092842
 30
0.0
 40
4.0
 50
180.0
 51
270.0
  0
ARC
  5
1B8D
  8
0
 10
511.03200733103358
 20
922.33299022092842
 30
0.0
 40
4.0
 50
90.0
 51
180.0
  0
LINE
  5
1B8E
  8
0
 10
507.03200733103358
 20
922.33299022092842
 30
0.0
 11
507.03200733103358
 21
921.08299022092865
 31
0.0
  0
LINE
  5
1B8F
  8
0
 10
496.53200733103353
 20
932.33299022092865
 30
0.0
 11
496.53200733103358
 21
934.83299022092842
 31
0.0
  0
LINE
  5
1B90
  8
0
 10
504.53200733103341
 20
930.33299022092842
 30
0.0
 11
504.53200733103353
 21
931.33299022092865
 31
0.0
  0
ARC
  5
1B91
  8
0
 10
503.53200733103358
 20
931.33299022092865
 30
0.0
 40
1.0
 50
0.0
 51
90.0
  0
LINE
  5
1B92
  8
0
  6
CENTER
 10
563.03200733103347
 20
925.47198691377685
 30
0.0
 11
563.03200733103347
 21
939.83299022092854
 31
0.0
  0
ARC
  5
1B93
  8
0
 10
559.03200733103347
 20
922.33299022092842
 30
0.0
 40
4.0
 50
0.0
 51
90.0
  0
ARC
  5
1B94
  8
0
 10
561.53200733103358
 20
930.33299022092842
 30
0.0
 40
4.0
 50
270.0
 51
0.0
  0
LINE
  5
1B95
  8
0
 10
573.53200733103336
 20
932.33299022092865
 30
0.0
 11
573.53200733103336
 21
934.83299022092842
 31
0.0
  0
ARC
  5
1B96
  8
0
 10
566.53200733103347
 20
931.33299022092865
 30
0.0
 40
1.0
 50
90.0
 51
180.0
  0
LINE
  5
1B97
  8
0
 10
565.53200733103358
 20
930.33299022092842
 30
0.0
 11
565.53200733103358
 21
931.33299022092865
 31
0.0
  0
LINE
  5
1B98
  8
0
 10
170.3347290167203
 20
890.60652179136935
 30
0.0
 11
170.3347290167203
 21
889.35652179136912
 31
0.0
  0
LINE
  5
1B99
  8
0
 10
273.87824766091569
 20
894.60652179136912
 30
0.0
 11
326.8782476609158
 21
894.60652179136912
 31
0.0
  0
LINE
  5
1B9A
  8
0
 10
266.8782476609158
 20
900.60652179136912
 30
0.0
 11
333.8782476609158
 21
900.60652179136912
 31
0.0
  0
LINE
  5
1B9B
  8
0
 10
266.8782476609158
 20
903.106521791369
 30
0.0
 11
333.8782476609158
 21
903.106521791369
 31
0.0
  0
LINE
  5
1B9C
  8
0
  6
CENTER
 10
276.37824766091569
 20
893.74551848421754
 30
0.0
 11
276.37824766091569
 21
908.10652179136912
 31
0.0
  0
LINE
  5
1B9D
  8
0
 10
269.87824766091569
 20
898.606521791369
 30
0.0
 11
269.87824766091569
 21
899.60652179136923
 31
0.0
  0
ARC
  5
1B9E
  8
0
 10
273.87824766091569
 20
898.606521791369
 30
0.0
 40
4.0
 50
180.0
 51
270.0
  0
ARC
  5
1B9F
  8
0
 10
268.8782476609158
 20
899.60652179136923
 30
0.0
 40
1.0
 50
0.0
 51
90.0
  0
LINE
  5
1BA0
  8
0
 10
266.8782476609158
 20
903.106521791369
 30
0.0
 11
266.8782476609158
 21
900.60652179136912
 31
0.0
  0
LINE
  5
1BA1
  8
0
  6
CENTER
 10
324.3782476609158
 20
893.74551848421754
 30
0.0
 11
324.3782476609158
 21
908.10652179136912
 31
0.0
  0
ARC
  5
1BA2
  8
0
 10
331.8782476609158
 20
899.60652179136923
 30
0.0
 40
1.0
 50
90.0
 51
180.0
  0
ARC
  5
1BA3
  8
0
 10
326.8782476609158
 20
898.606521791369
 30
0.0
 40
4.0
 50
270.0
 51
0.0
  0
LINE
  5
1BA4
  8
0
 10
330.8782476609158
 20
898.606521791369
 30
0.0
 11
330.8782476609158
 21
899.60652179136923
 31
0.0
  0
LINE
  5
1BA5
  8
0
 10
333.8782476609158
 20
903.106521791369
 30
0.0
 11
333.8782476609158
 21
900.60652179136912
 31
0.0
  0
LINE
  5
1BA6
  8
0
 10
328.37824766091569
 20
890.606521791369
 30
0.0
 11
328.37824766091569
 21
889.35652179136935
 31
0.0
  0
ARC
  5
1BA7
  8
0
 10
324.3782476609158
 20
890.606521791369
 30
0.0
 40
4.0
 50
0.0
 51
90.0
  0
ARC
  5
1BA8
  8
0
 10
276.37824766091569
 20
890.606521791369
 30
0.0
 40
4.0
 50
90.0
 51
180.0
  0
LINE
  5
1BA9
  8
0
 10
272.3782476609158
 20
890.606521791369
 30
0.0
 11
272.3782476609158
 21
889.35652179136935
 31
0.0
  0
ARC
  5
1BD0
  8
0
 10
561.60343590246202
 20
713.02319397416045
 30
0.0
 40
4.25
 50
131.18592516570709
 51
311.1859251657072
  0
ARC
  5
1BD1
  8
0
 10
561.60343590246202
 20
667.52319397416045
 30
0.0
 40
4.25
 50
48.814074834292803
 51
228.8140748342928
  0
CIRCLE
  5
1BD2
  8
0
 10
535.03200733103336
 20
690.27319397416045
 30
0.0
 40
27.0
  0
LINE
  5
1BD3
  8
0
 10
505.0320073310333
 20
656.77319397416034
 30
0.0
 11
565.03200733103358
 21
656.77319397416034
 31
0.0
  0
LINE
  5
1BD4
  8
0
 10
505.03200733103353
 20
723.77319397416045
 30
0.0
 11
565.03200733103336
 21
723.77319397416045
 31
0.0
  0
LINE
  5
1BD5
  8
0
  6
CENTER
 10
569.16418310152312
 20
660.9075401749825
 30
0.0
 11
556.89983156054404
 21
671.63884777333874
 31
0.0
  0
LINE
  5
1BD6
  8
0
  6
CENTER
 10
569.16418310152312
 20
719.6388477733384
 30
0.0
 11
556.89983156054404
 21
708.90754017498216
 31
0.0
  0
LINE
  5
1BD7
  8
0
  6
CENTER
 10
535.03200733103336
 20
728.77319397416068
 30
0.0
 11
535.03200733103336
 21
651.77319397416034
 31
0.0
  0
ARC
  5
1BD8
  8
0
 10
505.03200733103353
 20
715.27319397416045
 30
0.0
 40
8.5
 50
90.0
 51
180.0
  0
ARC
  5
1BD9
  8
0
 10
505.0320073310333
 20
665.27319397416034
 30
0.0
 40
8.5
 50
180.0
 51
270.0
  0
LINE
  5
1BDA
  8
0
 10
496.53200733103353
 20
715.27319397416045
 30
0.0
 11
496.5320073310333
 21
665.27319397416034
 31
0.0
  0
CIRCLE
  5
1BDB
  8
0
 10
535.03200733103336
 20
690.27319397416045
 30
0.0
 40
17.0
  0
CIRCLE
  5
1BDC
  8
0
 10
535.03200733103336
 20
690.27319397416045
 30
0.0
 40
7.5
  0
LINE
  5
1BDD
  8
0
  6
CENTER
 10
500.8998315605437
 20
660.9075401749825
 30
0.0
 11
513.16418310152289
 21
671.63884777333874
 31
0.0
  0
ARC
  5
1BDE
  8
0
 10
505.60343590246202
 20
665.02319397416034
 30
0.0
 40
4.25
 50
131.18592516571269
 51
311.1859251657072
  0
LINE
  5
1BDF
  8
0
  6
CENTER
 10
511.1476611302117
 20
661.56958963224281
 30
0.0
 11
502.91635353185501
 21
670.97679831607832
 31
0.0
  0
ARC
  5
1BE0
  8
0
 10
508.46057875960491
 20
667.52319397416045
 30
0.0
 40
4.25
 50
311.1859251657072
 51
131.18592516570709
  0
LINE
  5
1BE1
  8
0
 10
508.40208048590301
 20
661.82474302165622
 30
0.0
 11
511.25922334304602
 21
664.32474302165633
 31
0.0
  0
LINE
  5
1BE2
  8
0
 10
502.80479131902069
 20
668.22164492666445
 30
0.0
 11
505.66193417616358
 21
670.72164492666457
 31
0.0
  0
ARC
  5
1BE3
  8
0
 10
508.46057875960491
 20
713.02319397416045
 30
0.0
 40
4.25
 50
228.8140748342928
 51
48.814074834292803
  0
ARC
  5
1BE4
  8
0
 10
505.60343590246202
 20
715.52319397416045
 30
0.0
 40
4.25
 50
48.814074834292803
 51
228.81407483428731
  0
LINE
  5
1BE5
  8
0
 10
508.40208048590301
 20
718.72164492666468
 30
0.0
 11
511.25922334304602
 21
716.22164492666457
 31
0.0
  0
LINE
  5
1BE6
  8
0
 10
502.80479131902069
 20
712.32474302165633
 30
0.0
 11
505.66193417616358
 21
709.82474302165622
 31
0.0
  0
LINE
  5
1BE7
  8
0
  6
CENTER
 10
500.8998315605437
 20
719.6388477733384
 30
0.0
 11
513.16418310152289
 21
708.90754017498216
 31
0.0
  0
LINE
  5
1BE8
  8
0
  6
CENTER
 10
511.1476611302117
 20
718.97679831607809
 30
0.0
 11
502.91635353185501
 21
709.56958963224258
 31
0.0
  0
ARC
  5
1BE9
  8
0
 10
565.03200733103336
 20
715.27319397416045
 30
0.0
 40
8.5
 50
0.0
 51
90.0
  0
LINE
  5
1BEA
  8
0
 10
573.53200733103336
 20
715.27319397416045
 30
0.0
 11
573.53200733103358
 21
665.27319397416034
 31
0.0
  0
LINE
  5
1BEB
  8
0
  6
CENTER
 10
558.91635353185495
 20
661.56958963224281
 30
0.0
 11
567.14766113021165
 21
670.97679831607832
 31
0.0
  0
ARC
  5
1BEC
  8
0
 10
564.46057875960491
 20
665.02319397416034
 30
0.0
 40
4.25
 50
228.8140748342928
 51
48.81407483428729
  0
ARC
  5
1BED
  8
0
 10
565.03200733103358
 20
665.27319397416034
 30
0.0
 40
8.5
 50
270.0
 51
0.0
  0
LINE
  5
1BEE
  8
0
 10
561.66193417616375
 20
661.82474302165622
 30
0.0
 11
558.80479131902075
 21
664.32474302165633
 31
0.0
  0
LINE
  5
1BEF
  8
0
 10
567.25922334304619
 20
668.22164492666445
 30
0.0
 11
564.40208048590307
 21
670.72164492666457
 31
0.0
  0
LINE
  5
1BF0
  8
0
 10
561.66193417616375
 20
718.72164492666468
 30
0.0
 11
558.80479131902075
 21
716.22164492666457
 31
0.0
  0
ARC
  5
1BF1
  8
0
 10
564.46057875960491
 20
715.52319397416045
 30
0.0
 40
4.25
 50
311.18592516571272
 51
131.18592516570709
  0
LINE
  5
1BF2
  8
0
  6
CENTER
 10
558.91635353185495
 20
718.97679831607809
 30
0.0
 11
567.14766113021165
 21
709.56958963224258
 31
0.0
  0
LINE
  5
1BF3
  8
0
 10
567.25922334304619
 20
712.32474302165633
 30
0.0
 11
564.40208048590307
 21
709.82474302165622
 31
0.0
  0
LINE
  5
1BF8
  8
0
 10
573.53200733103336
 20
714.88312295567573
 30
0.0
 11
581.66117245563225
 21
714.88312295567584
 31
0.0
  0
LINE
  5
1BF9
  8
0
 10
573.3413782909065
 20
717.06326499264514
 30
0.0
 11
580.03200733103336
 21
717.0632649926448
 31
0.0
  0
LINE
  5
1BFB
  8
0
  6
CENTER
 10
98.83472901672053
 20
685.13236023206332
 30
0.0
 11
250.8347290167201
 21
685.13236023206332
 31
0.0
  0
LINE
  5
1BFC
  8
0
 10
188.92290145636599
 20
669.13236023206343
 30
0.0
 11
238.92222532940499
 21
669.13236023206332
 31
0.0
  0
LINE
  5
1BFD
  8
0
 10
188.67969671034589
 20
667.13236023206321
 30
0.0
 11
202.83472901671769
 21
667.13236023206321
 31
0.0
  0
LINE
  5
1BFE
  8
0
 10
188.92290145636591
 20
701.13236023206321
 30
0.0
 11
238.92222532940499
 21
701.13236023206332
 31
0.0
  0
LINE
  5
1BFF
  8
0
 10
188.67969671034589
 20
703.13236023206343
 30
0.0
 11
202.8347290167217
 21
703.13236023206355
 31
0.0
  0
LINE
  5
1C00
  8
0
 10
180.8347290167203
 20
705.63236023206332
 30
0.0
 11
194.48831742628209
 21
705.63236023206343
 31
0.0
  0
LINE
  5
1C01
  8
0
 10
180.83472901672039
 20
664.63236023206309
 30
0.0
 11
194.48831742628209
 21
664.63236023206321
 31
0.0
  0
LINE
  5
1C02
  8
0
 10
180.8347290167203
 20
710.13236023206343
 30
0.0
 11
180.8347290167205
 21
660.13236023206321
 31
0.0
  0
ARC
  5
1C03
  8
0
 10
49.001395683389212
 20
685.13236023206321
 30
0.0
 40
140.83333333333121
 50
351.98387862436857
 51
8.0161213756313785
  0
LINE
  5
1C04
  8
0
 10
103.8347290167205
 20
710.13236023206343
 30
0.0
 11
103.8347290167203
 21
660.13236023206321
 31
0.0
  0
LINE
  5
1C05
  8
0
  6
CENTER
 10
142.33472901672039
 20
723.63236023206355
 30
0.0
 11
142.33472901672039
 21
646.63236023206321
 31
0.0
  0
CIRCLE
  5
1C06
  8
0
 10
142.33472901672039
 20
685.13236023206332
 30
0.0
 40
7.5
  0
CIRCLE
  5
1C07
  8
0
 10
142.33472901672039
 20
685.13236023206332
 30
0.0
 40
17.0
  0
CIRCLE
  5
1C08
  8
0
 10
142.33472901672039
 20
685.13236023206332
 30
0.0
 40
27.0
  0
LINE
  5
1C09
  8
0
 10
112.3347290167203
 20
651.63236023206321
 30
0.0
 11
172.3347290167205
 21
651.63236023206321
 31
0.0
  0
ARC
  5
1C0A
  8
0
 10
112.9061575881489
 20
659.88236023206309
 30
0.0
 40
4.25
 50
131.18592516571269
 51
311.1859251657072
  0
ARC
  5
1C0B
  8
0
 10
112.3347290167203
 20
660.13236023206321
 30
0.0
 40
8.5
 50
180.0
 51
270.0
  0
ARC
  5
1C0C
  8
0
 10
115.7633004452918
 20
662.38236023206332
 30
0.0
 40
4.25
 50
311.1859251657072
 51
131.18592516570709
  0
LINE
  5
1C0D
  8
0
  6
CENTER
 10
108.20255324623071
 20
655.76670643288526
 30
0.0
 11
120.4669047872098
 21
666.4980140312415
 31
0.0
  0
LINE
  5
1C0E
  8
0
 10
115.70480217159
 20
656.68390927955897
 30
0.0
 11
118.56194502873301
 21
659.18390927955909
 31
0.0
  0
LINE
  5
1C0F
  8
0
 10
110.1075130047076
 20
663.08081118456744
 30
0.0
 11
112.9646558618505
 21
665.58081118456755
 31
0.0
  0
LINE
  5
1C10
  8
0
  6
CENTER
 10
118.45038281589871
 20
656.42875589014557
 30
0.0
 11
110.219075217542
 21
665.83596457398107
 31
0.0
  0
ARC
  5
1C11
  8
0
 10
172.3347290167205
 20
660.13236023206321
 30
0.0
 40
8.5
 50
270.0
 51
0.0
  0
ARC
  5
1C12
  8
0
 10
171.7633004452918
 20
659.88236023206309
 30
0.0
 40
4.25
 50
228.8140748342928
 51
48.81407483428729
  0
ARC
  5
1C13
  8
0
 10
168.90615758814889
 20
662.38236023206332
 30
0.0
 40
4.25
 50
48.814074834292803
 51
228.8140748342928
  0
LINE
  5
1C14
  8
0
  6
CENTER
 10
166.21907521754201
 20
656.42875589014557
 30
0.0
 11
174.45038281589851
 21
665.83596457398107
 31
0.0
  0
LINE
  5
1C15
  8
0
 10
174.56194502873311
 20
663.08081118456744
 30
0.0
 11
171.70480217158999
 21
665.58081118456755
 31
0.0
  0
LINE
  5
1C16
  8
0
 10
168.96465586185079
 20
656.68390927955897
 30
0.0
 11
166.10751300470761
 21
659.18390927955909
 31
0.0
  0
LINE
  5
1C17
  8
0
  6
CENTER
 10
176.46690478721001
 20
655.76670643288526
 30
0.0
 11
164.20255324623091
 21
666.4980140312415
 31
0.0
  0
ARC
  5
1C18
  8
0
 10
183.33472901672059
 20
670.28632013943695
 30
0.0
 40
9.7638888888889532
 50
255.16445409931089
 51
292.60355901515521
  0
LINE
  5
1C19
  8
0
 10
190.8402825161856
 20
664.52243125054827
 30
0.0
 11
180.83472901672039
 21
664.52243125054804
 31
0.0
  0
LINE
  5
1C1A
  8
0
 10
180.8347290167205
 20
660.52243125054792
 30
0.0
 11
188.96389414131929
 21
660.52243125054781
 31
0.0
  0
ARC
  5
1C1B
  8
0
 10
187.46839937419821
 20
665.63236023206321
 30
0.0
 40
1.0
 50
270.0
 51
351.98387862436857
  0
ARC
  5
1C1C
  8
0
 10
188.96389414131951
 20
663.2446534727701
 30
0.0
 40
2.7222222222221419
 50
270.0
 51
313.57357859652581
  0
ARC
  5
1C1D
  8
0
 10
188.96389414131951
 20
663.2446534727701
 30
0.0
 40
2.7222222222221419
 50
226.42642140347641
 51
270.00000000000159
  0
LINE
  5
1C1E
  8
0
 10
190.8402825161856
 20
664.52243125054781
 30
0.0
 11
190.8402825161856
 21
661.27243125054781
 31
0.0
  0
LINE
  5
1C1F
  8
0
 10
187.08750576645321
 20
664.52243125054792
 30
0.0
 11
187.08750576645321
 21
661.27243125054781
 31
0.0
  0
LINE
  5
1C20
  8
0
  6
CENTER
 10
183.3347290167205
 20
667.63236023206321
 30
0.0
 11
183.33472901672059
 21
657.5224312505477
 31
0.0
  0
LINE
  5
1C21
  8
0
 10
112.3347290167205
 20
718.63236023206343
 30
0.0
 11
172.3347290167203
 21
718.63236023206343
 31
0.0
  0
ARC
  5
1C22
  8
0
 10
112.3347290167205
 20
710.13236023206343
 30
0.0
 40
8.5
 50
90.0
 51
180.0
  0
ARC
  5
1C23
  8
0
 10
112.9061575881489
 20
710.38236023206343
 30
0.0
 40
4.25
 50
48.814074834292803
 51
228.81407483428731
  0
LINE
  5
1C24
  8
0
  6
CENTER
 10
118.45038281589871
 20
713.83596457398085
 30
0.0
 11
110.219075217542
 21
704.42875589014545
 31
0.0
  0
ARC
  5
1C25
  8
0
 10
115.7633004452918
 20
707.88236023206332
 30
0.0
 40
4.25
 50
228.8140748342928
 51
48.814074834292803
  0
LINE
  5
1C26
  8
0
  6
CENTER
 10
108.20255324623071
 20
714.49801403124115
 30
0.0
 11
120.4669047872098
 21
703.76670643288503
 31
0.0
  0
LINE
  5
1C27
  8
0
 10
110.1075130047076
 20
707.1839092795592
 30
0.0
 11
112.9646558618505
 21
704.68390927955909
 31
0.0
  0
LINE
  5
1C28
  8
0
 10
115.70480217159
 20
713.58081118456755
 30
0.0
 11
118.56194502873301
 21
711.08081118456744
 31
0.0
  0
LINE
  5
1C29
  8
0
 10
190.8402825161856
 20
705.74228921357883
 30
0.0
 11
190.8402825161856
 21
708.99228921357883
 31
0.0
  0
LINE
  5
1C2A
  8
0
 10
187.08750576645321
 20
705.74228921357872
 30
0.0
 11
187.08750576645321
 21
708.99228921357883
 31
0.0
  0
LINE
  5
1C2B
  8
0
  6
CENTER
 10
183.33472901672039
 20
715.52243125054792
 30
0.0
 11
183.3347290167205
 21
702.63236023206343
 31
0.0
  0
ARC
  5
1C2C
  8
0
 10
168.90615758814889
 20
707.88236023206332
 30
0.0
 40
4.25
 50
131.18592516570709
 51
311.1859251657072
  0
LINE
  5
1C2D
  8
0
  6
CENTER
 10
166.21907521754201
 20
713.83596457398085
 30
0.0
 11
174.45038281589851
 21
704.42875589014545
 31
0.0
  0
LINE
  5
1C2E
  8
0
  6
CENTER
 10
176.46690478721001
 20
714.49801403124115
 30
0.0
 11
164.20255324623091
 21
703.76670643288503
 31
0.0
  0
ARC
  5
1C2F
  8
0
 10
171.7633004452918
 20
710.38236023206343
 30
0.0
 40
4.25
 50
311.18592516571272
 51
131.18592516570709
  0
LINE
  5
1C30
  8
0
 10
174.56194502873311
 20
707.1839092795592
 30
0.0
 11
171.70480217158999
 21
704.68390927955909
 31
0.0
  0
LINE
  5
1C31
  8
0
 10
190.8402825161856
 20
705.74228921357815
 30
0.0
 11
180.8347290167203
 21
705.74228921357826
 31
0.0
  0
ARC
  5
1C32
  8
0
 10
187.46839937419821
 20
704.63236023206332
 30
0.0
 40
1.0
 50
8.0161213756313785
 51
90.0
  0
ARC
  5
1C33
  8
0
 10
187.46839937419821
 20
704.63236023206332
 30
0.0
 40
1.0
 50
8.0161213756313785
 51
90.0
  0
LINE
  5
1C34
  8
0
 10
186.73472901672011
 20
705.74228921357837
 30
0.0
 11
186.73472901672011
 21
705.63236023206343
 31
0.0
  0
ARC
  5
1C35
  8
0
 10
172.3347290167203
 20
710.13236023206343
 30
0.0
 40
8.5
 50
0.0
 51
90.0
  0
LINE
  5
1C36
  8
0
 10
168.96465586185079
 20
713.58081118456755
 30
0.0
 11
166.10751300470761
 21
711.08081118456744
 31
0.0
  0
LINE
  5
1C37
  8
0
 10
180.49178489041651
 20
712.52243125054804
 30
0.0
 11
186.73472901672011
 21
712.52243125054758
 31
0.0
  0
LINE
  5
1C38
  8
0
 10
180.6440999765934
 20
711.92243125054802
 30
0.0
 11
187.3347290167203
 21
711.92243125054756
 31
0.0
  0
LINE
  5
1C39
  8
0
 10
180.8347290167203
 20
709.7422892135786
 30
0.0
 11
188.96389414131929
 21
709.74228921357883
 31
0.0
  0
ARC
  5
1C3A
  8
0
 10
183.33472901672059
 20
699.97840032468957
 30
0.0
 40
9.7638888888889532
 50
67.396440984844816
 51
104.8355459006896
  0
ARC
  5
1C3B
  8
0
 10
188.96389414131951
 20
707.02006699135654
 30
0.0
 40
2.7222222222221419
 50
46.42642140347413
 51
90.0
  0
LINE
  5
1C3C
  8
0
 10
186.73472901672011
 20
712.52243125054758
 30
0.0
 11
187.3347290167203
 21
711.92243125054756
 31
0.0
  0
LINE
  5
1C3D
  8
0
 10
187.3347290167203
 20
711.92243125054756
 30
0.0
 11
187.33472901672039
 21
709.74228921357883
 31
0.0
  0
LINE
  5
1C3E
  8
0
 10
186.73472901672011
 20
712.52243125054758
 30
0.0
 11
186.73472901672011
 21
709.74228921357872
 31
0.0
  0
ARC
  5
1C3F
  8
0
 10
188.96389414131951
 20
707.02006699135654
 30
0.0
 40
2.7222222222221419
 50
89.999999999998366
 51
133.5735785965235
  0
ARC
  5
1C40
  8
0
 10
217.73472901672019
 20
685.13236023206332
 30
0.0
 40
28.09999999999993
 50
329.4606445234096
 51
30.539355476590309
  0
LINE
  5
1C41
  8
0
 10
224.83472901672039
 20
669.13236023206332
 30
0.0
 11
238.92222532940499
 21
669.13236023206332
 31
0.0
  0
LINE
  5
1C42
  8
0
 10
202.8347290167188
 20
667.13236023206332
 30
0.0
 11
224.83472901672039
 21
669.13236023206332
 31
0.0
  0
LINE
  5
1C43
  8
0
 10
194.48831742628209
 20
664.63236023206321
 30
0.0
 11
194.48831742628209
 21
667.13236023206298
 31
0.0
  0
ARC
  5
1C44
  8
0
 10
238.92222532940499
 20
672.63236023206332
 30
0.0
 40
3.5
 50
270.0
 51
329.46064452340931
  0
LINE
  5
1C45
  8
0
 10
202.83472901672039
 20
703.13236023206355
 30
0.0
 11
224.83472901672039
 21
701.13236023206332
 31
0.0
  0
LINE
  5
1C46
  8
0
 10
194.48831742628209
 20
705.63236023206343
 30
0.0
 11
194.48831742628209
 21
703.13236023206355
 31
0.0
  0
ARC
  5
1C47
  8
0
 10
238.92222532940511
 20
697.63236023206332
 30
0.0
 40
3.5
 50
30.539355476589751
 51
90.0
  0
LINE
  5
1C49
  8
0
  6
CENTER
 10
467.39216161636722
 20
925.47198691377685
 30
0.0
 11
467.39216161636722
 21
939.83299022092854
 31
0.0
  0
LINE
  5
1C4A
  8
0
 10
416.8921616163671
 20
926.33299022092854
 30
0.0
 11
469.89216161636722
 21
926.33299022092854
 31
0.0
  0
LINE
  5
1C4B
  8
0
 10
409.8921616163671
 20
932.33299022092865
 30
0.0
 11
476.89216161636722
 21
932.33299022092865
 31
0.0
  0
LINE
  5
1C4C
  8
0
 10
409.8921616163671
 20
934.83299022092842
 30
0.0
 11
476.89216161636722
 21
934.83299022092842
 31
0.0
  0
ARC
  5
1C4D
  8
0
 10
467.39216161636722
 20
922.33299022092842
 30
0.0
 40
4.0
 50
0.0
 51
90.0
  0
ARC
  5
1C4E
  8
0
 10
469.89216161636722
 20
930.33299022092842
 30
0.0
 40
4.0
 50
270.0
 51
0.0
  0
ARC
  5
1C4F
  8
0
 10
474.89216161636728
 20
931.33299022092865
 30
0.0
 40
1.0
 50
90.0
 51
180.0
  0
LINE
  5
1C50
  8
0
 10
473.89216161636722
 20
930.33299022092842
 30
0.0
 11
473.89216161636722
 21
931.33299022092865
 31
0.0
  0
LINE
  5
1C51
  8
0
 10
476.89216161636722
 20
934.83299022092842
 30
0.0
 11
476.89216161636722
 21
932.33299022092865
 31
0.0
  0
LINE
  5
1C52
  8
0
  6
CENTER
 10
419.39216161636722
 20
925.47198691377685
 30
0.0
 11
419.39216161636722
 21
939.83299022092854
 31
0.0
  0
LINE
  5
1C53
  8
0
 10
409.8921616163671
 20
934.83299022092842
 30
0.0
 11
409.8921616163671
 21
932.33299022092865
 31
0.0
  0
LINE
  5
1C54
  8
0
 10
415.39216161636722
 20
922.33299022092842
 30
0.0
 11
415.39216161636722
 21
921.08299022092865
 31
0.0
  0
ARC
  5
1C55
  8
0
 10
419.39216161636722
 20
922.33299022092842
 30
0.0
 40
4.0
 50
90.0
 51
180.0
  0
LINE
  5
1C56
  8
0
 10
412.8921616163671
 20
930.33299022092842
 30
0.0
 11
412.89216161636728
 21
931.33299022092865
 31
0.0
  0
ARC
  5
1C57
  8
0
 10
411.89216161636728
 20
931.33299022092865
 30
0.0
 40
1.0
 50
0.0
 51
90.0
  0
ARC
  5
1C58
  8
0
 10
416.8921616163671
 20
930.33299022092842
 30
0.0
 40
4.0
 50
180.0
 51
270.0
  0
LINE
  5
1C59
  8
0
 10
471.39216161636728
 20
922.33299022092842
 30
0.0
 11
471.39216161636728
 21
921.08299022092865
 31
0.0
  0
ARC
  5
1C5A
  8
0
 10
740.68450741387699
 20
922.33299022092842
 30
0.0
 40
4.0
 50
0.0
 51
90.0
  0
LINE
  5
1C5B
  8
0
 10
690.18450741387676
 20
926.33299022092854
 30
0.0
 11
743.18450741387687
 21
926.33299022092854
 31
0.0
  0
LINE
  5
1C5C
  8
0
 10
678.18450741387699
 20
932.33299022092865
 30
0.0
 11
755.18450741387687
 21
932.33299022092865
 31
0.0
  0
LINE
  5
1C5D
  8
0
 10
678.18450741387699
 20
934.83299022092842
 30
0.0
 11
755.18450741387676
 21
934.83299022092842
 31
0.0
  0
LINE
  5
1C5E
  8
0
 10
747.18450741387687
 20
930.33299022092842
 30
0.0
 11
747.18450741387687
 21
931.33299022092865
 31
0.0
  0
ARC
  5
1C5F
  8
0
 10
748.18450741387687
 20
931.33299022092865
 30
0.0
 40
1.0
 50
90.0
 51
180.0
  0
ARC
  5
1C60
  8
0
 10
743.18450741387687
 20
930.33299022092842
 30
0.0
 40
4.0
 50
270.0
 51
0.0
  0
LINE
  5
1C61
  8
0
  6
CENTER
 10
744.68450741387699
 20
925.47198691377685
 30
0.0
 11
744.68450741387699
 21
939.83299022092854
 31
0.0
  0
LINE
  5
1C62
  8
0
 10
755.18450741387687
 20
932.33299022092865
 30
0.0
 11
755.18450741387676
 21
934.83299022092842
 31
0.0
  0
ARC
  5
1C63
  8
0
 10
692.68450741387687
 20
922.33299022092842
 30
0.0
 40
4.0
 50
90.0
 51
180.0
  0
LINE
  5
1C64
  8
0
 10
688.68450741387687
 20
922.33299022092842
 30
0.0
 11
688.68450741387687
 21
921.08299022092865
 31
0.0
  0
ARC
  5
1C65
  8
0
 10
685.18450741387687
 20
931.33299022092865
 30
0.0
 40
1.0
 50
0.0
 51
90.0
  0
LINE
  5
1C66
  8
0
 10
686.18450741387676
 20
930.33299022092842
 30
0.0
 11
686.18450741387699
 21
931.33299022092865
 31
0.0
  0
LINE
  5
1C67
  8
0
 10
678.18450741387699
 20
932.33299022092865
 30
0.0
 11
678.1845074138771
 21
934.83299022092842
 31
0.0
  0
ARC
  5
1C68
  8
0
 10
690.18450741387676
 20
930.33299022092842
 30
0.0
 40
4.0
 50
180.0
 51
270.0
  0
LINE
  5
1C69
  8
0
  6
CENTER
 10
688.68450741387687
 20
925.47198691377685
 30
0.0
 11
688.68450741387687
 21
939.83299022092854
 31
0.0
  0
POLYLINE
  5
1C6C
  8
0
 66
     1
 10
0.0
 20
0.0
 30
0.0
 70
     1
  0
VERTEX
  5
1E3D
  8
0
 10
0.2768440381792132
 20
926.95486005962459
 30
0.0
  0
VERTEX
  5
1E3E
  8
0
 10
357.71926399629808
 20
926.95486005962459
 30
0.0
  0
VERTEX
  5
1E3F
  8
0
 10
357.71926399629808
 20
626.21604376252685
 30
0.0
  0
VERTEX
  5
1E40
  8
0
 10
0.2768440381792132
 20
626.21604376252685
 30
0.0
  0
SEQEND
  5
1E41
  8
0
  0
POLYLINE
  5
1C6D
  8
0
 66
     1
 10
0.0
 20
0.0
 30
0.0
 70
     1
  0
VERTEX
  5
1E42
  8
0
 10
386.00607297461409
 20
970.65195259507402
 30
0.0
  0
VERTEX
  5
1E43
  8
0
 10
779.44988936067284
 20
970.65195259507402
 30
0.0
  0
VERTEX
  5
1E44
  8
0
 10
779.44988936067284
 20
626.21604376252685
 30
0.0
  0
VERTEX
  5
1E45
  8
0
 10
386.00607297461409
 20
626.21604376252685
 30
0.0
  0
SEQEND
  5
1E46
  8
0
  0
LINE
  5
1D01
  8
0
 10
-601.79031505398029
 20
824.18880182208829
 30
0.0
 11
-601.79031505398029
 21
826.18880182208852
 31
0.0
  0
LINE
  5
1D02
  8
0
 10
-661.79031505398018
 20
824.18880182208829
 30
0.0
 11
-661.79031505398018
 21
826.18880182208829
 31
0.0
  0
LINE
  5
1D04
  8
0
 10
-661.79031505398018
 20
824.18880182208829
 30
0.0
 11
-601.79031505398029
 21
824.18880182208852
 31
0.0
  0
ARC
  5
1D43
  8
0
 10
-657.19031505398004
 20
820.18880182208841
 30
0.0
 40
4.0
 50
0.0
 51
90.000000000000099
  0
ARC
  5
1D44
  8
0
 10
-606.39031505398043
 20
820.18880182208841
 30
0.0
 40
4.0
 50
89.999999999999915
 51
180.0
  0
LINE
  5
1D45
  8
0
 10
-610.39031505398043
 20
817.18880182208852
 30
0.0
 11
-610.39031505398043
 21
820.18880182208841
 31
0.0
  0
ARC
  5
1D46
  8
0
 10
-651.19031505398004
 20
817.18880182208852
 30
0.0
 40
2.0
 50
180.0
 51
270.0
  0
ARC
  5
1D47
  8
0
 10
-612.39031505398043
 20
817.18880182208852
 30
0.0
 40
2.0
 50
270.0
 51
0.0
  0
ARC
  5
1D49
  8
0
 10
-650.19031505398004
 20
811.18880182208875
 30
0.0
 40
4.0
 50
89.999999999999815
 51
180.00000000000651
  0
ARC
  5
1D4A
  8
0
 10
-613.39031505398043
 20
811.18880182208875
 30
0.0
 40
4.0
 50
359.99999999999329
 51
90.000000000000185
  0
LINE
  5
1D4B
  8
0
 10
-585.2907213407085
 20
824.18880182208829
 30
0.0
 11
-525.29072134070861
 21
824.18880182208852
 31
0.0
  0
LINE
  5
1D4C
  8
0
 10
-585.2907213407085
 20
826.18880182208829
 30
0.0
 11
-525.2907213407085
 21
826.18880182208852
 31
0.0
  0
LINE
  5
1D4D
  8
0
 10
-576.69072134070836
 20
817.18880182208852
 30
0.0
 11
-576.69072134070836
 21
820.18880182208841
 31
0.0
  0
ARC
  5
1D4E
  8
0
 10
-580.69072134070836
 20
820.18880182208841
 30
0.0
 40
4.0
 50
0.0
 51
90.000000000000099
  0
LINE
  5
1D4F
  8
0
 10
-585.2907213407085
 20
824.18880182208829
 30
0.0
 11
-585.29072134070839
 21
826.18880182208829
 31
0.0
  0
LINE
  5
1D52
  8
0
 10
-525.29072134070861
 20
824.18880182208829
 30
0.0
 11
-525.29072134070861
 21
826.18880182208852
 31
0.0
  0
ARC
  5
1D54
  8
0
 10
-574.69072134070848
 20
817.18880182208852
 30
0.0
 40
2.0
 50
180.0
 51
270.0
  0
LINE
  5
1D55
  8
0
 10
-574.69072134070848
 20
815.18880182208852
 30
0.0
 11
-573.60545626129544
 21
815.18880182208852
 31
0.0
  0
ARC
  5
1D56
  8
0
 10
-573.60545626129544
 20
811.18880182208841
 30
0.0
 40
4.0
 50
90.0
 51
185.0226263133446
  0
ARC
  5
1D57
  8
0
 10
-529.89072134070875
 20
820.18880182208841
 30
0.0
 40
4.0
 50
89.999999999999915
 51
180.0
  0
LINE
  5
1D58
  8
0
 10
-535.89072134070875
 20
815.18880182208852
 30
0.0
 11
-536.97598642012179
 21
815.18880182208852
 31
0.0
  0
ARC
  5
1D59
  8
0
 10
-536.97598642012179
 20
811.18880182208841
 30
0.0
 40
4.0
 50
82.650777572575024
 51
90.0
  0
ARC
  5
1D5A
  8
0
 10
-535.89072134070875
 20
817.18880182208852
 30
0.0
 40
2.0
 50
270.0
 51
0.000000000000007
  0
LINE
  5
1D5B
  8
0
 10
-533.89072134070875
 20
817.18880182208852
 30
0.0
 11
-533.89072134070875
 21
820.18880182208841
 31
0.0
  0
ARC
  5
1D5C
  8
0
 10
-536.84806972852141
 20
812.18058673829239
 30
0.0
 40
3.0
 50
29.600351637532619
 51
82.650777572575095
  0
LINE
  5
1D5D
  8
0
 10
-573.60545626129544
 20
815.18880182208852
 30
0.0
 11
-536.97598642012179
 21
815.18880182208852
 31
0.0
  0
LINE
  5
1D5E
  8
0
 10
-471.41959325833659
 20
824.18880182208829
 30
0.0
 11
-411.41959325833648
 21
824.18880182208852
 31
0.0
  0
LINE
  5
1D5F
  8
0
 10
-471.41959325833659
 20
826.18880182208829
 30
0.0
 11
-411.41959325833642
 21
826.18880182208852
 31
0.0
  0
LINE
  5
1D60
  8
0
 10
-462.81959325833651
 20
817.18880182208852
 30
0.0
 11
-462.81959325833651
 21
820.18880182208841
 31
0.0
  0
ARC
  5
1D61
  8
0
 10
-466.81959325833651
 20
820.18880182208841
 30
0.0
 40
4.0
 50
0.0
 51
90.000000000000099
  0
LINE
  5
1D62
  8
0
 10
-471.41959325833659
 20
824.18880182208829
 30
0.0
 11
-471.41959325833642
 21
826.18880182208829
 31
0.0
  0
ARC
  5
1D63
  8
0
 10
-416.01959325833673
 20
820.18880182208841
 30
0.0
 40
4.0
 50
89.999999999999915
 51
180.0
  0
LINE
  5
1D64
  8
0
 10
-420.01959325833673
 20
817.18880182208852
 30
0.0
 11
-420.01959325833673
 21
820.18880182208841
 31
0.0
  0
LINE
  5
1D65
  8
0
 10
-411.41959325833648
 20
824.18880182208829
 30
0.0
 11
-411.41959325833648
 21
826.18880182208852
 31
0.0
  0
ARC
  5
1D66
  8
0
 10
-422.01959325833673
 20
817.18880182208852
 30
0.0
 40
2.0
 50
270.0
 51
0.0
  0
ARC
  5
1D67
  8
0
 10
-460.8195932583364
 20
817.18880182208852
 30
0.0
 40
2.0
 50
180.0
 51
270.0
  0
ARC
  5
1D6A
  8
0
 10
-459.81959325833623
 20
811.18880182208841
 30
0.0
 40
4.0
 50
90.0
 51
180.00000000000651
  0
ARC
  5
1D6B
  8
0
 10
-423.01959325833712
 20
811.18880182208841
 30
0.0
 40
4.0
 50
359.99999999999352
 51
90.000000000000171
  0
POLYLINE
  5
1D6E
  8
0
 66
     1
 10
0.0
 20
0.0
 30
0.0
 70
     1
  0
VERTEX
  5
1E47
  8
0
 10
-579.29072134070861
 20
631.42125299352665
 30
0.0
  0
VERTEX
  5
1E48
  8
0
 10
-531.2907213407085
 20
631.42125299352665
 30
0.0
 42
0.4142135623730951
  0
VERTEX
  5
1E49
  8
0
 10
-525.29072134070861
 20
637.42125299352676
 30
0.0
  0
VERTEX
  5
1E4A
  8
0
 10
-525.29072134070861
 20
685.42125299352665
 30
0.0
 42
0.4142135623730951
  0
VERTEX
  5
1E4B
  8
0
 10
-531.2907213407085
 20
691.42125299352676
 30
0.0
  0
VERTEX
  5
1E4C
  8
0
 10
-579.29072134070861
 20
691.42125299352676
 30
0.0
 42
0.4142135623730951
  0
VERTEX
  5
1E4D
  8
0
 10
-585.2907213407085
 20
685.42125299352665
 30
0.0
  0
VERTEX
  5
1E4E
  8
0
 10
-585.2907213407085
 20
637.42125299352676
 30
0.0
 42
0.4142135623730951
  0
SEQEND
  5
1E4F
  8
0
  0
ARC
  5
1DB5
  8
0
 10
-531.66940099714918
 20
685.04257333708654
 30
0.0
 40
3.149999999999999
 50
314.9999999999971
 51
135.0000000000029
  0
ARC
  5
1DB6
  8
0
 10
-535.91204168426816
 20
680.7999326499671
 30
0.0
 40
3.149999999999999
 50
135.0000000000029
 51
314.9999999999971
  0
LINE
  5
1DB7
  8
0
 10
-538.13942804500584
 20
683.02731901070479
 30
0.0
 11
-533.89678735788686
 21
687.26995969782399
 31
0.0
  0
LINE
  5
1DB8
  8
0
 10
-533.68465532353105
 20
678.5725462892301
 30
0.0
 11
-529.44201463641184
 21
682.81518697634897
 31
0.0
  0
LINE
  5
1DBF
  8
0
  6
CENTER
 10
-528.02780107403851
 20
688.68417326019744
 30
0.0
 11
-539.55364160737884
 21
677.15833272685632
 31
0.0
  0
LINE
  5
1DC0
  8
0
  6
CENTER
 10
-537.4323212638194
 20
686.56285291663744
 30
0.0
 11
-530.14912141759862
 21
679.27965307041654
 31
0.0
  0
LINE
  5
1DC1
  8
0
  6
CENTER
 10
-573.14912141759783
 20
686.56285291663744
 30
0.0
 11
-580.43232126381861
 21
679.27965307041654
 31
0.0
  0
LINE
  5
1DC2
  8
0
  6
CENTER
 10
-582.55364160737872
 20
688.68417326019744
 30
0.0
 11
-571.02780107403839
 21
677.15833272685632
 31
0.0
  0
ARC
  5
1DC3
  8
0
 10
-574.66940099714895
 20
680.7999326499671
 30
0.0
 40
3.149999999999999
 50
225.00000000000281
 51
44.999999999997073
  0
LINE
  5
1DC4
  8
0
 10
-572.44201463641139
 20
683.02731901070479
 30
0.0
 11
-576.68465532353025
 21
687.26995969782399
 31
0.0
  0
ARC
  5
1DC5
  8
0
 10
-578.91204168426805
 20
685.04257333708654
 30
0.0
 40
3.149999999999999
 50
44.999999999997073
 51
225.00000000000281
  0
LINE
  5
1DC6
  8
0
 10
-576.89678735788596
 20
678.5725462892301
 30
0.0
 11
-581.13942804500539
 21
682.81518697634897
 31
0.0
  0
LINE
  5
1DC7
  8
0
 10
-576.89678735788596
 20
644.26995969782342
 30
0.0
 11
-581.13942804500539
 21
640.02731901070445
 31
0.0
  0
ARC
  5
1DC8
  8
0
 10
-578.91204168426805
 20
637.79993264996688
 30
0.0
 40
3.149999999999999
 50
134.9999999999971
 51
315.0000000000029
  0
LINE
  5
1DC9
  8
0
  6
CENTER
 10
-582.55364160737872
 20
634.15833272685597
 30
0.0
 11
-571.02780107403839
 21
645.68417326019721
 31
0.0
  0
LINE
  5
1DCA
  8
0
  6
CENTER
 10
-573.14912141759783
 20
636.27965307041597
 30
0.0
 11
-580.43232126381861
 21
643.56285291663687
 31
0.0
  0
LINE
  5
1DCB
  8
0
 10
-572.44201463641139
 20
639.81518697634874
 30
0.0
 11
-576.68465532353025
 21
635.57254628922942
 31
0.0
  0
ARC
  5
1DCC
  8
0
 10
-574.66940099714895
 20
642.04257333708642
 30
0.0
 40
3.149999999999999
 50
315.0000000000029
 51
134.9999999999971
  0
LINE
  5
1DCD
  8
0
  6
CENTER
 10
-537.4323212638194
 20
636.27965307041597
 30
0.0
 11
-530.14912141759862
 21
643.56285291663687
 31
0.0
  0
LINE
  5
1DCE
  8
0
  6
CENTER
 10
-528.02780107403851
 20
634.15833272685597
 30
0.0
 11
-539.55364160737884
 21
645.68417326019721
 31
0.0
  0
ARC
  5
1DCF
  8
0
 10
-535.91204168426816
 20
642.04257333708642
 30
0.0
 40
3.149999999999999
 50
45.000000000002899
 51
224.99999999999699
  0
LINE
  5
1DD0
  8
0
 10
-538.13942804500584
 20
639.81518697634874
 30
0.0
 11
-533.89678735788686
 21
635.57254628922942
 31
0.0
  0
ARC
  5
1DD1
  8
0
 10
-531.66940099714918
 20
637.79993264996688
 30
0.0
 40
3.149999999999999
 50
224.99999999999699
 51
45.000000000002899
  0
LINE
  5
1DD2
  8
0
 10
-533.68465532353105
 20
644.26995969782342
 30
0.0
 11
-529.44201463641184
 21
640.02731901070445
 31
0.0
  0
CIRCLE
  5
1DD3
  8
0
 10
-555.29072134070861
 20
661.42125299352665
 30
0.0
 40
5.5
  0
CIRCLE
  5
1DD4
  8
0
 10
-555.29072134070861
 20
661.42125299352665
 30
0.0
 40
12.0
  0
CIRCLE
  5
1DD5
  8
0
 10
-555.29072134070861
 20
661.42125299352665
 30
0.0
 40
19.5
  0
VIEWPORT
  5
8D
 67
     1
  8
0
 10
143.6904762066489
 20
99.980751991271987
 30
0.0
 40
339.5519697008574
 41
222.1965796813964
 68
     1
 69
     1
1001
ACAD
1000
MVIEW
1002
{
1070
    16
1010
0.0
1020
0.0
1030
0.0
1010
0.0
1020
0.0
1030
1.0
1040
0.0
1040
222.1965796813964
1040
143.6904762066489
1040
99.980751991271987
1040
50.0
1040
0.0
1040
0.0
1070
     0
1070
   100
1070
     1
1070
     1
1070
     0
1070
     0
1070
     0
1070
     0
1040
0.0
1040
0.0
1040
0.0
1040
10.0
1040
10.0
1040
10.0
1040
10.0
1070
     0
1002
{
1002
}
1002
}
  0
VIEWPORT
  5
8F
 67
     1
  8
0
 10
143.37242841720581
 20
99.874916553497314
 30
0.0
 40
229.3958854675293
 41
159.79986648559569
 68
     2
 69
     2
1001
ACAD
1000
MVIEW
1002
{
1070
    16
1010
0.0
1020
0.0
1030
0.0
1010
0.0
1020
0.0
1030
1.0
1040
0.0
1040
300.10452961672468
1040
210.0
1040
148.5
1040
50.0
1040
0.0
1040
0.0
1070
     0
1070
   100
1070
     1
1070
     2
1070
     0
1070
     0
1070
     0
1070
     0
1040
0.0
1040
0.0
1040
0.0
1040
10.0
1040
10.0
1040
10.0
1040
10.0
1070
     0
1002
{
1002
}
1002
}
  0
ENDSEC
  0
EOF
