  0
SECTION
  2
HEADER
  9
$ACADVER
  1
AC1009
  9
$INSBASE
 10
0.0
 20
0.0
 30
0.0
  9
$EXTMIN
 10
-667.28861193036209
 20
626.20905235124246
 30
-0.0000000349181948
  9
$EXTMAX
 10
775.13652255112993
 20
955.69682544172326
 30
0.0000000814935746
  9
$LIMMIN
 10
0.0
 20
0.0
  9
$LIMMAX
 10
420.0
 20
297.0
  9
$ORTHOMODE
 70
     1
  9
$REGENMODE
 70
     1
  9
$FILLMODE
 70
     1
  9
$QTEXTMODE
 70
     0
  9
$MIRRTEXT
 70
     1
  9
$DRAGMODE
 70
     2
  9
$LTSCALE
 40
1.0
  9
$OSMODE
 70
    40
  9
$ATTMODE
 70
     1
  9
$TEXTSIZE
 40
2.5
  9
$TRACEWID
 40
1.0
  9
$TEXTSTYLE
  7
STANDARD
  9
$CLAYER
  8
0
  9
$CELTYPE
  6
BYLAYER
  9
$CECOLOR
 62
   256
  9
$DIMSCALE
 40
1.0
  9
$DIMASZ
 40
2.5
  9
$DIMEXO
 40
0.625
  9
$DIMDLI
 40
3.75
  9
$DIMRND
 40
0.0
  9
$DIMDLE
 40
0.0
  9
$DIMEXE
 40
1.25
  9
$DIMTP
 40
0.0
  9
$DIMTM
 40
0.0
  9
$DIMTXT
 40
2.5
  9
$DIMCEN
 40
2.5
  9
$DIMTSZ
 40
0.0
  9
$DIMTOL
 70
     0
  9
$DIMLIM
 70
     0
  9
$DIMTIH
 70
     1
  9
$DIMTOH
 70
     1
  9
$DIMSE1
 70
     0
  9
$DIMSE2
 70
     0
  9
$DIMTAD
 70
     1
  9
$DIMZIN
 70
     8
  9
$DIMBLK
  1

  9
$DIMASO
 70
     1
  9
$DIMSHO
 70
     1
  9
$DIMPOST
  1

  9
$DIMAPOST
  1

  9
$DIMALT
 70
     0
  9
$DIMALTD
 70
     3
  9
$DIMALTF
 40
0.03937007874016
  9
$DIMLFAC
 40
1.0
  9
$DIMTOFL
 70
     1
  9
$DIMTVP
 40
0.0
  9
$DIMTIX
 70
     0
  9
$DIMSOXD
 70
     0
  9
$DIMSAH
 70
     0
  9
$DIMBLK1
  1

  9
$DIMBLK2
  1

  9
$DIMSTYLE
  2
ISO-25
  9
$DIMCLRD
 70
     0
  9
$DIMCLRE
 70
     0
  9
$DIMCLRT
 70
     0
  9
$DIMTFAC
 40
1.0
  9
$DIMGAP
 40
0.625
  9
$LUNITS
 70
     2
  9
$LUPREC
 70
     4
  9
$SKETCHINC
 40
1.0
  9
$FILLETRAD
 40
10.0
  9
$AUNITS
 70
     0
  9
$AUPREC
 70
     0
  9
$MENU
  1
.
  9
$ELEVATION
 40
0.0
  9
$PELEVATION
 40
0.0
  9
$THICKNESS
 40
0.0
  9
$LIMCHECK
 70
     0
  9
$BLIPMODE
 70
     0
  9
$CHAMFERA
 40
0.5
  9
$CHAMFERB
 40
0.5
  9
$SKPOLY
 70
     0
  9
$TDCREATE
 40
2453692.5269630789
  9
$TDUPDATE
 40
2453693.4416559492
  9
$TDINDWG
 40
0.8650044444
  9
$TDUSRTIMER
 40
0.8650043287
  9
$USRTIMER
 70
     1
  9
$ANGBASE
 50
0.0
  9
$ANGDIR
 70
     0
  9
$PDMODE
 70
     3
  9
$PDSIZE
 40
2.0
  9
$PLINEWID
 40
0.0
  9
$COORDS
 70
     0
  9
$SPLFRAME
 70
     0
  9
$SPLINETYPE
 70
     6
  9
$SPLINESEGS
 70
     8
  9
$ATTDIA
 70
     0
  9
$ATTREQ
 70
     1
  9
$HANDLING
 70
-16383
  9
$HANDSEED
  5
17E5
  9
$SURFTAB1
 70
     6
  9
$SURFTAB2
 70
     6
  9
$SURFTYPE
 70
     6
  9
$SURFU
 70
     6
  9
$SURFV
 70
     6
  9
$UCSNAME
  2

  9
$UCSORG
 10
0.0
 20
0.0
 30
0.0
  9
$UCSXDIR
 10
1.0
 20
0.0
 30
0.0
  9
$UCSYDIR
 10
0.0
 20
1.0
 30
0.0
  9
$PUCSNAME
  2

  9
$PUCSORG
 10
0.0
 20
0.0
 30
0.0
  9
$PUCSXDIR
 10
1.0
 20
0.0
 30
0.0
  9
$PUCSYDIR
 10
0.0
 20
1.0
 30
0.0
  9
$USERI1
 70
     0
  9
$USERI2
 70
     0
  9
$USERI3
 70
     0
  9
$USERI4
 70
     0
  9
$USERI5
 70
     0
  9
$USERR1
 40
0.0
  9
$USERR2
 40
0.0
  9
$USERR3
 40
0.0
  9
$USERR4
 40
0.0
  9
$USERR5
 40
0.0
  9
$WORLDVIEW
 70
     1
  9
$SHADEDGE
 70
     3
  9
$SHADEDIF
 70
    70
  9
$TILEMODE
 70
     1
  9
$MAXACTVP
 70
    48
  9
$PLIMCHECK
 70
     0
  9
$PEXTMIN
 10
28.674485683441159
 20
19.97498331069945
 30
0.0
  9
$PEXTMAX
 10
258.0703711509704
 20
179.77484979629509
 30
0.0
  9
$PLIMMIN
 10
-5.027069091796875
 20
-5.0270833969116211
  9
$PLIMMAX
 10
291.98358154296869
 20
204.98858737945551
  9
$UNITMODE
 70
     0
  9
$VISRETAIN
 70
     1
  9
$PLINEGEN
 70
     0
  9
$PSLTSCALE
 70
     1
  0
ENDSEC
  0
SECTION
  2
TABLES
  0
TABLE
  2
VPORT
 70
     5
  0
VPORT
  2
*ACTIVE
 70
     0
 10
0.0
 20
0.0
 11
1.0
 21
1.0
 12
53.923955310383917
 22
790.95293889648292
 13
0.0
 23
0.0
 14
10.0
 24
10.0
 15
10.0
 25
10.0
 16
0.0
 26
0.0
 36
1.0
 17
0.0
 27
0.0
 37
0.0
 40
948.52906019783825
 41
1.5281602002503121
 42
50.0
 43
0.0
 44
0.0
 50
0.0
 51
0.0
 71
     0
 72
   100
 73
     1
 74
     2
 75
     0
 76
     0
 77
     0
 78
     1
  0
ENDTAB
  0
TABLE
  2
LTYPE
 70
     2
  0
LTYPE
  2
CONTINUOUS
 70
     0
  3
Solid line
 72
    65
 73
     0
 40
0.0
  0
LTYPE
  2
CENTER
 70
     0
  3
Center (.5x) ___ _ ___ _ ___ _ ___ _ ___ _ ___
 72
    65
 73
     4
 40
28.574999999999989
 49
19.050000000000001
 49
-3.1749999999999989
 49
3.1749999999999989
 49
-3.1749999999999989
  0
ENDTAB
  0
TABLE
  2
LAYER
 70
     1
  0
LAYER
  2
0
 70
     0
 62
     7
  6
CONTINUOUS
  0
ENDTAB
  0
TABLE
  2
STYLE
 70
     1
  0
STYLE
  2
STANDARD
 70
     0
 40
0.0
 41
1.0
 50
0.0
 71
     0
 42
2.5
  3
txt
  4

  0
ENDTAB
  0
TABLE
  2
VIEW
 70
     0
  0
ENDTAB
  0
TABLE
  2
UCS
 70
     0
  0
ENDTAB
  0
TABLE
  2
APPID
 70
     1
  0
APPID
  2
ACAD
 70
     0
  0
ENDTAB
  0
TABLE
  2
DIMSTYLE
 70
     1
  0
DIMSTYLE
  2
ISO-25
 70
     0
  3

  4

  5

  6

  7

 40
1.0
 41
2.5
 42
0.625
 43
3.75
 44
1.25
 45
0.0
 46
0.0
 47
0.0
 48
0.0
140
2.5
141
2.5
142
0.0
143
0.03937007874016
144
1.0
145
0.0
146
1.0
147
0.625
 71
     0
 72
     0
 73
     1
 74
     1
 75
     0
 76
     0
 77
     1
 78
     8
170
     0
171
     3
172
     1
173
     0
174
     0
175
     0
176
     0
177
     0
178
     0
  0
ENDTAB
  0
ENDSEC
  0
SECTION
  2
BLOCKS
  0
BLOCK
  8
0
  2
$MODEL_SPACE
 70
     0
 10
0.0
 20
0.0
 30
0.0
  3
$MODEL_SPACE
  1

  0
ENDBLK
  5
21
  8
0
  0
BLOCK
 67
     1
  8
0
  2
$PAPER_SPACE
 70
     0
 10
0.0
 20
0.0
 30
0.0
  3
$PAPER_SPACE
  1

  0
ENDBLK
  5
53
 67
     1
  8
0
  0
ENDSEC
  0
SECTION
  2
ENTITIES
  0
ARC
  5
147
  8
0
 10
-191.5923864445522
 20
782.68284184022571
 30
0.0
 40
50.0
 50
153.04261096977089
 51
80.480011836113377
  0
POLYLINE
  5
148
  8
0
 66
     1
 10
0.0
 20
0.0
 30
0.0
 70
     1
  0
VERTEX
  5
17B5
  8
0
 10
-195.34516319428479
 20
789.18284184022571
 30
0.0
  0
VERTEX
  5
17B6
  8
0
 10
-199.09793994401741
 20
782.68284184022571
 30
0.0
  0
VERTEX
  5
17B7
  8
0
 10
-195.34516319428479
 20
776.18284184022571
 30
0.0
  0
VERTEX
  5
17B8
  8
0
 10
-187.8396096948197
 20
776.18284184022571
 30
0.0
  0
VERTEX
  5
17B9
  8
0
 10
-184.08683294508711
 20
782.68284184022571
 30
0.0
  0
VERTEX
  5
17BA
  8
0
 10
-187.8396096948197
 20
789.18284184022571
 30
0.0
  0
SEQEND
  5
17BB
  8
0
  0
CIRCLE
  5
149
  8
0
 10
-191.5923864445522
 20
782.68284184022571
 30
0.0
 40
6.5
  0
ARC
  5
14A
  8
0
 10
-193.49885383830679
 20
781.95186648901881
 30
0.0
 40
13.0
 50
225.6379573356578
 51
349.22731283228251
  0
LINE
  5
14B
  8
0
 10
-248.5717941173732
 20
867.68284184022548
 30
0.0
 11
-210.61297877173129
 21
867.68284184022548
 31
0.0
  0
LINE
  5
14C
  8
0
  6
CENTER
 10
-191.5923864445522
 20
729.68284184022571
 30
0.0
 11
-191.5923864445522
 21
835.68284184022559
 31
0.0
  0
LINE
  5
150
  8
0
 10
-259.5923864445524
 20
855.68284184022559
 30
0.0
 11
-199.5923864445522
 21
855.68284184022582
 31
0.0
  0
LINE
  5
151
  8
0
 10
-254.6182464236621
 20
864.20993901889415
 30
0.0
 11
-259.59238644455229
 21
855.68284184022582
 31
0.0
  0
LINE
  5
152
  8
0
 10
-204.56652646544231
 20
864.20993901889415
 30
0.0
 11
-199.5923864445522
 21
855.68284184022582
 31
0.0
  0
ARC
  5
153
  8
0
 10
-248.5717941173732
 20
860.68284184022559
 30
0.0
 40
7.0
 50
90.0
 51
149.7435628364706
  0
ARC
  5
154
  8
0
 10
-210.61297877173129
 20
860.68284184022559
 30
0.0
 40
7.0
 50
30.25643716352938
 51
90.0
  0
LINE
  5
155
  8
0
 10
-257.97006931832527
 20
853.93284184022571
 30
0.0
 11
-201.5923864445522
 21
853.93284184022559
 31
0.0
  0
LINE
  5
156
  8
0
 10
-201.5923864445522
 20
853.93284184022559
 30
0.0
 11
-201.59238644455229
 21
855.68284184022582
 31
0.0
  0
LINE
  5
157
  8
0
 10
-257.59238644455229
 20
853.93284184022559
 30
0.0
 11
-257.59238644455229
 21
855.68284184022582
 31
0.0
  0
LINE
  5
158
  8
0
 10
-259.59238644455229
 20
848.68284184022548
 30
0.0
 11
-259.46928223422299
 21
852.48142818404472
 31
0.0
  0
LINE
  5
159
  8
0
 10
-259.59238644455229
 20
848.68284184022548
 30
0.0
 11
-256.16265254797361
 21
837.68284184022559
 31
0.0
  0
ARC
  5
15A
  8
0
 10
-99.146873884587336
 20
912.46585383634965
 30
0.0
 40
173.91507592063991
 50
205.46738840009189
 51
233.50295153760351
  0
LINE
  5
15B
  8
0
 10
-201.5923864445522
 20
853.93284184022559
 30
0.0
 11
-185.09238644455229
 21
853.05898589983235
 31
0.0
  0
ARC
  5
15C
  8
0
 10
-191.5923864445522
 20
782.68284184022571
 30
0.0
 40
38.0
 50
160.90537251866149
 51
75.089587721367636
  0
ARC
  5
15D
  8
0
 10
-191.5923864445522
 20
782.68284184022571
 30
0.0
 40
45.0
 50
155.92557155682951
 51
78.51286775117218
  0
ARC
  5
15E
  8
0
 10
-191.5923864445522
 20
782.68284184022571
 30
0.0
 40
36.0
 50
162.6184048252081
 51
73.908893530428031
  0
LINE
  5
15F
  8
0
 10
-185.09238644455229
 20
853.05898589983235
 30
0.0
 11
-185.09238644455229
 21
850.55548227499924
 31
0.0
  0
LINE
  5
160
  8
0
 10
-186.59238644455229
 20
853.13842734895911
 30
0.0
 11
-186.59238644455229
 21
850.63492372412588
 31
0.0
  0
LINE
  5
161
  8
0
 10
-186.59238644455229
 20
850.63492372412588
 30
0.0
 11
-185.09238644455229
 21
850.55548227499924
 31
0.0
  0
ARC
  5
162
  8
0
 10
-470.85839604233553
 20
791.16746460486581
 30
0.0
 40
290.4195980073448
 50
357.84936409849178
 51
11.815680265872681
  0
ARC
  5
163
  8
0
 10
-185.63984212971181
 20
780.45656218414786
 30
0.0
 40
5.0
 50
349.22731283228251
 51
357.84936409849018
  0
LINE
  5
164
  8
0
 10
-205.43879803499061
 20
781.18626770933406
 30
0.0
 11
-205.43879803499061
 21
848.93284184022571
 31
0.0
  0
LINE
  5
165
  8
0
 10
-211.93879803499061
 20
786.72689917342404
 30
0.0
 11
-211.9387980349905
 21
848.93284184022548
 31
0.0
  0
LINE
  5
166
  8
0
  6
CENTER
 10
-244.5923864445522
 20
782.68284184022571
 30
0.0
 11
-138.5923864445522
 21
782.68284184022571
 31
0.0
  0
LINE
  5
167
  8
0
  6
CENTER
 10
-265.59238644455218
 20
662.20868028091991
 30
0.0
 11
-138.5923864445522
 21
662.20868028091991
 31
0.0
  0
LINE
  5
168
  8
0
  6
CENTER
 10
-229.59238644455229
 20
695.20868028091991
 30
0.0
 11
-229.59238644455229
 21
629.20868028091979
 31
0.0
  0
ARC
  5
16A
  8
0
 10
-325.9257197778835
 20
662.20868028091979
 30
0.0
 40
140.83333333333121
 50
351.98387862436857
 51
8.0161213756313785
  0
ARC
  5
16B
  8
0
 10
-187.45871608707441
 20
681.70868028091991
 30
0.0
 40
1.0
 50
8.0161213756313785
 51
90.0
  0
LINE
  5
16C
  8
0
 10
-200.27089262176079
 20
682.70868028091991
 30
0.0
 11
-180.43879803499061
 21
682.70868028091991
 31
0.0
  0
LINE
  5
16D
  8
0
 10
-186.00421400490669
 20
678.20868028091991
 30
0.0
 11
-146.34000808078821
 21
678.20868028091991
 31
0.0
  0
LINE
  5
16E
  8
0
 10
-186.00421400490669
 20
646.20868028091979
 30
0.0
 11
-146.34000808078821
 21
646.20868028091979
 31
0.0
  0
ARC
  5
16F
  8
0
 10
-185.75905311121889
 20
662.20868028091991
 30
0.0
 40
44.166666666666679
 50
341.09499869712818
 51
18.905001302871739
  0
ARC
  5
170
  8
0
 10
-146.34000808078821
 20
675.70868028092002
 30
0.0
 40
2.5
 50
18.905001302871739
 51
90.0
  0
ARC
  5
171
  8
0
 10
-146.34000808078821
 20
648.70868028092002
 30
0.0
 40
2.5
 50
270.0
 51
341.09499869712818
  0
LINE
  5
172
  8
0
 10
-180.43879803499061
 20
682.70868028091991
 30
0.0
 11
-180.43879803499061
 21
680.20868028092013
 31
0.0
  0
LINE
  5
173
  8
0
 10
-186.2474187509267
 20
680.20868028092002
 30
0.0
 11
-180.43879803499061
 21
680.20868028092002
 31
0.0
  0
LINE
  5
174
  8
0
 10
-186.2474187509267
 20
644.20868028091979
 30
0.0
 11
-180.43879803499061
 21
644.20868028091979
 31
0.0
  0
ARC
  5
175
  8
0
 10
-187.45871608707441
 20
642.70868028091991
 30
0.0
 40
1.0
 50
270.0
 51
351.98387862436857
  0
LINE
  5
176
  8
0
 10
-180.43879803499061
 20
641.70868028091979
 30
0.0
 11
-180.43879803499061
 21
644.20868028091957
 31
0.0
  0
LINE
  5
177
  8
0
 10
-200.27089262176071
 20
641.70868028091979
 30
0.0
 11
-180.43879803499061
 21
641.70868028091979
 31
0.0
  0
LINE
  5
178
  8
0
 10
-184.08683294508711
 20
641.5987512994044
 30
0.0
 11
-184.08683294508711
 21
638.3487512994044
 31
0.0
  0
LINE
  5
179
  8
0
 10
-199.0979399440173
 20
641.5987512994044
 30
0.0
 11
-199.09793994401721
 21
638.34875129940451
 31
0.0
  0
LINE
  5
17A
  8
0
 10
-195.34516319428479
 20
641.5987512994044
 30
0.0
 11
-195.34516319428471
 21
638.34875129940451
 31
0.0
  0
LINE
  5
17B
  8
0
 10
-187.83960969481959
 20
641.5987512994044
 30
0.0
 11
-187.83960969481959
 21
638.3487512994044
 31
0.0
  0
LINE
  5
17C
  8
0
 10
-197.2215515691511
 20
637.59875129940463
 30
0.0
 11
-185.96322131995339
 21
637.59875129940428
 31
0.0
  0
LINE
  5
17D
  8
0
 10
-184.08683294508711
 20
641.59875129940497
 30
0.0
 11
-199.0979399440173
 21
641.5987512994044
 31
0.0
  0
ARC
  5
17E
  8
0
 10
-200.27089262176099
 20
702.70868028092002
 30
0.0
 40
20.0
 50
234.0959314166825
 51
270.0
  0
ARC
  5
17F
  8
0
 10
-200.27089262176079
 20
621.70868028091979
 30
0.0
 40
20.0
 50
90.0
 51
125.9040685833174
  0
CIRCLE
  5
180
  8
0
 10
-229.59238644455229
 20
662.20868028091991
 30
0.0
 40
21.0
  0
CIRCLE
  5
181
  8
0
 10
-229.59238644455229
 20
662.20868028091991
 30
0.0
 40
17.5
  0
CIRCLE
  5
182
  8
0
 10
-229.59238644455229
 20
662.20868028091991
 30
0.0
 40
12.5
  0
CIRCLE
  5
183
  8
0
 10
-229.59238644455229
 20
662.20868028091991
 30
0.0
 40
7.0
  0
CIRCLE
  5
184
  8
0
 10
-229.59238644455229
 20
662.20868028091991
 30
0.0
 40
30.00000000000005
  0
ARC
  5
185
  8
0
 10
-197.22155156915099
 20
640.32097352162657
 30
0.0
 40
2.7222222222221419
 50
269.99999999999829
 51
313.57357859652348
  0
ARC
  5
186
  8
0
 10
-191.59238644455209
 20
647.36264018829354
 30
0.0
 40
9.7638888888889532
 50
247.39644098484479
 51
292.60355901515521
  0
ARC
  5
187
  8
0
 10
-197.22155156915099
 20
640.32097352162657
 30
0.0
 40
2.7222222222221419
 50
226.42642140347411
 51
270.0
  0
ARC
  5
188
  8
0
 10
-185.96322131995319
 20
640.32097352162657
 30
0.0
 40
2.7222222222221419
 50
226.42642140347641
 51
270.00000000000159
  0
ARC
  5
189
  8
0
 10
-185.96322131995319
 20
640.32097352162657
 30
0.0
 40
2.7222222222221419
 50
270.0
 51
313.57357859652581
  0
ARC
  5
18A
  8
0
 10
-191.59238644455209
 20
677.05472037354616
 30
0.0
 40
9.7638888888889532
 50
67.396440984844816
 51
112.6035590151551
  0
LINE
  5
18B
  8
0
 10
-197.2215515691511
 20
686.81860926243519
 30
0.0
 11
-185.96322131995339
 21
686.81860926243542
 31
0.0
  0
LINE
  5
18C
  8
0
 10
-184.08683294508711
 20
682.81860926243485
 30
0.0
 11
-199.0979399440173
 21
682.81860926243542
 31
0.0
  0
ARC
  5
18D
  8
0
 10
-197.22155156915099
 20
684.09638704021313
 30
0.0
 40
2.7222222222221419
 50
90.0
 51
133.57357859652581
  0
LINE
  5
18E
  8
0
 10
-199.0979399440173
 20
682.81860926243542
 30
0.0
 11
-199.09793994401721
 21
686.06860926243519
 31
0.0
  0
ARC
  5
18F
  8
0
 10
-197.22155156915099
 20
684.09638704021313
 30
0.0
 40
2.7222222222221419
 50
46.426421403476432
 51
90.000000000001606
  0
LINE
  5
190
  8
0
 10
-195.34516319428479
 20
682.8186092624353
 30
0.0
 11
-195.34516319428471
 21
686.06860926243519
 31
0.0
  0
ARC
  5
191
  8
0
 10
-185.96322131995319
 20
684.09638704021313
 30
0.0
 40
2.7222222222221419
 50
46.42642140347413
 51
90.0
  0
ARC
  5
192
  8
0
 10
-185.96322131995319
 20
684.09638704021313
 30
0.0
 40
2.7222222222221419
 50
89.999999999998366
 51
133.5735785965235
  0
LINE
  5
193
  8
0
 10
-187.83960969481959
 20
682.8186092624353
 30
0.0
 11
-187.83960969481959
 21
686.06860926243542
 31
0.0
  0
LINE
  5
194
  8
0
 10
-184.08683294508711
 20
682.81860926243542
 30
0.0
 11
-184.08683294508711
 21
686.06860926243542
 31
0.0
  0
ARC
  5
195
  8
0
 10
-187.45871608707441
 20
681.70868028091991
 30
0.0
 40
1.0
 50
8.0161213756313785
 51
90.0
  0
LINE
  5
196
  8
0
  6
CENTER
 10
-191.59238644455229
 20
692.59875129940451
 30
0.0
 11
-191.5923864445522
 21
679.70868028092002
 31
0.0
  0
LINE
  5
197
  8
0
 10
-187.59238644455249
 20
688.99875129940415
 30
0.0
 11
-187.59238644455229
 21
686.81860926243542
 31
0.0
  0
LINE
  5
198
  8
0
 10
-194.99238644455221
 20
689.59875129940463
 30
0.0
 11
-188.19238644455251
 21
689.59875129940417
 31
0.0
  0
LINE
  5
199
  8
0
 10
-195.59238644455229
 20
688.99875129940449
 30
0.0
 11
-195.59238644455229
 21
686.81860926243542
 31
0.0
  0
LINE
  5
19A
  8
0
  6
CENTER
 10
-191.59238644455209
 20
644.70868028091979
 30
0.0
 11
-191.59238644455209
 21
634.59875129940428
 31
0.0
  0
ARC
  5
1A1
  8
0
 10
-257.97006931832527
 20
852.43284184022571
 30
0.0
 40
1.5
 50
90.0
 51
178.1438136990557
  0
LINE
  5
1A4
  8
0
 10
-186.2474187509267
 20
679.70868028092002
 30
0.0
 11
-169.5923864445522
 21
679.70868028092002
 31
0.0
  0
LINE
  5
1A5
  8
0
 10
-186.2474187509267
 20
644.70868028091979
 30
0.0
 11
-169.5923864445522
 21
644.70868028091979
 31
0.0
  0
LINE
  5
1A6
  8
0
 10
-169.5923864445522
 20
679.70868028092002
 30
0.0
 11
-155.5923864445522
 21
678.20868028091991
 31
0.0
  0
LINE
  5
1A7
  8
0
 10
-169.5923864445522
 20
644.70868028091979
 30
0.0
 11
-155.5923864445522
 21
646.20868028091979
 31
0.0
  0
LINE
  5
2A3
  8
0
 10
-194.99238644455221
 20
689.59875129940463
 30
0.0
 11
-195.59238644455229
 21
688.99875129940449
 31
0.0
  0
LINE
  5
2A4
  8
0
 10
-188.19238644455251
 20
689.59875129940417
 30
0.0
 11
-187.59238644455249
 21
688.99875129940415
 31
0.0
  0
LINE
  5
2A5
  8
0
 10
-195.59238644455229
 20
688.99875129940449
 30
0.0
 11
-187.59238644455249
 21
688.99875129940415
 31
0.0
  0
LINE
  5
2A6
  8
0
 10
-188.19238644455251
 20
689.59875129940417
 30
0.0
 11
-188.19238644455251
 21
686.8186092624353
 31
0.0
  0
LINE
  5
2A7
  8
0
 10
-188.19238644455251
 20
682.81860926243496
 30
0.0
 11
-188.19238644455251
 21
682.70868028091991
 31
0.0
  0
LINE
  5
2A8
  8
0
 10
-194.9923864445521
 20
689.59875129940417
 30
0.0
 11
-194.9923864445521
 21
686.8186092624353
 31
0.0
  0
LINE
  5
350
  8
0
 10
-356.58830413163372
 20
853.93284184022571
 30
0.0
 11
-299.18830413163357
 21
853.93284184022559
 31
0.0
  0
LINE
  5
351
  8
0
 10
-357.88830413163379
 20
855.68284184022559
 30
0.0
 11
-297.88830413163362
 21
855.68284184022582
 31
0.0
  0
LINE
  5
352
  8
0
 10
-346.86771180445459
 20
867.68284184022548
 30
0.0
 11
-308.90889645881282
 21
867.68284184022548
 31
0.0
  0
LINE
  5
353
  8
0
 10
-352.91416411074363
 20
864.20993901889415
 30
0.0
 11
-357.88830413163367
 21
855.68284184022582
 31
0.0
  0
LINE
  5
355
  8
0
 10
-355.88830413163379
 20
853.93284184022559
 30
0.0
 11
-355.88830413163367
 21
855.68284184022582
 31
0.0
  0
ARC
  5
356
  8
0
 10
-346.86771180445459
 20
860.68284184022559
 30
0.0
 40
7.0
 50
90.0
 51
149.7435628364706
  0
LINE
  5
357
  8
0
 10
-302.86244415252378
 20
864.20993901889415
 30
0.0
 11
-297.88830413163367
 21
855.68284184022582
 31
0.0
  0
ARC
  5
358
  8
0
 10
-308.90889645881282
 20
860.68284184022559
 30
0.0
 40
7.0
 50
30.25643716352938
 51
90.0
  0
LINE
  5
359
  8
0
 10
-299.88830413163362
 20
853.93284184022559
 30
0.0
 11
-299.88830413163367
 21
855.68284184022582
 31
0.0
  0
LINE
  5
3AD
  8
0
 10
-358.58830413163372
 20
851.93284184022559
 30
0.0
 11
-358.58830413163378
 21
801.32337512507388
 31
0.0
  0
ARC
  5
3AE
  8
0
 10
-356.58830413163372
 20
851.93284184022559
 30
0.0
 40
2.0
 50
89.999999999999886
 51
180.0
  0
LINE
  5
3B3
  8
0
  6
CENTER
 10
-327.88830413163367
 20
872.68284184022559
 30
0.0
 11
-327.88830413163367
 21
727.68284184022559
 31
0.0
  0
LINE
  5
3B4
  8
0
 10
-347.3883041316339
 20
850.05898589983258
 30
0.0
 11
-347.38830413163367
 21
768.9518664890187
 31
0.0
  0
ARC
  5
3B5
  8
0
 10
-303.70442462872552
 20
817.28181436185434
 30
0.0
 40
57.63648205005925
 50
199.5728159093903
 51
213.1029594044457
  0
LINE
  5
3B6
  8
0
 10
-345.38830413163379
 20
849.55898589983235
 30
0.0
 11
-345.38830413163379
 21
763.18284184022571
 31
0.0
  0
LINE
  5
3F5
  8
0
 10
-345.38830413163379
 20
768.9518664890187
 30
0.0
 11
-347.38830413163367
 21
768.95186648901893
 31
0.0
  0
LINE
  5
3F6
  8
0
 10
-311.3883041316335
 20
853.05898589983235
 30
0.0
 11
-344.3883041316339
 21
853.05898589983246
 31
0.0
  0
LINE
  5
3F7
  8
0
 10
-311.88830413163362
 20
851.05898589983235
 30
0.0
 11
-343.88830413163379
 21
851.05898589983235
 31
0.0
  0
ARC
  5
3F9
  8
0
 10
-344.3883041316339
 20
850.05898589983258
 30
0.0
 40
3.0
 50
90.0
 51
180.0
  0
ARC
  5
3FC
  8
0
 10
-343.88830413163379
 20
849.55898589983235
 30
0.0
 40
1.5
 50
90.000000000000028
 51
180.0
  0
ARC
  5
3FD
  8
0
 10
-311.3883041316335
 20
850.05898589983258
 30
0.0
 40
3.0
 50
359.99999999999989
 51
90.0
  0
ARC
  5
3FE
  8
0
 10
-311.88830413163362
 20
849.55898589983235
 30
0.0
 40
1.5
 50
359.99999999999989
 51
89.999999999999986
  0
LINE
  5
3FF
  8
0
 10
-310.38830413163362
 20
849.55898589983235
 30
0.0
 11
-310.38830413163362
 21
763.18284184022593
 31
0.0
  0
LINE
  5
400
  8
0
 10
-308.3883041316335
 20
850.05898589983258
 30
0.0
 11
-308.38830413163367
 21
768.9518664890187
 31
0.0
  0
LINE
  5
401
  8
0
 10
-310.38830413163362
 20
768.9518664890187
 30
0.0
 11
-308.38830413163367
 21
768.95186648901893
 31
0.0
  0
LINE
  5
440
  8
0
 10
-297.18830413163369
 20
851.93284184022559
 30
0.0
 11
-297.18830413163352
 21
801.32337512507445
 31
0.0
  0
ARC
  5
441
  8
0
 10
-352.07218363454189
 20
817.28181436185446
 30
0.0
 40
57.636482050059328
 50
327.84145925419239
 51
340.4271840906099
  0
ARC
  5
442
  8
0
 10
-299.18830413163357
 20
851.93284184022559
 30
0.0
 40
2.0
 50
0.000000000000007
 51
90.000000000000114
  0
LINE
  5
445
  8
0
 10
-301.09823311314898
 20
786.68284184022582
 30
0.0
 11
-301.09823311314938
 21
778.68284184022605
 31
0.0
  0
LINE
  5
446
  8
0
 10
-300.49823311314901
 20
786.0828418402258
 30
0.0
 11
-300.4982331131493
 21
779.28284184022596
 31
0.0
  0
ARC
  5
447
  8
0
 10
-313.04226403900731
 20
782.68284184022571
 30
0.0
 40
9.7638888888889532
 50
337.39644098484479
 51
22.60355901515517
  0
LINE
  5
448
  8
0
 10
-303.27837515011839
 20
788.3120069648246
 30
0.0
 11
-303.27837515011822
 21
777.05367671562703
 31
0.0
  0
LINE
  5
44A
  8
0
 10
-300.4982331131493
 20
786.08284184022568
 30
0.0
 11
-303.27837515011828
 21
786.08284184022568
 31
0.0
  0
LINE
  5
44B
  8
0
 10
-301.09823311314898
 20
786.68284184022582
 30
0.0
 11
-303.27837515011822
 21
786.68284184022582
 31
0.0
  0
LINE
  5
44C
  8
0
 10
-300.49823311314901
 20
786.0828418402258
 30
0.0
 11
-301.09823311314898
 21
786.68284184022582
 31
0.0
  0
LINE
  5
44D
  8
0
 10
-308.38830413163367
 20
786.43561858995827
 30
0.0
 11
-304.02837515011828
 21
786.43561858995815
 31
0.0
  0
LINE
  5
44E
  8
0
 10
-308.38830413163362
 20
790.18839533969094
 30
0.0
 11
-304.02837515011828
 21
790.18839533969083
 31
0.0
  0
ARC
  5
44F
  8
0
 10
-306.00059737234051
 20
788.31200696482472
 30
0.0
 40
2.7222222222221419
 50
0.0
 51
43.573578596525849
  0
ARC
  5
450
  8
0
 10
-306.00059737234051
 20
788.31200696482472
 30
0.0
 40
2.7222222222221419
 50
316.42642140347641
 51
0.000000000001603
  0
LINE
  5
451
  8
0
 10
-308.38830413163367
 20
775.1772883407607
 30
0.0
 11
-304.02837515011822
 21
775.1772883407607
 31
0.0
  0
ARC
  5
452
  8
0
 10
-306.00059737234051
 20
777.05367671562692
 30
0.0
 40
2.7222222222221419
 50
316.42642140347402
 51
0.0
  0
LINE
  5
453
  8
0
 10
-300.4982331131493
 20
779.28284184022596
 30
0.0
 11
-303.27837515011828
 21
779.28284184022596
 31
0.0
  0
LINE
  5
455
  8
0
 10
-301.09823311314938
 20
778.68284184022605
 30
0.0
 11
-303.27837515011822
 21
778.68284184022582
 31
0.0
  0
LINE
  5
456
  8
0
 10
-300.4982331131493
 20
779.28284184022596
 30
0.0
 11
-301.09823311314938
 21
778.68284184022605
 31
0.0
  0
LINE
  5
457
  8
0
 10
-308.38830413163367
 20
778.93006509049314
 30
0.0
 11
-304.02837515011822
 21
778.93006509049314
 31
0.0
  0
ARC
  5
459
  8
0
 10
-306.00059737234051
 20
777.05367671562692
 30
0.0
 40
2.7222222222221419
 50
359.99999999999829
 51
43.573578596523539
  0
ARC
  5
45F
  8
0
 10
-342.7343442242601
 20
782.68284184022571
 30
0.0
 40
9.7638888888889532
 50
157.39644098484479
 51
202.60355901515521
  0
LINE
  5
461
  8
0
 10
-352.49823311314901
 20
788.3120069648246
 30
0.0
 11
-352.49823311314918
 21
777.05367671562703
 31
0.0
  0
LINE
  5
462
  8
0
 10
-347.38830413163367
 20
786.43561858995849
 30
0.0
 11
-351.74823311314913
 21
786.43561858995815
 31
0.0
  0
LINE
  5
463
  8
0
 10
-347.38830413163367
 20
790.18839533969106
 30
0.0
 11
-351.74823311314913
 21
790.18839533969083
 31
0.0
  0
ARC
  5
464
  8
0
 10
-349.7760108909269
 20
788.31200696482472
 30
0.0
 40
2.7222222222221419
 50
136.42642140347411
 51
180.0
  0
ARC
  5
465
  8
0
 10
-349.7760108909269
 20
788.31200696482472
 30
0.0
 40
2.7222222222221419
 50
179.99999999999829
 51
223.5735785965235
  0
LINE
  5
466
  8
0
 10
-347.38830413163367
 20
775.1772883407607
 30
0.0
 11
-351.74823311314918
 21
775.1772883407607
 31
0.0
  0
ARC
  5
467
  8
0
 10
-349.7760108909269
 20
777.05367671562692
 30
0.0
 40
2.7222222222221419
 50
180.0
 51
223.57357859652581
  0
LINE
  5
468
  8
0
 10
-347.38830413163367
 20
778.93006509049314
 30
0.0
 11
-351.74823311314918
 21
778.93006509049314
 31
0.0
  0
LINE
  5
469
  8
0
  6
CENTER
 10
-295.49823311314913
 20
782.68284184022605
 30
0.0
 11
-360.27837515011822
 21
782.68284184022571
 31
0.0
  0
ARC
  5
46A
  8
0
 10
-349.7760108909269
 20
777.05367671562692
 30
0.0
 40
2.7222222222221419
 50
136.42642140347641
 51
180.00000000000159
  0
LINE
  5
530
  8
0
 10
-310.38830413163362
 20
763.18284184022593
 30
0.0
 11
-311.88830413163367
 21
746.68284184022571
 31
0.0
  0
LINE
  5
532
  8
0
 10
-311.88830413163362
 20
825.77033815291077
 30
0.0
 11
-311.88830413163367
 21
739.59534552754076
 31
0.0
  0
LINE
  5
533
  8
0
 10
-343.88830413163367
 20
746.68284184022571
 30
0.0
 11
-343.88830413163367
 21
739.59534552754076
 31
0.0
  0
LINE
  5
534
  8
0
 10
-345.38830413163379
 20
763.18284184022593
 30
0.0
 11
-343.88830413163367
 21
746.68284184022571
 31
0.0
  0
ARC
  5
535
  8
0
 10
-327.88830413163367
 20
760.78284184022561
 30
0.0
 40
28.09999999999993
 50
239.46064452340951
 51
300.53935547659017
  0
ARC
  5
536
  8
0
 10
-340.38830413163367
 20
739.59534552754076
 30
0.0
 40
3.5
 50
180.0
 51
239.4606445234094
  0
ARC
  5
537
  8
0
 10
-315.38830413163367
 20
739.59534552754076
 30
0.0
 40
3.5
 50
300.53935547658972
 51
0.0
  0
ARC
  5
538
  8
0
 10
-327.88830413163367
 20
804.58284184022602
 30
0.0
 40
28.09999999999993
 50
59.460644523409719
 51
120.5393554765904
  0
ARC
  5
53A
  8
0
 10
-340.38830413163367
 20
825.77033815291077
 30
0.0
 40
3.5
 50
120.5393554765906
 51
180.0
  0
ARC
  5
53C
  8
0
 10
-315.38830413163367
 20
825.77033815291077
 30
0.0
 40
3.5
 50
0.0
 51
59.460644523410231
  0
LINE
  5
53D
  8
0
 10
-310.38830413163362
 20
802.18284184022571
 30
0.0
 11
-311.88830413163367
 21
818.68284184022582
 31
0.0
  0
LINE
  5
53E
  8
0
 10
-345.38830413163379
 20
802.18284184022571
 30
0.0
 11
-343.88830413163367
 21
818.68284184022582
 31
0.0
  0
LINE
  5
540
  8
0
 10
-343.88830413163379
 20
825.77033815291077
 30
0.0
 11
-343.88830413163367
 21
739.59534552754076
 31
0.0
  0
LINE
  5
5FD
  8
0
 10
-55.048867800356653
 20
779.68284184022571
 30
0.0
 11
-55.048867800356682
 21
768.9518664890187
 31
0.0
  0
LINE
  5
5FF
  8
0
  6
CENTER
 10
-74.548867800356675
 20
872.68284184022559
 30
0.0
 11
-74.548867800356675
 21
727.68284184022559
 31
0.0
  0
LINE
  5
600
  8
0
 10
-105.24886780035671
 20
851.93284184022559
 30
0.0
 11
-105.24886780035671
 21
801.32337512507388
 31
0.0
  0
LINE
  5
601
  8
0
 10
-94.048867800356703
 20
779.68284184022559
 30
0.0
 11
-94.048867800356675
 21
768.9518664890187
 31
0.0
  0
LINE
  5
603
  8
0
 10
-57.048867800356611
 20
802.18284184022571
 30
0.0
 11
-58.548867800356668
 21
818.68284184022582
 31
0.0
  0
LINE
  5
604
  8
0
 10
-57.048867800356611
 20
763.18284184022593
 30
0.0
 11
-58.548867800356668
 21
746.68284184022571
 31
0.0
  0
LINE
  5
605
  8
0
  6
CENTER
 10
-42.158796781872127
 20
782.68284184022605
 30
0.0
 11
-104.158796781872
 21
782.68284184022548
 31
0.0
  0
LINE
  5
606
  8
0
 10
-58.548867800356618
 20
825.77033815291077
 30
0.0
 11
-58.548867800356668
 21
739.59534552754076
 31
0.0
  0
LINE
  5
607
  8
0
 10
-99.158796781871985
 20
786.60399963048542
 30
0.0
 11
-99.158796781872184
 21
777.05367671562703
 31
0.0
  0
ARC
  5
608
  8
0
 10
-96.436574559649912
 20
777.05367671562692
 30
0.0
 40
2.7222222222221419
 50
136.42642140347641
 51
180.00000000000159
  0
LINE
  5
609
  8
0
 10
-90.548867800356732
 20
825.77033815291077
 30
0.0
 11
-90.548867800356675
 21
739.59534552754076
 31
0.0
  0
ARC
  5
60A
  8
0
 10
-87.048867800356675
 20
739.59534552754076
 30
0.0
 40
3.5
 50
180.0
 51
239.4606445234094
  0
LINE
  5
60B
  8
0
 10
-90.548867800356675
 20
746.68284184022571
 30
0.0
 11
-90.548867800356675
 21
739.59534552754076
 31
0.0
  0
LINE
  5
60C
  8
0
 10
-92.048867800356732
 20
763.18284184022593
 30
0.0
 11
-90.548867800356675
 21
746.68284184022571
 31
0.0
  0
LINE
  5
60D
  8
0
 10
-94.048867800356717
 20
775.1772883407607
 30
0.0
 11
-98.408796781872184
 21
775.1772883407607
 31
0.0
  0
ARC
  5
60E
  8
0
 10
-96.436574559649912
 20
777.05367671562692
 30
0.0
 40
2.7222222222221419
 50
180.0
 51
223.57357859652581
  0
LINE
  5
60F
  8
0
 10
-92.048867800356774
 20
768.9518664890187
 30
0.0
 11
-94.048867800356675
 21
768.95186648901893
 31
0.0
  0
ARC
  5
610
  8
0
 10
-74.548867800356675
 20
760.78284184022561
 30
0.0
 40
28.09999999999993
 50
239.46064452340951
 51
300.53935547659017
  0
ARC
  5
611
  8
0
 10
-62.048867800356682
 20
739.59534552754076
 30
0.0
 40
3.5
 50
300.53935547658972
 51
0.0
  0
ARC
  5
612
  8
0
 10
-87.048867800356675
 20
825.77033815291077
 30
0.0
 40
3.5
 50
120.5393554765906
 51
180.0
  0
LINE
  5
613
  8
0
 10
-92.048867800356732
 20
802.18284184022571
 30
0.0
 11
-90.548867800356675
 21
818.68284184022582
 31
0.0
  0
ARC
  5
614
  8
0
 10
-50.364988297448519
 20
817.28181436185434
 30
0.0
 40
57.63648205005925
 50
199.5728159093903
 51
220.71877235022359
  0
LINE
  5
617
  8
0
 10
-94.048867800356675
 20
778.93006509049314
 30
0.0
 11
-98.408796781872184
 21
778.93006509049314
 31
0.0
  0
ARC
  5
618
  8
0
 10
-89.394907892983042
 20
782.68284184022571
 30
0.0
 40
9.7638888888889532
 50
161.3578952510922
 51
202.60355901515521
  0
ARC
  5
61B
  8
0
 10
-74.548867800356675
 20
804.58284184022602
 30
0.0
 40
28.09999999999993
 50
59.460644523409719
 51
120.5393554765904
  0
ARC
  5
61C
  8
0
 10
-62.048867800356682
 20
825.77033815291077
 30
0.0
 40
3.5
 50
0.0
 51
59.460644523410231
  0
LINE
  5
61D
  8
0
 10
-49.938938818841372
 20
786.68284184022593
 30
0.0
 11
-49.938938818841159
 21
777.05367671562703
 31
0.0
  0
ARC
  5
61E
  8
0
 10
-52.661161041063451
 20
777.05367671562692
 30
0.0
 40
2.7222222222221419
 50
359.99999999999829
 51
43.573578596523539
  0
LINE
  5
61F
  8
0
 10
-55.048867800356682
 20
775.1772883407607
 30
0.0
 11
-50.688938818841159
 21
775.1772883407607
 31
0.0
  0
ARC
  5
620
  8
0
 10
-52.661161041063451
 20
777.05367671562692
 30
0.0
 40
2.7222222222221419
 50
316.42642140347402
 51
0.0
  0
LINE
  5
621
  8
0
 10
-57.048867800356561
 20
768.9518664890187
 30
0.0
 11
-55.048867800356682
 21
768.95186648901893
 31
0.0
  0
ARC
  5
622
  8
0
 10
-98.732747303264887
 20
817.28181436185446
 30
0.0
 40
57.636482050059328
 50
319.28122764977633
 51
340.4271840906099
  0
LINE
  5
623
  8
0
 10
-47.758796781871972
 20
786.68284184022582
 30
0.0
 11
-49.938938818841159
 21
786.68284184022582
 31
0.0
  0
LINE
  5
624
  8
0
 10
-47.75879678187232
 20
778.68284184022605
 30
0.0
 11
-49.938938818841159
 21
778.68284184022582
 31
0.0
  0
LINE
  5
625
  8
0
 10
-47.158796781872297
 20
786.08284184022568
 30
0.0
 11
-49.938938818841279
 21
786.08284184022568
 31
0.0
  0
LINE
  5
626
  8
0
 10
-47.158796781872297
 20
779.28284184022596
 30
0.0
 11
-49.938938818841279
 21
779.28284184022596
 31
0.0
  0
LINE
  5
627
  8
0
 10
-55.048867800356682
 20
778.93006509049314
 30
0.0
 11
-50.688938818841159
 21
778.93006509049314
 31
0.0
  0
ARC
  5
62A
  8
0
 10
-59.702827707730307
 20
782.68284184022571
 30
0.0
 40
9.7638888888889532
 50
337.39644098484479
 51
18.642104748907741
  0
LINE
  5
62D
  8
0
 10
-47.158796781871949
 20
786.0828418402258
 30
0.0
 11
-47.158796781872297
 21
779.28284184022596
 31
0.0
  0
LINE
  5
62E
  8
0
 10
-47.758796781871972
 20
786.68284184022582
 30
0.0
 11
-47.75879678187232
 21
778.68284184022605
 31
0.0
  0
LINE
  5
62F
  8
0
 10
-47.158796781871949
 20
786.0828418402258
 30
0.0
 11
-47.758796781871972
 21
786.68284184022582
 31
0.0
  0
LINE
  5
630
  8
0
 10
-47.158796781872297
 20
779.28284184022596
 30
0.0
 11
-47.75879678187232
 21
778.68284184022605
 31
0.0
  0
LINE
  5
633
  8
0
 10
-104.5488678003567
 20
855.68284184022559
 30
0.0
 11
-44.548867800356611
 21
855.68284184022582
 31
0.0
  0
LINE
  5
634
  8
0
 10
-103.24886780035671
 20
853.93284184022571
 30
0.0
 11
-45.848867800356622
 21
853.93284184022559
 31
0.0
  0
LINE
  5
635
  8
0
 10
-93.528275473177587
 20
867.68284184022548
 30
0.0
 11
-55.569460127535763
 21
867.68284184022548
 31
0.0
  0
ARC
  5
638
  8
0
 10
-103.24886780035671
 20
851.93284184022559
 30
0.0
 40
2.0
 50
89.999999999999886
 51
180.0
  0
LINE
  5
639
  8
0
 10
-99.574727779466571
 20
864.20993901889415
 30
0.0
 11
-104.5488678003566
 21
855.68284184022582
 31
0.0
  0
LINE
  5
63A
  8
0
 10
-102.5488678003567
 20
853.93284184022559
 30
0.0
 11
-102.5488678003566
 21
855.68284184022582
 31
0.0
  0
ARC
  5
63D
  8
0
 10
-93.528275473177587
 20
860.68284184022559
 30
0.0
 40
7.0
 50
90.0
 51
149.7435628364706
  0
LINE
  5
63E
  8
0
 10
-49.523007821246779
 20
864.20993901889415
 30
0.0
 11
-44.548867800356668
 21
855.68284184022582
 31
0.0
  0
LINE
  5
63F
  8
0
 10
-46.548867800356618
 20
853.93284184022559
 30
0.0
 11
-46.548867800356668
 21
855.68284184022582
 31
0.0
  0
ARC
  5
640
  8
0
 10
-45.848867800356622
 20
851.93284184022559
 30
0.0
 40
2.0
 50
0.000000000000007
 51
90.000000000000114
  0
ARC
  5
641
  8
0
 10
-55.569460127535763
 20
860.68284184022559
 30
0.0
 40
7.0
 50
30.25643716352938
 51
90.0
  0
ARC
  5
6BE
  8
0
 10
-95.248867800356777
 20
801.32337512507411
 30
0.0
 40
10.0
 50
180.0000000000006
 51
199.57281590939019
  0
ARC
  5
6BF
  8
0
 10
-53.848867800356572
 20
801.32337512507445
 30
0.0
 40
10.0
 50
340.42718409061001
 51
359.99999999999932
  0
ARC
  5
6C0
  8
0
 10
-348.58830413163378
 20
801.32337512507411
 30
0.0
 40
10.0
 50
180.0000000000006
 51
199.5728159093901
  0
ARC
  5
6C2
  8
0
 10
-307.18830413163352
 20
801.32337512507445
 30
0.0
 40
10.0
 50
340.4271840906099
 51
0.0
  0
LINE
  5
744
  8
0
 10
-92.048867800356774
 20
763.1828418402265
 30
0.0
 11
-92.048867800356774
 21
842.12022463698941
 31
0.0
  0
ARC
  5
74A
  8
0
 10
-50.364988297448519
 20
817.28181436185434
 30
0.0
 40
55.636482050059243
 50
200.00141657396281
 51
221.4772760756577
  0
LINE
  5
753
  8
0
 10
-43.848867800356629
 20
851.93284184022559
 30
0.0
 11
-43.848867800356572
 21
801.32337512507388
 31
0.0
  0
ARC
  5
754
  8
0
 10
-98.732747303264844
 20
817.28181436185434
 30
0.0
 40
55.636482050059243
 50
318.52272392434219
 51
341.90175049065942
  0
ARC
  5
755
  8
0
 10
-53.848867800356572
 20
801.32337512507411
 30
0.0
 40
10.0
 50
340.42718409060973
 51
359.99999999999932
  0
LINE
  5
756
  8
0
 10
-57.048867800356561
 20
763.18284184022639
 30
0.0
 11
-57.048867800356561
 21
842.12022463698941
 31
0.0
  0
LINE
  5
758
  8
0
 10
-103.24886780035671
 20
820.02387784150108
 30
0.0
 11
-103.24886780035671
 21
801.67215796956316
 31
0.0
  0
ARC
  5
75A
  8
0
 10
-93.248867800356777
 20
801.67215796956316
 30
0.0
 40
10.0
 50
180.0
 51
200.00141657396281
  0
ARC
  5
75F
  8
0
 10
-75.658081215832254
 20
820.45380628172154
 30
0.0
 40
29.59390966321584
 50
87.851985839781364
 51
180.83239936706701
  0
ARC
  5
760
  8
0
 10
-72.398505339709146
 20
819.2256459085047
 30
0.0
 40
30.876246977947851
 50
93.993571857333478
 51
182.3462579507341
  0
ARC
  5
762
  8
0
 10
-76.699230261004189
 20
819.2256459085047
 30
0.0
 40
30.876246977947769
 50
357.65374204926582
 51
86.006428142666536
  0
ARC
  5
763
  8
0
 10
-73.439654384881095
 20
820.45380628172154
 30
0.0
 40
29.593909663215861
 50
359.16760063293287
 51
92.148014160218636
  0
LINE
  5
764
  8
0
 10
-45.848867800356587
 20
820.02387784150108
 30
0.0
 11
-45.848867800356572
 21
799.99848645232134
 31
0.0
  0
CIRCLE
  5
7E1
  8
0
 10
-229.59238644455229
 20
662.20868028091991
 30
0.0
 40
5.5
  0
ARC
  5
821
  8
0
 10
-531.2907213407085
 20
763.68880182208852
 30
0.0
 40
37.5
 50
154.5382430026819
 51
85.661581498206687
  0
ARC
  5
822
  8
0
 10
-531.2907213407085
 20
763.68880182208852
 30
0.0
 40
34.0
 50
157.18509403145561
 51
83.161551590739379
  0
LINE
  5
824
  8
0
  6
CENTER
 10
-531.2907213407085
 20
721.18880182208852
 30
0.0
 11
-531.2907213407085
 21
806.18880182208852
 31
0.0
  0
LINE
  5
863
  8
0
  6
CENTER
 10
-573.79072134070861
 20
763.68880182208852
 30
0.0
 11
-488.79072134070861
 21
763.68880182208852
 31
0.0
  0
ARC
  5
864
  8
0
 10
-531.2907213407085
 20
763.68880182208852
 30
0.0
 40
25.0
 50
164.8161369651275
 51
75.249645586785277
  0
LINE
  5
866
  8
0
  6
CENTER
 10
-555.29072134070861
 20
808.18880182208829
 30
0.0
 11
-555.29072134070861
 21
831.18880182208852
 31
0.0
  0
LINE
  5
86A
  8
0
 10
-568.69072134070836
 20
826.18880182208852
 30
0.0
 11
-541.89072134070852
 21
826.18880182208852
 31
0.0
  0
LINE
  5
86B
  8
0
 10
-576.69072134070836
 20
815.18880182208852
 30
0.0
 11
-533.89072134070852
 21
815.18880182208852
 31
0.0
  0
LINE
  5
86C
  8
0
 10
-576.69072134070836
 20
815.18880182208852
 30
0.0
 11
-576.69072134070836
 21
818.18880182208852
 31
0.0
  0
ARC
  5
86E
  8
0
 10
-568.69072134070836
 20
818.18880182208852
 30
0.0
 40
8.0
 50
90.0
 51
180.0
  0
ARC
  5
86F
  8
0
 10
-541.89072134070852
 20
818.18880182208852
 30
0.0
 40
8.0
 50
0.000000000000007
 51
90.0
  0
LINE
  5
870
  8
0
 10
-533.89072134070852
 20
815.18880182208852
 30
0.0
 11
-533.89072134070852
 21
818.18880182208852
 31
0.0
  0
LINE
  5
8B1
  8
0
 10
-576.69072134070836
 20
813.18880182208864
 30
0.0
 11
-576.34718732757074
 21
813.18880182208864
 31
0.0
  0
ARC
  5
8F3
  8
0
 10
-520.07175563084411
 20
815.8936969517714
 30
0.0
 40
57.740051557214699
 50
183.74269256920189
 51
239.85307095107521
  0
LINE
  5
8F7
  8
0
 10
-535.33354552186779
 20
757.9742963631503
 30
0.0
 11
-549.06991728491289
 21
765.96354399271956
 31
0.0
  0
LINE
  5
936
  8
0
 10
-531.69072134070836
 20
811.18880182208841
 30
0.0
 11
-531.69072134070836
 21
813.18880182208841
 31
0.0
  0
LINE
  5
937
  8
0
 10
-577.7471873275706
 20
811.18880182208841
 30
0.0
 11
-531.69072134070836
 21
811.18880182208841
 31
0.0
  0
LINE
  5
939
  8
0
 10
-575.29072134070861
 20
814.18880182208852
 30
0.0
 11
-575.29072134070861
 21
815.18880182208829
 31
0.0
  0
ARC
  5
93D
  8
0
 10
-576.33910963959102
 20
814.23832821018368
 30
0.0
 40
1.049557472628901
 50
269.5590312959165
 51
357.29532946855852
  0
ARC
  5
93E
  8
0
 10
-576.69072134070836
 20
812.18880182208841
 30
0.0
 40
1.0
 50
90.0
 51
183.6772786709671
  0
ARC
  5
93F
  8
0
 10
-534.24233304182621
 20
814.23832821018368
 30
0.0
 40
1.049557472628901
 50
182.70467053144139
 51
270.44096870408339
  0
LINE
  5
941
  8
0
 10
-531.69072134070836
 20
813.18880182208864
 30
0.0
 11
-534.23425535384661
 21
813.18880182208864
 31
0.0
  0
LINE
  5
942
  8
0
 10
-535.2907213407085
 20
814.18880182208852
 30
0.0
 11
-535.2907213407085
 21
815.18880182208829
 31
0.0
  0
LINE
  5
943
  8
0
 10
-532.89072134070875
 20
813.18880182208864
 30
0.0
 11
-532.89072134070875
 21
811.18880182208841
 31
0.0
  0
ARC
  5
946
  8
0
 10
-531.2907213407085
 20
763.68880182208852
 30
0.0
 40
7.0
 50
234.7218523219027
 51
344.88955744808129
  0
ARC
  5
94B
  8
0
 10
-604.66087785267541
 20
773.65699961051826
 30
0.0
 40
80.991305354344078
 50
351.62752626102622
 51
27.60706617904864
  0
ARC
  5
94C
  8
0
 10
-531.2907213407085
 20
763.68880182208852
 30
0.0
 40
7.0
 50
359.63657644359148
 51
0.0
  0
ARC
  5
98B
  8
0
 10
-531.2907213407085
 20
763.68880182208852
 30
0.0
 40
26.0
 50
164.8161369651275
 51
75.249645586785277
  0
POLYLINE
  5
9CA
  8
0
 66
     1
 10
0.0
 20
0.0
 30
0.0
 70
     1
  0
VERTEX
  5
17BC
  8
0
 10
-534.17747268665676
 20
768.68880182208841
 30
0.0
  0
VERTEX
  5
17BD
  8
0
 10
-537.06422403260478
 20
763.68880182208852
 30
0.0
  0
VERTEX
  5
17BE
  8
0
 10
-534.17747268665676
 20
758.68880182208852
 30
0.0
  0
VERTEX
  5
17BF
  8
0
 10
-528.40396999476036
 20
758.68880182208852
 30
0.0
  0
VERTEX
  5
17C0
  8
0
 10
-525.51721864881233
 20
763.68880182208852
 30
0.0
  0
VERTEX
  5
17C1
  8
0
 10
-528.40396999476036
 20
768.68880182208841
 30
0.0
  0
SEQEND
  5
17C2
  8
0
  0
LINE
  5
A49
  8
0
  6
CENTER
 10
-555.29072134070861
 20
687.82125299352663
 30
0.0
 11
-555.29072134070861
 21
635.02125299352679
 31
0.0
  0
CIRCLE
  5
A4A
  8
0
 10
-555.29072134070861
 20
661.42125299352665
 30
0.0
 40
21.39999999999986
  0
CIRCLE
  5
A4B
  8
0
 10
-555.29072134070861
 20
661.42125299352665
 30
0.0
 40
5.5
  0
CIRCLE
  5
A4C
  8
0
 10
-555.29072134070861
 20
661.42125299352665
 30
0.0
 40
12.0
  0
LINE
  5
A4E
  8
0
  6
CENTER
 10
-581.69072134070836
 20
661.42125299352665
 30
0.0
 11
-488.79072134070861
 21
661.42125299352665
 31
0.0
  0
LINE
  5
A8E
  8
0
 10
-523.66957249833115
 20
677.42125299352665
 30
0.0
 11
-523.66957249833115
 21
675.42125299352665
 31
0.0
  0
LINE
  5
A8F
  8
0
 10
-537.68504043936457
 20
677.42125299352688
 30
0.0
 11
-523.66957249833115
 21
677.42125299352665
 31
0.0
  0
ARC
  5
A91
  8
0
 10
-537.68504043936446
 20
687.42125299352676
 30
0.0
 40
10.0
 50
235.89643788164429
 51
269.99999999999932
  0
ARC
  5
A92
  8
0
 10
-537.68504043936446
 20
635.42125299352665
 30
0.0
 40
10.0
 50
90.000000000000625
 51
124.1035621183556
  0
LINE
  5
A93
  8
0
 10
-537.68504043936457
 20
645.42125299352665
 30
0.0
 11
-523.66957249833115
 21
645.42125299352676
 31
0.0
  0
LINE
  5
AD2
  8
0
 10
-531.69072134070871
 20
677.42125299352665
 30
0.0
 11
-531.69072134070836
 21
645.42125299352665
 31
0.0
  0
LINE
  5
AD3
  8
0
 10
-531.69072134070871
 20
675.42125299352665
 30
0.0
 11
-513.29072134070861
 21
675.42125299352665
 31
0.0
  0
LINE
  5
AD4
  8
0
 10
-531.69072134070871
 20
647.42125299352676
 30
0.0
 11
-513.29072134070861
 21
647.42125299352665
 31
0.0
  0
LINE
  5
AD5
  8
0
 10
-523.66957249833115
 20
647.42125299352665
 30
0.0
 11
-523.66957249833115
 21
645.42125299352676
 31
0.0
  0
CIRCLE
  5
AD6
  8
0
 10
-531.2907213407085
 20
763.68880182208852
 30
0.0
 40
5.0
  0
LINE
  5
AD7
  8
0
 10
-534.17747268665676
 20
645.42125299352665
 30
0.0
 11
-534.17747268665676
 21
642.42125299352665
 31
0.0
  0
LINE
  5
AD8
  8
0
 10
-537.06422403260478
 20
645.42125299352676
 30
0.0
 11
-537.06422403260478
 21
642.42125299352665
 31
0.0
  0
LINE
  5
AD9
  8
0
  6
CENTER
 10
-531.2907213407085
 20
689.42125299352665
 30
0.0
 11
-531.2907213407085
 21
633.42125299352676
 31
0.0
  0
LINE
  5
ADA
  8
0
 10
-528.40396999476025
 20
645.42125299352676
 30
0.0
 11
-528.40396999476036
 21
642.42125299352665
 31
0.0
  0
LINE
  5
ADB
  8
0
 10
-525.51721864881245
 20
645.42125299352676
 30
0.0
 11
-525.51721864881233
 21
642.42125299352654
 31
0.0
  0
LINE
  5
ADC
  8
0
 10
-535.62084835963083
 20
641.42125299352676
 30
0.0
 11
-526.9605943217864
 21
641.42125299352688
 31
0.0
  0
ARC
  5
B22
  8
0
 10
-535.62084835963083
 20
642.96291966019339
 30
0.0
 40
1.541666666666659
 50
200.5699920921021
 51
339.4300079078979
  0
ARC
  5
B23
  8
0
 10
-531.2907213407085
 20
646.08791966019305
 30
0.0
 40
4.6666666666663756
 50
231.7867892982587
 51
308.21321070174201
  0
ARC
  5
B24
  8
0
 10
-526.9605943217864
 20
642.96291966019339
 30
0.0
 40
1.541666666666659
 50
200.5699920921021
 51
339.43000790789779
  0
LINE
  5
B25
  8
0
 10
-535.62084835963083
 20
681.42125299352665
 30
0.0
 11
-526.9605943217864
 21
681.42125299352665
 31
0.0
  0
ARC
  5
B26
  8
0
 10
-531.2907213407085
 20
676.75458632686048
 30
0.0
 40
4.6666666666663756
 50
51.786789298257958
 51
128.2132107017411
  0
LINE
  5
B28
  8
0
 10
-534.17747268665676
 20
677.42125299352688
 30
0.0
 11
-534.17747268665676
 21
680.42125299352665
 31
0.0
  0
LINE
  5
B29
  8
0
 10
-537.06422403260478
 20
677.42125299352665
 30
0.0
 11
-537.06422403260478
 21
680.42125299352665
 31
0.0
  0
ARC
  5
B2B
  8
0
 10
-535.62084835963083
 20
679.87958632686014
 30
0.0
 40
1.541666666666659
 50
20.569992092102119
 51
159.43000790789779
  0
LINE
  5
B2C
  8
0
 10
-525.51721864881245
 20
677.42125299352665
 30
0.0
 11
-525.51721864881233
 21
680.42125299352699
 31
0.0
  0
LINE
  5
B2D
  8
0
 10
-528.40396999476025
 20
677.42125299352665
 30
0.0
 11
-528.40396999476036
 21
680.42125299352665
 31
0.0
  0
ARC
  5
B2E
  8
0
 10
-526.9605943217864
 20
679.87958632686014
 30
0.0
 40
1.541666666666659
 50
20.569992092102169
 51
159.43000790789779
  0
LINE
  5
B2F
  8
0
 10
-528.29072134070861
 20
683.92125299352654
 30
0.0
 11
-528.29072134070861
 21
681.42125299352665
 31
0.0
  0
LINE
  5
B31
  8
0
 10
-528.79072134070861
 20
684.42125299352642
 30
0.0
 11
-528.79072134070827
 21
681.42125299352665
 31
0.0
  0
LINE
  5
B32
  8
0
 10
-533.79072134070839
 20
684.42125299352665
 30
0.0
 11
-528.79072134070861
 21
684.42125299352654
 31
0.0
  0
LINE
  5
B33
  8
0
 10
-528.29072134070861
 20
683.92125299352654
 30
0.0
 11
-528.79072134070861
 21
684.42125299352654
 31
0.0
  0
LINE
  5
B34
  8
0
 10
-534.29072134070861
 20
683.92125299352654
 30
0.0
 11
-533.79072134070861
 21
684.42125299352654
 31
0.0
  0
LINE
  5
B35
  8
0
 10
-534.29072134070861
 20
683.92125299352654
 30
0.0
 11
-534.29072134070861
 21
681.42125299352665
 31
0.0
  0
LINE
  5
B36
  8
0
 10
-533.79072134070861
 20
684.42125299352642
 30
0.0
 11
-533.79072134070861
 21
681.42125299352665
 31
0.0
  0
LINE
  5
B37
  8
0
 10
-534.29072134070861
 20
683.92125299352654
 30
0.0
 11
-533.79072134070861
 21
684.42125299352654
 31
0.0
  0
LINE
  5
B38
  8
0
 10
-534.29072134070861
 20
683.92125299352654
 30
0.0
 11
-528.29072134070861
 21
683.92125299352654
 31
0.0
  0
LINE
  5
B7D
  8
0
 10
-531.69072134070871
 20
673.92125299352665
 30
0.0
 11
-501.00016513535883
 21
673.92125299352665
 31
0.0
  0
LINE
  5
B7E
  8
0
 10
-531.69072134070836
 20
648.92125299352665
 30
0.0
 11
-501.00016513535883
 21
648.92125299352665
 31
0.0
  0
ARC
  5
B7F
  8
0
 10
-517.86214991213728
 20
661.42125299352665
 30
0.0
 40
24.071428571428751
 50
338.91922196571971
 51
21.080778034280321
  0
ARC
  5
B80
  8
0
 10
-501.00016513535883
 20
667.92125299352665
 30
0.0
 40
6.0
 50
21.080778034280559
 51
90.0
  0
ARC
  5
B81
  8
0
 10
-501.00016513535883
 20
654.92125299352665
 30
0.0
 40
6.0
 50
270.0
 51
338.91922196571937
  0
LINE
  5
B86
  8
0
 10
-513.29072134070861
 20
675.42125299352665
 30
0.0
 11
-506.2907213407085
 21
673.92125299352665
 31
0.0
  0
LINE
  5
B87
  8
0
 10
-513.29072134070861
 20
647.42125299352665
 30
0.0
 11
-506.2907213407085
 21
648.92125299352665
 31
0.0
  0
ARC
  5
C42
  8
0
 10
-618.39031505398009
 20
818.18880182208852
 30
0.0
 40
8.0
 50
0.000000000000007
 51
90.0
  0
LINE
  5
C44
  8
0
 10
-653.19031505398004
 20
815.18880182208852
 30
0.0
 11
-610.39031505398009
 21
815.18880182208852
 31
0.0
  0
LINE
  5
C45
  8
0
 10
-645.19031505398004
 20
826.18880182208852
 30
0.0
 11
-618.39031505398009
 21
826.18880182208852
 31
0.0
  0
ARC
  5
C46
  8
0
 10
-645.19031505398004
 20
818.18880182208852
 30
0.0
 40
8.0
 50
90.0
 51
180.0
  0
LINE
  5
C47
  8
0
 10
-651.79031505398029
 20
814.18880182208852
 30
0.0
 11
-651.79031505398029
 21
815.18880182208829
 31
0.0
  0
ARC
  5
C48
  8
0
 10
-653.19031505398004
 20
812.18880182208841
 30
0.0
 40
1.0
 50
90.0
 51
180.00000000000651
  0
LINE
  5
C49
  8
0
 10
-653.19031505398004
 20
813.18880182208864
 30
0.0
 11
-652.8467810408423
 21
813.18880182208864
 31
0.0
  0
LINE
  5
C4A
  8
0
 10
-653.19031505398004
 20
815.18880182208852
 30
0.0
 11
-653.19031505398004
 21
818.18880182208852
 31
0.0
  0
ARC
  5
C4B
  8
0
 10
-652.83870335286269
 20
814.23832821018368
 30
0.0
 40
1.049557472628901
 50
269.5590312959165
 51
357.29532946855852
  0
LINE
  5
C4C
  8
0
  6
CENTER
 10
-631.79031505398029
 20
808.18880182208829
 30
0.0
 11
-631.79031505398029
 21
831.18880182208852
 31
0.0
  0
LINE
  5
C50
  8
0
 10
-610.39031505398009
 20
815.18880182208852
 30
0.0
 11
-610.39031505398009
 21
818.18880182208852
 31
0.0
  0
LINE
  5
C53
  8
0
 10
-654.19031505398004
 20
812.18880182208841
 30
0.0
 11
-654.19031505398004
 21
811.18880182208841
 31
0.0
  0
ARC
  5
C54
  8
0
 10
-610.39031505398043
 20
812.18880182208841
 30
0.0
 40
1.0
 50
359.99999999999341
 51
90.0
  0
LINE
  5
C55
  8
0
 10
-609.39031505398043
 20
812.18880182208841
 30
0.0
 11
-609.39031505398566
 21
767.39060459963764
 31
0.0
  0
ARC
  5
C56
  8
0
 10
-610.74192675509778
 20
814.23832821018368
 30
0.0
 40
1.049557472628901
 50
182.70467053144139
 51
270.44096870408339
  0
LINE
  5
C57
  8
0
 10
-610.39031505398043
 20
813.18880182208864
 30
0.0
 11
-610.7338490671184
 21
813.18880182208864
 31
0.0
  0
LINE
  5
C58
  8
0
 10
-611.79031505398018
 20
814.18880182208852
 30
0.0
 11
-611.79031505398018
 21
815.18880182208829
 31
0.0
  0
LINE
  5
C5B
  8
0
 10
-545.29072134070861
 20
767.39060459963753
 30
0.0
 11
-545.29072134070861
 21
809.54801881722062
 31
0.0
  0
LINE
  5
C5C
  8
0
 10
-542.29072134070861
 20
765.26200327615061
 30
0.0
 11
-542.29072134070861
 21
809.54801881722062
 31
0.0
  0
LINE
  5
CA0
  8
0
 10
-531.69072134070836
 20
811.18880182208841
 30
0.0
 11
-577.61980091170915
 21
811.18880182208841
 31
0.0
  0
LINE
  5
CA1
  8
0
 10
-618.79031505397995
 20
811.18880182208841
 30
0.0
 11
-644.79031505398075
 21
811.18880182208841
 31
0.0
  0
LINE
  5
CA2
  8
0
 10
-615.79031505398018
 20
756.68880182208852
 30
0.0
 11
-615.79031505398018
 21
811.18880182208864
 31
0.0
  0
LINE
  5
CE3
  8
0
 10
-645.79031505398018
 20
781.68880182208852
 30
0.0
 11
-644.29031505398029
 21
788.68880182208852
 31
0.0
  0
LINE
  5
CE4
  8
0
 10
-617.79031505398029
 20
781.68880182208852
 30
0.0
 11
-619.29031505398029
 21
788.68880182208852
 31
0.0
  0
ARC
  5
CE5
  8
0
 10
-631.79031505398052
 20
777.11737325065974
 30
0.0
 40
24.071428571428751
 50
68.919221965719672
 51
111.0807780342803
  0
ARC
  5
CE6
  8
0
 10
-625.29031505398052
 20
793.97935802743814
 30
0.0
 40
6.0
 50
0.0
 51
68.91922196571943
  0
ARC
  5
CE7
  8
0
 10
-638.29031505398052
 20
793.97935802743814
 30
0.0
 40
6.0
 50
111.0807780342805
 51
180.0
  0
LINE
  5
CE8
  8
0
 10
-644.29031505398052
 20
733.39824561673879
 30
0.0
 11
-644.29031505398029
 21
793.97935802743814
 31
0.0
  0
LINE
  5
CE9
  8
0
 10
-619.29031505398029
 20
733.39824561673879
 30
0.0
 11
-619.29031505398029
 21
793.97935802743814
 31
0.0
  0
LINE
  5
CEA
  8
0
  6
CENTER
 10
-631.79031505398029
 20
713.28880182208854
 30
0.0
 11
-631.79031505398029
 21
806.18880182208852
 31
0.0
  0
LINE
  5
CEB
  8
0
 10
-617.79031505398075
 20
745.68880182208568
 30
0.0
 11
-617.79031505397995
 21
810.18880182208852
 31
0.0
  0
ARC
  5
CEE
  8
0
 10
-631.79031505398052
 20
750.2602303935173
 30
0.0
 40
24.071428571428751
 50
248.9192219657196
 51
291.08077803428029
  0
LINE
  5
CEF
  8
0
 10
-645.79031505398018
 20
745.68880182208852
 30
0.0
 11
-644.29031505398029
 21
738.68880182208852
 31
0.0
  0
ARC
  5
CF0
  8
0
 10
-638.29031505398052
 20
733.39824561673879
 30
0.0
 40
6.0
 50
180.0
 51
248.9192219657194
  0
LINE
  5
CF1
  8
0
 10
-617.79031505398029
 20
745.68880182208852
 30
0.0
 11
-619.29031505398029
 21
738.68880182208852
 31
0.0
  0
ARC
  5
CF2
  8
0
 10
-625.29031505398052
 20
733.39824561673879
 30
0.0
 40
6.0
 50
291.08077803428051
 51
0.0
  0
LINE
  5
CF3
  8
0
 10
-617.79031505398029
 20
813.18880182208864
 30
0.0
 11
-645.79031505398052
 21
813.18880182208864
 31
0.0
  0
LINE
  5
CF5
  8
0
 10
-615.79031505398018
 20
756.68880182208852
 30
0.0
 11
-617.79031505398052
 21
756.68880182208852
 31
0.0
  0
ARC
  5
D34
  8
0
 10
-617.79031505398029
 20
811.18880182208864
 30
0.0
 40
2.0
 50
0.0
 51
90.000000000000099
  0
ARC
  5
D36
  8
0
 10
-618.79031505397995
 20
810.18880182208852
 30
0.0
 40
1.0
 50
359.9999999999992
 51
90.0
  0
ARC
  5
D37
  8
0
 10
-621.10663359172622
 20
768.71293803333685
 30
0.0
 40
11.790703362721059
 50
296.80084495473608
 51
301.76952247703122
  0
LINE
  5
D38
  8
0
 10
-645.79031505397984
 20
745.68880182208568
 30
0.0
 11
-645.79031505398075
 21
810.18880182208852
 31
0.0
  0
LINE
  5
D39
  8
0
 10
-647.79031505398029
 20
756.68880182208852
 30
0.0
 11
-647.79031505398052
 21
811.18880182208864
 31
0.0
  0
ARC
  5
D3A
  8
0
 10
-645.79031505398052
 20
811.18880182208864
 30
0.0
 40
2.0
 50
89.999999999999915
 51
180.0
  0
ARC
  5
D3B
  8
0
 10
-644.79031505398075
 20
810.18880182208852
 30
0.0
 40
1.0
 50
90.0
 51
180.0000000000008
  0
LINE
  5
D3C
  8
0
 10
-654.19031505398004
 20
812.18880182208841
 30
0.0
 11
-654.19031505397516
 21
767.39060459963764
 31
0.0
  0
ARC
  5
D3D
  8
0
 10
-653.19031505398004
 20
812.18880182208841
 30
0.0
 40
1.0
 50
90.0
 51
180.00000000000651
  0
ARC
  5
D3E
  8
0
 10
-642.47399651623459
 20
768.71293803333685
 30
0.0
 40
11.790703362721059
 50
186.43929813161219
 51
217.88897956692719
  0
LINE
  5
D3F
  8
0
 10
-647.79031505398029
 20
756.68880182208852
 30
0.0
 11
-645.79031505398007
 21
756.68880182208852
 31
0.0
  0
LINE
  5
D40
  8
0
 10
-612.79031505398018
 20
768.68880182208841
 30
0.0
 11
-615.79031505398018
 21
768.68880182208841
 31
0.0
  0
LINE
  5
D41
  8
0
 10
-612.79031505398018
 20
763.68880182208841
 30
0.0
 11
-615.79031505398018
 21
763.68880182208841
 31
0.0
  0
LINE
  5
D42
  8
0
 10
-612.79031505398018
 20
758.68880182208852
 30
0.0
 11
-615.79031505398018
 21
758.68880182208852
 31
0.0
  0
ARC
  5
D46
  8
0
 10
-615.41531505398018
 20
761.18880182208852
 30
0.0
 40
3.624999999999917
 50
316.39718102729512
 51
43.602818972704867
  0
ARC
  5
D47
  8
0
 10
-615.41531505398018
 20
766.18880182208852
 30
0.0
 40
3.624999999999917
 50
316.39718102729512
 51
43.602818972704853
  0
LINE
  5
D48
  8
0
 10
-611.79031505398018
 20
761.18880182208852
 30
0.0
 11
-611.79031505398018
 21
766.18880182208852
 31
0.0
  0
ARC
  5
D4A
  8
0
 10
-621.10663359172622
 20
768.71293803333685
 30
0.0
 40
11.790703362721059
 50
322.11102043307272
 51
322.19869322238151
  0
ARC
  5
D4B
  8
0
 10
-648.16531505398052
 20
766.18880182208852
 30
0.0
 40
3.624999999999917
 50
136.39718102729509
 51
223.6028189727048
  0
LINE
  5
D4C
  8
0
 10
-650.79031505398052
 20
763.68880182208841
 30
0.0
 11
-647.79031505398052
 21
763.68880182208841
 31
0.0
  0
LINE
  5
D4D
  8
0
 10
-650.79031505398029
 20
768.68880182208841
 30
0.0
 11
-647.79031505398029
 21
768.68880182208841
 31
0.0
  0
LINE
  5
D4E
  8
0
 10
-651.79031505398029
 20
761.18880182208852
 30
0.0
 11
-651.79031505398029
 21
766.18880182208852
 31
0.0
  0
ARC
  5
D4F
  8
0
 10
-648.16531505398052
 20
761.18880182208852
 30
0.0
 40
3.624999999999917
 50
136.39718102729509
 51
223.6028189727048
  0
LINE
  5
D50
  8
0
 10
-650.79031505398029
 20
758.68880182208852
 30
0.0
 11
-647.79031505398029
 21
758.68880182208852
 31
0.0
  0
ARC
  5
D51
  8
0
 10
-642.47399651623459
 20
768.71293803333685
 30
0.0
 40
11.790703362721059
 50
238.2304775229687
 51
243.19915504526381
  0
LINE
  5
D54
  8
0
 10
-608.79031505398052
 20
766.18880182208818
 30
0.0
 11
-608.79031505398052
 21
761.18880182208852
 31
0.0
  0
LINE
  5
D55
  8
0
 10
-609.29031505398052
 20
766.68880182208852
 30
0.0
 11
-609.29031505398052
 21
760.68880182208852
 31
0.0
  0
LINE
  5
D56
  8
0
 10
-609.29031505398052
 20
766.68880182208852
 30
0.0
 11
-608.79031505398052
 21
766.18880182208852
 31
0.0
  0
LINE
  5
D57
  8
0
 10
-609.29031505398052
 20
766.68880182208852
 30
0.0
 11
-611.79031505398018
 21
766.68880182208852
 31
0.0
  0
LINE
  5
D58
  8
0
 10
-608.79031505398075
 20
766.18880182208852
 30
0.0
 11
-611.79031505398052
 21
766.18880182208864
 31
0.0
  0
LINE
  5
D59
  8
0
 10
-609.29031505398052
 20
766.68880182208852
 30
0.0
 11
-608.79031505398052
 21
766.18880182208852
 31
0.0
  0
LINE
  5
D5A
  8
0
 10
-609.29031505398052
 20
760.68880182208852
 30
0.0
 11
-608.79031505398052
 21
761.18880182208852
 31
0.0
  0
LINE
  5
D5B
  8
0
 10
-608.79031505398075
 20
761.18880182208852
 30
0.0
 11
-611.79031505398052
 21
761.18880182208829
 31
0.0
  0
LINE
  5
D5C
  8
0
 10
-609.29031505398052
 20
760.68880182208852
 30
0.0
 11
-611.79031505398018
 21
760.68880182208852
 31
0.0
  0
ARC
  5
D5D
  8
0
 10
-621.10663359172622
 20
768.71293803333685
 30
0.0
 40
11.790703362721059
 50
350.11494034339239
 51
353.5607018683877
  0
LINE
  5
D9C
  8
0
 10
-463.8195932583364
 20
812.18880182208841
 30
0.0
 11
-463.8195932583323
 21
776.18880182208716
 31
0.0
  0
LINE
  5
D9E
  8
0
 10
-455.41959325833608
 20
745.68880182208568
 30
0.0
 11
-455.4195932583367
 21
801.05846568527147
 31
0.0
  0
LINE
  5
D9F
  8
0
 10
-427.4195932583371
 20
745.68880182208568
 30
0.0
 11
-427.41959325833642
 21
801.05846568527136
 31
0.0
  0
LINE
  5
DA1
  8
0
 10
-453.9195932583367
 20
733.39824561673879
 30
0.0
 11
-453.91959325833659
 21
793.97935802743814
 31
0.0
  0
LINE
  5
DA2
  8
0
 10
-428.91959325833659
 20
733.39824561673879
 30
0.0
 11
-428.91959325833659
 21
793.97935802743814
 31
0.0
  0
LINE
  5
DA3
  8
0
  6
CENTER
 10
-441.41959325833659
 20
713.28880182208854
 30
0.0
 11
-441.41959325833659
 21
808.44666668900493
 31
0.0
  0
LINE
  5
DA4
  8
0
 10
-419.01959325833673
 20
812.18880182208841
 30
0.0
 11
-419.01959325834071
 21
776.18880182209296
 31
0.0
  0
ARC
  5
DA5
  8
0
 10
-441.4195932583367
 20
750.2602303935173
 30
0.0
 40
24.071428571428751
 50
248.9192219657196
 51
291.08077803428029
  0
ARC
  5
DA6
  8
0
 10
-447.9195932583367
 20
733.39824561673879
 30
0.0
 40
6.0
 50
180.0
 51
248.9192219657194
  0
LINE
  5
DA7
  8
0
 10
-457.41959325833659
 20
756.68880182208852
 30
0.0
 11
-455.41959325833642
 21
756.68880182208852
 31
0.0
  0
LINE
  5
DAA
  8
0
 10
-460.41959325833659
 20
758.68880182208852
 30
0.0
 11
-457.41959325833659
 21
758.68880182208852
 31
0.0
  0
ARC
  5
DAB
  8
0
 10
-457.7945932583367
 20
761.18880182208852
 30
0.0
 40
3.624999999999917
 50
136.39718102729509
 51
223.6028189727048
  0
LINE
  5
DAC
  8
0
 10
-461.41959325833659
 20
761.18880182208852
 30
0.0
 11
-461.41959325833659
 21
766.18880182208852
 31
0.0
  0
LINE
  5
DAE
  8
0
 10
-460.4195932583367
 20
763.68880182208841
 30
0.0
 11
-457.4195932583367
 21
763.68880182208841
 31
0.0
  0
ARC
  5
DAF
  8
0
 10
-457.7945932583367
 20
766.18880182208852
 30
0.0
 40
3.624999999999917
 50
163.54437984768171
 51
223.6028189727048
  0
LINE
  5
DB0
  8
0
 10
-455.41959325833659
 20
745.68880182208852
 30
0.0
 11
-453.91959325833659
 21
738.68880182208852
 31
0.0
  0
ARC
  5
DB1
  8
0
 10
-434.9195932583367
 20
733.39824561673879
 30
0.0
 40
6.0
 50
291.08077803428051
 51
0.0
  0
LINE
  5
DB2
  8
0
 10
-427.41959325833648
 20
745.68880182208852
 30
0.0
 11
-428.91959325833659
 21
738.68880182208852
 31
0.0
  0
ARC
  5
DB3
  8
0
 10
-425.04459325833648
 20
766.18880182208852
 30
0.0
 40
3.624999999999917
 50
316.39718102729512
 51
16.45562015231819
  0
ARC
  5
DB4
  8
0
 10
-425.04459325833648
 20
761.18880182208852
 30
0.0
 40
3.624999999999917
 50
316.39718102729512
 51
43.602818972704867
  0
LINE
  5
DB6
  8
0
 10
-422.41959325833648
 20
763.68880182208841
 30
0.0
 11
-425.41959325833648
 21
763.68880182208841
 31
0.0
  0
LINE
  5
DB8
  8
0
 10
-422.41959325833659
 20
758.68880182208852
 30
0.0
 11
-425.41959325833659
 21
758.68880182208852
 31
0.0
  0
LINE
  5
DB9
  8
0
 10
-425.41959325833659
 20
756.68880182208852
 30
0.0
 11
-427.41959325833682
 21
756.68880182208852
 31
0.0
  0
ARC
  5
DBB
  8
0
 10
-430.73591179608252
 20
768.71293803333685
 30
0.0
 40
11.790703362721059
 50
322.11102043307272
 51
322.19869322238151
  0
LINE
  5
DBC
  8
0
 10
-418.91959325833682
 20
766.68880182208852
 30
0.0
 11
-421.41959325833659
 21
766.68880182208852
 31
0.0
  0
LINE
  5
DBD
  8
0
 10
-418.91959325833682
 20
766.68880182208852
 30
0.0
 11
-418.41959325833682
 21
766.18880182208852
 31
0.0
  0
LINE
  5
DBE
  8
0
 10
-418.41959325833687
 20
766.18880182208852
 30
0.0
 11
-421.4195932583367
 21
766.18880182208864
 31
0.0
  0
LINE
  5
DBF
  8
0
 10
-418.91959325833682
 20
766.68880182208852
 30
0.0
 11
-418.41959325833682
 21
766.18880182208852
 31
0.0
  0
LINE
  5
DC0
  8
0
 10
-418.91959325833682
 20
760.68880182208852
 30
0.0
 11
-421.41959325833659
 21
760.68880182208852
 31
0.0
  0
LINE
  5
DC1
  8
0
 10
-418.41959325833687
 20
761.18880182208852
 30
0.0
 11
-421.4195932583367
 21
761.18880182208829
 31
0.0
  0
LINE
  5
DC2
  8
0
 10
-418.91959325833682
 20
760.68880182208852
 30
0.0
 11
-418.41959325833682
 21
761.18880182208852
 31
0.0
  0
LINE
  5
DC3
  8
0
 10
-418.91959325833682
 20
766.68880182208852
 30
0.0
 11
-418.91959325833682
 21
760.68880182208852
 31
0.0
  0
LINE
  5
DC4
  8
0
 10
-418.4195932583367
 20
766.18880182208818
 30
0.0
 11
-418.41959325833682
 21
761.18880182208852
 31
0.0
  0
LINE
  5
DC5
  8
0
 10
-421.41959325833659
 20
761.18880182208852
 30
0.0
 11
-421.41959325833659
 21
766.18880182208852
 31
0.0
  0
ARC
  5
DC8
  8
0
 10
-441.4195932583367
 20
777.11737325065974
 30
0.0
 40
24.071428571428751
 50
68.919221965719672
 51
111.0807780342803
  0
LINE
  5
DC9
  8
0
 10
-454.8195932583364
 20
826.18880182208852
 30
0.0
 11
-428.01959325833661
 21
826.18880182208852
 31
0.0
  0
LINE
  5
DCA
  8
0
 10
-462.81959325833651
 20
815.18880182208852
 30
0.0
 11
-420.0195932583365
 21
815.18880182208852
 31
0.0
  0
LINE
  5
DCB
  8
0
 10
-455.41959325833659
 20
781.68880182208852
 30
0.0
 11
-453.91959325833659
 21
788.68880182208852
 31
0.0
  0
ARC
  5
DCC
  8
0
 10
-447.9195932583367
 20
793.97935802743814
 30
0.0
 40
6.0
 50
111.0807780342805
 51
180.0
  0
ARC
  5
DCE
  8
0
 10
-454.8195932583364
 20
818.18880182208852
 30
0.0
 40
8.0
 50
90.0
 51
180.0
  0
ARC
  5
DCF
  8
0
 10
-462.81959325833651
 20
812.18880182208841
 30
0.0
 40
1.0
 50
90.0
 51
180.00000000000651
  0
ARC
  5
DD0
  8
0
 10
-462.81959325833651
 20
812.18880182208841
 30
0.0
 40
1.0
 50
90.0
 51
180.00000000000651
  0
LINE
  5
DD1
  8
0
 10
-463.8195932583364
 20
812.18880182208841
 30
0.0
 11
-463.81959325833628
 21
811.18880182208841
 31
0.0
  0
ARC
  5
DD2
  8
0
 10
-462.46798155721899
 20
814.23832821018368
 30
0.0
 40
1.049557472628901
 50
269.5590312959165
 51
357.29532946855852
  0
LINE
  5
DD3
  8
0
 10
-462.81959325833651
 20
815.18880182208852
 30
0.0
 11
-462.81959325833651
 21
818.18880182208852
 31
0.0
  0
LINE
  5
DD4
  8
0
 10
-462.81959325833651
 20
813.18880182208864
 30
0.0
 11
-462.4760592451986
 21
813.18880182208864
 31
0.0
  0
LINE
  5
DD5
  8
0
 10
-461.41959325833659
 20
814.18880182208852
 30
0.0
 11
-461.41959325833659
 21
815.18880182208829
 31
0.0
  0
LINE
  5
DD6
  8
0
  6
CENTER
 10
-441.41959325833659
 20
810.44666668900493
 30
0.0
 11
-441.41959325833659
 21
831.18880182208852
 31
0.0
  0
LINE
  5
DD8
  8
0
 10
-427.41959325833648
 20
781.68880182208852
 30
0.0
 11
-428.91959325833659
 21
788.68880182208852
 31
0.0
  0
ARC
  5
DD9
  8
0
 10
-434.9195932583367
 20
793.97935802743814
 30
0.0
 40
6.0
 50
0.0
 51
68.91922196571943
  0
ARC
  5
DDA
  8
0
 10
-428.01959325833661
 20
818.18880182208852
 30
0.0
 40
8.0
 50
0.000000000000007
 51
90.0
  0
LINE
  5
DDD
  8
0
 10
-421.41959325833659
 20
814.18880182208852
 30
0.0
 11
-421.41959325833659
 21
815.18880182208829
 31
0.0
  0
LINE
  5
DDE
  8
0
 10
-420.01959325833673
 20
813.18880182208864
 30
0.0
 11
-420.36312727147458
 21
813.18880182208864
 31
0.0
  0
ARC
  5
DDF
  8
0
 10
-420.37120495945419
 20
814.23832821018368
 30
0.0
 40
1.049557472628901
 50
182.70467053144139
 51
270.44096870408339
  0
ARC
  5
DE0
  8
0
 10
-420.01959325833673
 20
812.18880182208841
 30
0.0
 40
1.0
 50
359.99999999999341
 51
90.0
  0
LINE
  5
DE1
  8
0
 10
-420.0195932583365
 20
815.18880182208852
 30
0.0
 11
-420.0195932583365
 21
818.18880182208852
 31
0.0
  0
LINE
  5
DE4
  8
0
  6
CENTER
 10
-659.79031505397995
 20
763.68880182208852
 30
0.0
 11
-603.79031505398052
 21
763.68880182208716
 31
0.0
  0
POLYLINE
  5
E62
  8
0
 66
     1
 10
0.0
 20
0.0
 30
0.0
 70
     1
  0
VERTEX
  5
17C3
  8
0
 10
-377.05424226340023
 20
881.84454212938795
 30
0.0
  0
VERTEX
  5
17C4
  8
0
 10
-28.42352060122403
 20
881.84454212938795
 30
0.0
  0
VERTEX
  5
17C5
  8
0
 10
-28.42352060122403
 20
626.21604376252685
 30
0.0
  0
VERTEX
  5
17C6
  8
0
 10
-377.05424226340023
 20
626.21604376252685
 30
0.0
  0
SEQEND
  5
17C7
  8
0
  0
LINE
  5
E63
  8
0
  6
CENTER
 10
-469.41959325833631
 20
763.68880182208852
 30
0.0
 11
-413.41959325833682
 21
763.68880182208716
 31
0.0
  0
LINE
  5
EE3
  8
0
 10
-425.41959325833659
 20
756.68880182208852
 30
0.0
 11
-425.4195932583367
 21
762.68880182208852
 31
0.0
  0
ARC
  5
EE4
  8
0
 10
-437.0062187046143
 20
776.44875758920705
 30
0.0
 40
17.98850388290791
 50
310.0991881548324
 51
0.8280225458819503
  0
ARC
  5
F25
  8
0
 10
-459.41668892080941
 20
777.21135269878414
 30
0.0
 40
40.400222577001308
 50
359.287136205472
 51
46.866469546498443
  0
ARC
  5
F26
  8
0
 10
-423.42249759586372
 20
777.21135269878391
 30
0.0
 40
40.400222577001443
 50
133.13353045350129
 51
180.71286379452761
  0
ARC
  5
F27
  8
0
 10
-445.83296781205888
 20
776.44875758920705
 30
0.0
 40
17.98850388290791
 50
179.17197745411801
 51
229.90081184516751
  0
LINE
  5
F28
  8
0
 10
-457.41959325833659
 20
756.68880182208852
 30
0.0
 11
-457.41959325833648
 21
762.68880182208852
 31
0.0
  0
ARC
  5
F68
  8
0
 10
-441.41959325833659
 20
795.18880182208852
 30
0.0
 40
15.0
 50
50.085903885862443
 51
129.91409611413749
  0
ARC
  5
FA8
  8
0
 10
-425.55189016282009
 20
780.19551505528068
 30
0.0
 40
36.432710538626857
 50
136.586120830455
 51
185.45260133934079
  0
ARC
  5
FA9
  8
0
 10
-445.83296781205888
 20
776.44875758920705
 30
0.0
 40
15.98850388290791
 50
179.17197745411801
 51
232.94625643995289
  0
ARC
  5
FAA
  8
0
 10
-440.74958688088952
 20
794.94483262326014
 30
0.0
 40
15.258686230493369
 50
92.516657318788802
 51
137.5970211095694
  0
ARC
  5
FAB
  8
0
 10
-442.0895996357836
 20
794.94483262326014
 30
0.0
 40
15.258686230493369
 50
42.402978890430511
 51
87.483342681211212
  0
ARC
  5
FAC
  8
0
 10
-457.28729635385309
 20
780.19551505528068
 30
0.0
 40
36.432710538626857
 50
354.54739866065898
 51
43.413879169544963
  0
ARC
  5
FAD
  8
0
 10
-437.0062187046143
 20
776.44875758920705
 30
0.0
 40
15.98850388290791
 50
307.053743560047
 51
0.8280225458819552
  0
POLYLINE
  5
FEC
  8
0
 66
     1
 10
0.0
 20
0.0
 30
0.0
 70
     1
  0
VERTEX
  5
17C8
  8
0
 10
-667.20058806252041
 20
835.7595615233588
 30
0.0
  0
VERTEX
  5
17C9
  8
0
 10
-398.53161755773789
 20
835.7595615233588
 30
0.0
  0
VERTEX
  5
17CA
  8
0
 10
-398.53161755773789
 20
626.21604376252685
 30
0.0
  0
VERTEX
  5
17CB
  8
0
 10
-667.20058806252041
 20
626.21604376252685
 30
0.0
  0
SEQEND
  5
17CC
  8
0
  0
POLYLINE
  5
FED
  8
0
 66
     1
 10
0.0
 20
0.0
 30
0.0
 70
     1
  0
VERTEX
  5
17CD
  8
0
 10
7.8060446998820359
 20
908.38603026517126
 30
0.0
  0
VERTEX
  5
17CE
  8
0
 10
356.43676636205822
 20
908.38603026517126
 30
0.0
  0
VERTEX
  5
17CF
  8
0
 10
356.43676636205822
 20
626.21604376252685
 30
0.0
  0
VERTEX
  5
17D0
  8
0
 10
7.8060446998820359
 20
626.21604376252685
 30
0.0
  0
SEQEND
  5
17D1
  8
0
  0
LINE
  5
FF2
  8
0
  6
CENTER
 10
125.76790051873
 20
789.83024427632483
 30
0.0
 11
260.76790051873002
 21
789.83024427632483
 31
0.0
  0
LINE
  5
FF7
  8
0
  6
CENTER
 10
116.26790051873
 20
669.35608271701904
 30
0.0
 11
246.26790051872999
 21
669.35608271701904
 31
0.0
  0
ARC
  5
FF8
  8
0
 10
58.934567185398748
 20
669.35608271701881
 30
0.0
 40
140.83333333333121
 50
351.98387862436857
 51
8.0161213756313785
  0
CIRCLE
  5
FF9
  8
0
 10
152.2679005187299
 20
669.35608271701904
 30
0.0
 40
21.0
  0
CIRCLE
  5
FFA
  8
0
 10
152.2679005187299
 20
669.35608271701904
 30
0.0
 40
17.5
  0
LINE
  5
FFB
  8
0
  6
CENTER
 10
152.2679005187299
 20
702.35608271701915
 30
0.0
 11
152.2679005187299
 21
636.35608271701892
 31
0.0
  0
CIRCLE
  5
FFC
  8
0
 10
152.2679005187299
 20
669.35608271701904
 30
0.0
 40
30.00000000000005
  0
LINE
  5
FFD
  8
0
 10
200.7734540181952
 20
648.74615373550409
 30
0.0
 11
185.76234701926489
 21
648.74615373550353
 31
0.0
  0
LINE
  5
FFE
  8
0
 10
184.5893943415216
 20
648.85608271701892
 30
0.0
 11
204.42148892829161
 21
648.85608271701892
 31
0.0
  0
ARC
  5
FFF
  8
0
 10
193.2679005187301
 20
654.51004262439255
 30
0.0
 40
9.7638888888889532
 50
247.39644098484479
 51
292.60355901515521
  0
LINE
  5
1000
  8
0
 10
187.63873539413109
 20
644.74615373550375
 30
0.0
 11
198.8970656433288
 21
644.74615373550353
 31
0.0
  0
ARC
  5
1001
  8
0
 10
184.5237856029114
 20
618.66674906386925
 30
0.0
 40
30.189404944910461
 50
89.875482581143558
 51
119.0583334156553
  0
ARC
  5
1002
  8
0
 10
187.6387353941312
 20
647.46837595772581
 30
0.0
 40
2.7222222222221419
 50
269.99999999999829
 51
313.57357859652348
  0
ARC
  5
1003
  8
0
 10
187.6387353941312
 20
647.46837595772581
 30
0.0
 40
2.7222222222221419
 50
226.42642140347411
 51
270.0
  0
LINE
  5
1004
  8
0
 10
189.5151237689974
 20
648.74615373550364
 30
0.0
 11
189.5151237689974
 21
645.49615373550364
 31
0.0
  0
LINE
  5
1005
  8
0
 10
185.76234701926489
 20
648.74615373550353
 30
0.0
 11
185.76234701926501
 21
645.49615373550364
 31
0.0
  0
LINE
  5
1006
  8
0
 10
198.61286821235549
 20
651.35608271701892
 30
0.0
 11
212.7679005187276
 21
651.35608271701892
 31
0.0
  0
ARC
  5
1007
  8
0
 10
197.40157087620781
 20
649.85608271701904
 30
0.0
 40
1.0
 50
270.0
 51
351.98387862436857
  0
ARC
  5
1008
  8
0
 10
198.897065643329
 20
647.46837595772581
 30
0.0
 40
2.7222222222221419
 50
270.0
 51
313.57357859652581
  0
ARC
  5
1009
  8
0
 10
198.897065643329
 20
647.46837595772581
 30
0.0
 40
2.7222222222221419
 50
226.42642140347641
 51
270.00000000000159
  0
LINE
  5
100A
  8
0
 10
200.7734540181952
 20
648.74615373550353
 30
0.0
 11
200.7734540181952
 21
645.49615373550353
 31
0.0
  0
LINE
  5
100B
  8
0
 10
197.02067726846261
 20
648.74615373550364
 30
0.0
 11
197.02067726846261
 21
645.49615373550353
 31
0.0
  0
LINE
  5
100C
  8
0
  6
CENTER
 10
193.2679005187301
 20
651.85608271701892
 30
0.0
 11
193.2679005187301
 21
641.74615373550353
 31
0.0
  0
LINE
  5
100D
  8
0
 10
204.42148892829161
 20
648.85608271701892
 30
0.0
 11
204.42148892829161
 21
651.35608271701881
 31
0.0
  0
CIRCLE
  5
100E
  8
0
 10
152.2679005187299
 20
669.35608271701904
 30
0.0
 40
12.5
  0
CIRCLE
  5
100F
  8
0
 10
152.2679005187299
 20
669.35608271701904
 30
0.0
 40
5.5
  0
CIRCLE
  5
1010
  8
0
 10
152.2679005187299
 20
669.35608271701904
 30
0.0
 40
7.0
  0
LINE
  5
1011
  8
0
 10
204.42148892829161
 20
689.85608271701915
 30
0.0
 11
204.42148892829161
 21
687.35608271701926
 31
0.0
  0
ARC
  5
1012
  8
0
 10
197.40157087620781
 20
688.85608271701904
 30
0.0
 40
1.0
 50
8.0161213756313785
 51
90.0
  0
ARC
  5
1013
  8
0
 10
197.40157087620781
 20
688.85608271701904
 30
0.0
 40
1.0
 50
8.0161213756313785
 51
90.0
  0
LINE
  5
1014
  8
0
  6
CENTER
 10
193.2679005187299
 20
699.74615373550364
 30
0.0
 11
193.26790051872999
 21
686.85608271701915
 31
0.0
  0
ARC
  5
1015
  8
0
 10
184.5237856029112
 20
720.04541637016894
 30
0.0
 40
30.189404944910461
 50
240.94166658434469
 51
270.1245174188565
  0
LINE
  5
1016
  8
0
 10
198.61286821235549
 20
687.35608271701915
 30
0.0
 11
212.76790051873161
 21
687.35608271701926
 31
0.0
  0
ARC
  5
1017
  8
0
 10
193.2679005187301
 20
684.2021228096454
 30
0.0
 40
9.7638888888889532
 50
67.396440984844816
 51
112.6035590151551
  0
LINE
  5
1018
  8
0
 10
189.86790051873001
 20
696.74615373550375
 30
0.0
 11
196.66790051872971
 21
696.74615373550341
 31
0.0
  0
LINE
  5
1019
  8
0
 10
189.26790051872999
 20
696.14615373550373
 30
0.0
 11
197.2679005187297
 21
696.14615373550339
 31
0.0
  0
LINE
  5
101A
  8
0
 10
187.63873539413109
 20
693.96601169853432
 30
0.0
 11
198.8970656433288
 21
693.96601169853454
 31
0.0
  0
LINE
  5
101B
  8
0
 10
200.7734540181952
 20
689.96601169853386
 30
0.0
 11
185.76234701926489
 21
689.96601169853454
 31
0.0
  0
LINE
  5
101C
  8
0
 10
184.5893943415214
 20
689.85608271701915
 30
0.0
 11
204.42148892829161
 21
689.85608271701915
 31
0.0
  0
ARC
  5
101D
  8
0
 10
187.6387353941312
 20
691.24378947631214
 30
0.0
 40
2.7222222222221419
 50
46.426421403476432
 51
90.000000000001606
  0
LINE
  5
101E
  8
0
 10
189.5151237689974
 20
689.96601169853443
 30
0.0
 11
189.5151237689974
 21
693.21601169853443
 31
0.0
  0
LINE
  5
101F
  8
0
 10
189.86790051873001
 20
696.74615373550375
 30
0.0
 11
189.26790051872999
 21
696.14615373550373
 31
0.0
  0
LINE
  5
1020
  8
0
 10
189.26790051872999
 20
696.14615373550373
 30
0.0
 11
189.2679005187299
 21
693.96601169853454
 31
0.0
  0
LINE
  5
1021
  8
0
 10
189.86790051873021
 20
696.74615373550341
 30
0.0
 11
189.8679005187301
 21
693.96601169853443
 31
0.0
  0
LINE
  5
1022
  8
0
 10
185.76234701926489
 20
689.96601169853454
 30
0.0
 11
185.76234701926501
 21
693.21601169853443
 31
0.0
  0
ARC
  5
1023
  8
0
 10
187.6387353941312
 20
691.24378947631214
 30
0.0
 40
2.7222222222221419
 50
90.0
 51
133.57357859652581
  0
ARC
  5
1024
  8
0
 10
198.897065643329
 20
691.24378947631214
 30
0.0
 40
2.7222222222221419
 50
46.42642140347413
 51
90.0
  0
LINE
  5
1025
  8
0
 10
200.7734540181952
 20
689.96601169853454
 30
0.0
 11
200.7734540181952
 21
693.21601169853454
 31
0.0
  0
LINE
  5
1026
  8
0
 10
197.02067726846261
 20
689.96601169853443
 30
0.0
 11
197.02067726846261
 21
693.21601169853454
 31
0.0
  0
LINE
  5
1027
  8
0
 10
196.66790051872971
 20
696.74615373550341
 30
0.0
 11
197.2679005187297
 21
696.14615373550339
 31
0.0
  0
LINE
  5
1028
  8
0
 10
197.2679005187297
 20
696.14615373550339
 30
0.0
 11
197.2679005187299
 21
693.96601169853454
 31
0.0
  0
LINE
  5
1029
  8
0
 10
196.66790051872971
 20
689.9660116985342
 30
0.0
 11
196.66790051872971
 21
689.85608271701915
 31
0.0
  0
LINE
  5
102A
  8
0
 10
196.66790051872971
 20
696.74615373550341
 30
0.0
 11
196.66790051872971
 21
693.96601169853443
 31
0.0
  0
ARC
  5
102B
  8
0
 10
198.897065643329
 20
691.24378947631214
 30
0.0
 40
2.7222222222221419
 50
89.999999999998366
 51
133.5735785965235
  0
LINE
  5
102C
  8
0
 10
31.946122852538672
 20
883.8573414549935
 30
0.0
 11
26.971982831648571
 21
875.33024427632495
 31
0.0
  0
ARC
  5
102D
  8
0
 10
81.155862334556716
 20
824.42921679795347
 30
0.0
 40
57.63648205005925
 50
199.5728159093903
 51
213.1029594044457
  0
LINE
  5
102E
  8
0
 10
26.971982831648461
 20
875.33024427632472
 30
0.0
 11
86.971982831648646
 21
875.33024427632495
 31
0.0
  0
LINE
  5
102F
  8
0
 10
28.271982831648518
 20
873.58024427632495
 30
0.0
 11
85.671982831648606
 21
873.58024427632472
 31
0.0
  0
LINE
  5
1030
  8
0
  6
CENTER
 10
89.362053850133123
 20
789.83024427632506
 30
0.0
 11
24.58191181316403
 21
789.83024427632472
 31
0.0
  0
LINE
  5
1031
  8
0
 10
28.971982831648511
 20
873.58024427632472
 30
0.0
 11
28.971982831648571
 21
875.33024427632495
 31
0.0
  0
ARC
  5
1032
  8
0
 10
28.271982831648518
 20
871.58024427632495
 30
0.0
 40
2.0
 50
89.999999999999886
 51
180.0
  0
LINE
  5
1033
  8
0
 10
26.271982831648529
 20
871.58024427632495
 30
0.0
 11
26.271982831648469
 21
808.47077756117312
 31
0.0
  0
ARC
  5
1034
  8
0
 10
36.271982831648472
 20
808.47077756117324
 30
0.0
 40
10.0
 50
180.0000000000006
 51
199.5728159093901
  0
LINE
  5
1035
  8
0
 10
180.26790051872999
 20
873.58024427632495
 30
0.0
 11
180.26790051872999
 21
875.33024427632506
 31
0.0
  0
LINE
  5
1036
  8
0
 10
124.2679005187299
 20
873.58024427632495
 30
0.0
 11
124.26790051873
 21
875.33024427632506
 31
0.0
  0
LINE
  5
1037
  8
0
 10
84.971982831648631
 20
873.58024427632472
 30
0.0
 11
84.971982831648575
 21
875.33024427632495
 31
0.0
  0
ARC
  5
1038
  8
0
 10
85.671982831648606
 20
871.58024427632495
 30
0.0
 40
2.0
 50
0.000000000000007
 51
90.000000000000114
  0
LINE
  5
1039
  8
0
  6
CENTER
 10
152.26790051872999
 20
868.58024427632517
 30
0.0
 11
152.26790051872999
 21
890.33024427632495
 31
0.0
  0
LINE
  5
103A
  8
0
  6
CENTER
 10
56.971982831648567
 20
892.33024427632472
 30
0.0
 11
56.971982831648567
 21
722.33024427632483
 31
0.0
  0
LINE
  5
103B
  8
0
 10
84.362053850133279
 20
793.23024427632492
 30
0.0
 11
84.362053850132952
 21
786.4302442763252
 31
0.0
  0
LINE
  5
103C
  8
0
 10
83.762053850133256
 20
793.83024427632495
 30
0.0
 11
83.762053850132915
 21
785.83024427632506
 31
0.0
  0
ARC
  5
103D
  8
0
 10
71.818022924274942
 20
789.83024427632483
 30
0.0
 40
9.7638888888889532
 50
337.39644098484479
 51
22.60355901515517
  0
ARC
  5
103E
  8
0
 10
42.125942739022207
 20
789.83024427632483
 30
0.0
 40
9.7638888888889532
 50
157.39644098484479
 51
202.60355901515521
  0
LINE
  5
103F
  8
0
 10
81.581911813163856
 20
795.45940940092373
 30
0.0
 11
81.581911813164083
 21
784.20107915172605
 31
0.0
  0
LINE
  5
1040
  8
0
 10
72.971982831648631
 20
845.4177405890099
 30
0.0
 11
72.971982831648575
 21
734.24274796363977
 31
0.0
  0
LINE
  5
1041
  8
0
 10
32.362053850133293
 20
795.45940940092373
 30
0.0
 11
32.362053850133059
 21
784.20107915172605
 31
0.0
  0
LINE
  5
1042
  8
0
 10
40.971982831648518
 20
845.4177405890099
 30
0.0
 11
40.971982831648567
 21
734.24274796363977
 31
0.0
  0
LINE
  5
1043
  8
0
 10
76.471982831648745
 20
869.70638833593182
 30
0.0
 11
76.471982831648575
 21
776.09926892511794
 31
0.0
  0
LINE
  5
1044
  8
0
 10
74.471982831648688
 20
869.20638833593148
 30
0.0
 11
74.471982831648631
 21
764.83024427632483
 31
0.0
  0
LINE
  5
1045
  8
0
 10
37.471982831648397
 20
869.70638833593182
 30
0.0
 11
37.471982831648567
 21
776.09926892511794
 31
0.0
  0
LINE
  5
1046
  8
0
 10
39.471982831648461
 20
869.20638833593148
 30
0.0
 11
39.471982831648461
 21
764.83024427632449
 31
0.0
  0
LINE
  5
1047
  8
0
 10
74.471982831648688
 20
776.09926892511794
 30
0.0
 11
76.471982831648575
 21
776.09926892511805
 31
0.0
  0
LINE
  5
1048
  8
0
 10
74.471982831648631
 20
764.83024427632483
 30
0.0
 11
72.971982831648575
 21
748.33024427632461
 31
0.0
  0
LINE
  5
1049
  8
0
 10
39.471982831648511
 20
764.83024427632483
 30
0.0
 11
40.971982831648567
 21
748.33024427632461
 31
0.0
  0
ARC
  5
104A
  8
0
 10
56.971982831648567
 20
755.43024427632474
 30
0.0
 40
28.09999999999993
 50
239.46064452340951
 51
300.53935547659017
  0
ARC
  5
104B
  8
0
 10
44.471982831648567
 20
734.24274796363977
 30
0.0
 40
3.5
 50
180.0
 51
239.4606445234094
  0
LINE
  5
104C
  8
0
 10
40.971982831648567
 20
748.33024427632461
 30
0.0
 11
40.971982831648567
 21
734.24274796363977
 31
0.0
  0
ARC
  5
104D
  8
0
 10
69.471982831648575
 20
734.24274796363977
 30
0.0
 40
3.5
 50
300.53935547658972
 51
0.0
  0
LINE
  5
104E
  8
0
 10
37.471982831648567
 20
786.07746752659227
 30
0.0
 11
33.112053850133059
 21
786.07746752659227
 31
0.0
  0
LINE
  5
104F
  8
0
 10
39.471982831648461
 20
776.09926892511794
 30
0.0
 11
37.471982831648567
 21
776.09926892511805
 31
0.0
  0
ARC
  5
1050
  8
0
 10
35.084276072355351
 20
784.20107915172605
 30
0.0
 40
2.7222222222221419
 50
180.0
 51
223.57357859652581
  0
LINE
  5
1051
  8
0
 10
37.471982831648518
 20
782.32469077685982
 30
0.0
 11
33.112053850133059
 21
782.32469077685982
 31
0.0
  0
ARC
  5
1052
  8
0
 10
35.084276072355351
 20
784.20107915172605
 30
0.0
 40
2.7222222222221419
 50
136.42642140347641
 51
180.00000000000159
  0
LINE
  5
1053
  8
0
 10
84.362053850132952
 20
786.4302442763252
 30
0.0
 11
81.581911813163956
 21
786.4302442763252
 31
0.0
  0
LINE
  5
1054
  8
0
 10
83.762053850132915
 20
785.83024427632506
 30
0.0
 11
81.581911813164083
 21
785.83024427632495
 31
0.0
  0
LINE
  5
1055
  8
0
 10
84.362053850132952
 20
786.4302442763252
 30
0.0
 11
83.762053850132915
 21
785.83024427632506
 31
0.0
  0
LINE
  5
1056
  8
0
 10
76.471982831648575
 20
786.07746752659227
 30
0.0
 11
80.831911813164083
 21
786.07746752659227
 31
0.0
  0
LINE
  5
1057
  8
0
 10
76.471982831648575
 20
782.32469077685982
 30
0.0
 11
80.831911813164083
 21
782.32469077685982
 31
0.0
  0
ARC
  5
1058
  8
0
 10
78.859689590941798
 20
784.20107915172605
 30
0.0
 40
2.7222222222221419
 50
316.42642140347402
 51
0.0
  0
ARC
  5
1059
  8
0
 10
78.859689590941798
 20
784.20107915172605
 30
0.0
 40
2.7222222222221419
 50
359.99999999999829
 51
43.573578596523539
  0
ARC
  5
105A
  8
0
 10
73.471982831648745
 20
869.70638833593182
 30
0.0
 40
3.0
 50
359.99999999999989
 51
90.0
  0
ARC
  5
105C
  8
0
 10
35.084276072355351
 20
795.45940940092385
 30
0.0
 40
2.7222222222221419
 50
179.99999999999829
 51
223.5735785965235
  0
ARC
  5
105D
  8
0
 10
35.084276072355351
 20
795.45940940092385
 30
0.0
 40
2.7222222222221419
 50
136.42642140347411
 51
180.0
  0
LINE
  5
105E
  8
0
 10
37.471982831648567
 20
797.33579777579018
 30
0.0
 11
33.112053850133179
 21
797.33579777578996
 31
0.0
  0
LINE
  5
105F
  8
0
 10
37.471982831648518
 20
793.58302102605762
 30
0.0
 11
33.112053850133179
 21
793.58302102605739
 31
0.0
  0
LINE
  5
1061
  8
0
 10
73.471982831648745
 20
872.70638833593171
 30
0.0
 11
40.471982831648397
 21
872.70638833593193
 31
0.0
  0
LINE
  5
1062
  8
0
 10
72.971982831648688
 20
870.70638833593171
 30
0.0
 11
40.971982831648447
 21
870.70638833593159
 31
0.0
  0
ARC
  5
1065
  8
0
 10
40.971982831648447
 20
869.20638833593148
 30
0.0
 40
1.5
 50
90.000000000000028
 51
180.0
  0
ARC
  5
1066
  8
0
 10
40.471982831648397
 20
869.70638833593182
 30
0.0
 40
3.0
 50
90.0
 51
180.0
  0
ARC
  5
1068
  8
0
 10
72.971982831648688
 20
869.20638833593148
 30
0.0
 40
1.5
 50
359.99999999999989
 51
89.999999999999986
  0
LINE
  5
1069
  8
0
 10
87.67198283164862
 20
871.58024427632495
 30
0.0
 11
87.671982831648776
 21
808.47077756117358
 31
0.0
  0
ARC
  5
106A
  8
0
 10
77.671982831648734
 20
808.47077756117358
 30
0.0
 40
10.0
 50
340.4271840906099
 51
0.0
  0
LINE
  5
106B
  8
0
 10
84.362053850133279
 20
793.23024427632492
 30
0.0
 11
83.762053850133256
 21
793.83024427632495
 31
0.0
  0
LINE
  5
106C
  8
0
 10
83.762053850133256
 20
793.83024427632495
 30
0.0
 11
81.581911813164083
 21
793.83024427632495
 31
0.0
  0
LINE
  5
106D
  8
0
 10
84.362053850132952
 20
793.23024427632481
 30
0.0
 11
81.581911813163956
 21
793.23024427632481
 31
0.0
  0
LINE
  5
106E
  8
0
 10
76.471982831648575
 20
793.58302102605751
 30
0.0
 11
80.83191181316397
 21
793.58302102605739
 31
0.0
  0
LINE
  5
106F
  8
0
 10
76.471982831648631
 20
797.33579777578996
 30
0.0
 11
80.83191181316397
 21
797.33579777578996
 31
0.0
  0
ARC
  5
1070
  8
0
 10
78.859689590941798
 20
795.45940940092385
 30
0.0
 40
2.7222222222221419
 50
316.42642140347641
 51
0.000000000001603
  0
ARC
  5
1071
  8
0
 10
78.859689590941798
 20
795.45940940092385
 30
0.0
 40
2.7222222222221419
 50
0.0
 51
43.573578596525849
  0
ARC
  5
1072
  8
0
 10
32.788103328740362
 20
824.4292167979537
 30
0.0
 40
57.636482050059328
 50
327.84145925419239
 51
340.4271840906099
  0
LINE
  5
1073
  8
0
  6
CENTER
 10
193.26790051872999
 20
722.33024427632483
 30
0.0
 11
193.26790051872999
 21
857.33024427632483
 31
0.0
  0
CIRCLE
  5
1074
  8
0
 10
193.26790051872999
 20
789.83024427632483
 30
0.0
 40
6.5
  0
POLYLINE
  5
1075
  8
0
 66
     1
 10
0.0
 20
0.0
 30
0.0
 70
     1
  0
VERTEX
  5
17D2
  8
0
 10
189.5151237689974
 20
796.33024427632483
 30
0.0
  0
VERTEX
  5
17D3
  8
0
 10
185.76234701926489
 20
789.83024427632483
 30
0.0
  0
VERTEX
  5
17D4
  8
0
 10
189.5151237689974
 20
783.33024427632483
 30
0.0
  0
VERTEX
  5
17D5
  8
0
 10
197.02067726846249
 20
783.33024427632483
 30
0.0
  0
VERTEX
  5
17D6
  8
0
 10
200.77345401819511
 20
789.83024427632483
 30
0.0
  0
VERTEX
  5
17D7
  8
0
 10
197.02067726846249
 20
796.33024427632483
 30
0.0
  0
SEQEND
  5
17D8
  8
0
  0
ARC
  5
1078
  8
0
 10
-197.13303518080031
 20
800.24960602938177
 30
0.0
 40
401.5550794610736
 50
358.16857562041901
 51
10.04396314224365
  0
ARC
  5
1079
  8
0
 10
191.36143312497529
 20
789.09926892511794
 30
0.0
 40
13.0
 50
258.44125227686152
 51
349.22731283228251
  0
ARC
  5
107A
  8
0
 10
199.22044483357041
 20
787.60396462024687
 30
0.0
 40
5.0
 50
349.22731283228251
 51
357.84936409849018
  0
LINE
  5
107B
  8
0
 10
123.89021764495691
 20
873.58024427632506
 30
0.0
 11
180.26790051872999
 21
873.58024427632495
 31
0.0
  0
ARC
  5
107C
  8
0
 10
123.89021764495691
 20
872.08024427632495
 30
0.0
 40
1.5
 50
90.0
 51
178.1438136990557
  0
LINE
  5
107D
  8
0
 10
122.2679005187299
 20
868.33024427632495
 30
0.0
 11
122.3910047290593
 21
872.12883062014396
 31
0.0
  0
LINE
  5
1080
  8
0
 10
180.26790051872999
 20
873.58024427632495
 30
0.0
 11
199.7679005187299
 21
872.70638833593193
 31
0.0
  0
LINE
  5
1081
  8
0
 10
198.2679005187299
 20
870.28232616022535
 30
0.0
 11
199.7679005187299
 21
870.20288471109859
 31
0.0
  0
LINE
  5
1082
  8
0
 10
199.7679005187299
 20
872.70638833593171
 30
0.0
 11
199.76790051872999
 21
870.20288471109859
 31
0.0
  0
LINE
  5
1083
  8
0
 10
198.2679005187299
 20
872.78582978505835
 30
0.0
 11
198.2679005187299
 21
870.28232616022535
 31
0.0
  0
ARC
  5
1084
  8
0
 10
75.951390504469487
 20
880.33024427632483
 30
0.0
 40
7.0
 50
30.25643716352938
 51
90.0
  0
LINE
  5
1085
  8
0
 10
37.992575158827663
 20
887.33024427632483
 30
0.0
 11
75.951390504469487
 21
887.33024427632483
 31
0.0
  0
ARC
  5
1086
  8
0
 10
37.992575158827663
 20
880.33024427632483
 30
0.0
 40
7.0
 50
90.0
 51
149.7435628364706
  0
LINE
  5
1087
  8
0
 10
81.997842810758485
 20
883.8573414549935
 30
0.0
 11
86.971982831648575
 21
875.33024427632495
 31
0.0
  0
LINE
  5
1088
  8
0
 10
133.2884928459091
 20
887.33024427632483
 30
0.0
 11
171.2473081915509
 21
887.33024427632483
 31
0.0
  0
LINE
  5
1089
  8
0
 10
122.2679005187299
 20
875.33024427632495
 30
0.0
 11
182.26790051872999
 21
875.33024427632506
 31
0.0
  0
ARC
  5
108A
  8
0
 10
133.2884928459091
 20
880.33024427632495
 30
0.0
 40
7.0
 50
90.0
 51
149.7435628364706
  0
LINE
  5
108B
  8
0
 10
127.24204053962011
 20
883.8573414549935
 30
0.0
 11
122.26790051873
 21
875.33024427632506
 31
0.0
  0
ARC
  5
108C
  8
0
 10
171.2473081915509
 20
880.33024427632495
 30
0.0
 40
7.0
 50
30.25643716352938
 51
90.0
  0
LINE
  5
108D
  8
0
 10
177.29376049783991
 20
883.8573414549935
 30
0.0
 11
182.26790051872999
 21
875.33024427632506
 31
0.0
  0
LINE
  5
1093
  8
0
 10
338.31141916292557
 20
873.58024427632495
 30
0.0
 11
338.31141916292557
 21
875.33024427632506
 31
0.0
  0
ARC
  5
1094
  8
0
 10
339.01141916292562
 20
871.58024427632495
 30
0.0
 40
2.0
 50
0.000000000000007
 51
90.000000000000114
  0
LINE
  5
1095
  8
0
 10
282.31141916292552
 20
873.58024427632495
 30
0.0
 11
282.31141916292557
 21
875.33024427632506
 31
0.0
  0
ARC
  5
1096
  8
0
 10
281.61141916292547
 20
871.58024427632495
 30
0.0
 40
2.0
 50
89.999999999999886
 51
180.0
  0
ARC
  5
1097
  8
0
 10
318.99012343771187
 20
829.0212888665086
 30
0.0
 40
39.420986273301089
 50
104.5765092226293
 51
177.3460638742998
  0
ARC
  5
1098
  8
0
 10
323.38578263634753
 20
827.71547619467958
 30
0.0
 40
41.855597581611711
 50
110.754923797977
 51
183.57026400069071
  0
ARC
  5
1099
  8
0
 10
301.63271488813928
 20
829.0212888665086
 30
0.0
 40
39.420986273301018
 50
2.6539361257016392
 51
75.423490777370773
  0
ARC
  5
109A
  8
0
 10
297.2370556895039
 20
827.71547619467958
 30
0.0
 40
41.85559758161159
 50
356.4297359993094
 51
69.245076202023824
  0
LINE
  5
109B
  8
0
  6
CENTER
 10
310.31141916292557
 20
892.33024427632495
 30
0.0
 11
310.31141916292557
 21
722.33024427632483
 31
0.0
  0
LINE
  5
109C
  8
0
 10
281.61141916292547
 20
873.58024427632506
 30
0.0
 11
339.01141916292562
 21
873.58024427632495
 31
0.0
  0
LINE
  5
109F
  8
0
  6
CENTER
 10
342.70149018141012
 20
789.83024427632506
 30
0.0
 11
280.70149018141018
 21
789.83024427632472
 31
0.0
  0
ARC
  5
10A0
  8
0
 10
295.46537907029921
 20
789.83024427632483
 30
0.0
 40
9.7638888888889532
 50
161.3578952510922
 51
202.60355901515521
  0
ARC
  5
10A1
  8
0
 10
334.49529866583367
 20
824.42921679795347
 30
0.0
 40
57.63648205005925
 50
199.5728159093903
 51
220.71877235022359
  0
ARC
  5
10A2
  8
0
 10
334.49529866583367
 20
824.42921679795347
 30
0.0
 40
55.636482050059243
 50
200.00141657396281
 51
221.4772760756577
  0
LINE
  5
10A4
  8
0
 10
285.70149018141029
 20
793.75140206658455
 30
0.0
 11
285.70149018141012
 21
784.20107915172605
 31
0.0
  0
LINE
  5
10A5
  8
0
 10
292.81141916292552
 20
764.83024427632506
 30
0.0
 11
292.81141916292552
 21
856.3004258554522
 31
0.0
  0
LINE
  5
10A9
  8
0
 10
290.81141916292557
 20
786.07746752659227
 30
0.0
 11
286.45149018141012
 21
786.07746752659227
 31
0.0
  0
LINE
  5
10AA
  8
0
 10
290.81141916292552
 20
782.32469077685982
 30
0.0
 11
286.45149018141012
 21
782.32469077685982
 31
0.0
  0
ARC
  5
10AB
  8
0
 10
288.42371240363241
 20
784.20107915172605
 30
0.0
 40
2.7222222222221419
 50
180.0
 51
223.57357859652581
  0
LINE
  5
10AC
  8
0
 10
292.81141916292552
 20
776.09926892511794
 30
0.0
 11
290.81141916292557
 21
776.09926892511805
 31
0.0
  0
ARC
  5
10AD
  8
0
 10
288.42371240363241
 20
784.20107915172605
 30
0.0
 40
2.7222222222221419
 50
136.42642140347641
 51
180.00000000000159
  0
LINE
  5
10AE
  8
0
 10
290.81141916292557
 20
786.83024427632472
 30
0.0
 11
290.81141916292557
 21
776.09926892511794
 31
0.0
  0
LINE
  5
10AF
  8
0
 10
281.61141916292547
 20
825.10902164793401
 30
0.0
 11
281.61141916292547
 21
808.81956040566217
 31
0.0
  0
LINE
  5
10B0
  8
0
 10
279.61141916292547
 20
871.58024427632495
 30
0.0
 11
279.61141916292547
 21
808.47077756117312
 31
0.0
  0
ARC
  5
10B1
  8
0
 10
291.61141916292547
 20
808.81956040566217
 30
0.0
 40
10.0
 50
180.0
 51
200.00141657396281
  0
ARC
  5
10B2
  8
0
 10
289.61141916292547
 20
808.47077756117324
 30
0.0
 40
10.0
 50
180.0000000000006
 51
199.57281590939019
  0
LINE
  5
10B5
  8
0
 10
337.10149018141033
 20
793.83024427632495
 30
0.0
 11
337.10149018140999
 21
785.83024427632506
 31
0.0
  0
LINE
  5
10B6
  8
0
 10
337.70149018141029
 20
793.23024427632492
 30
0.0
 11
337.70149018141001
 21
786.4302442763252
 31
0.0
  0
ARC
  5
10B7
  8
0
 10
325.15745925555188
 20
789.83024427632483
 30
0.0
 40
9.7638888888889532
 50
337.39644098484479
 51
18.642104748907741
  0
ARC
  5
10B8
  8
0
 10
286.12753966001742
 20
824.4292167979537
 30
0.0
 40
57.636482050059328
 50
319.28122764977633
 51
340.4271840906099
  0
ARC
  5
10B9
  8
0
 10
286.12753966001742
 20
824.42921679795347
 30
0.0
 40
55.636482050059243
 50
318.52272392434219
 51
341.90175049065942
  0
LINE
  5
10BB
  8
0
 10
334.92134814444091
 20
793.83024427632506
 30
0.0
 11
334.92134814444108
 21
784.20107915172605
 31
0.0
  0
LINE
  5
10BC
  8
0
 10
327.81141916292569
 20
764.83024427632506
 30
0.0
 11
327.81141916292569
 21
856.30042585545209
 31
0.0
  0
LINE
  5
10BF
  8
0
 10
327.81141916292569
 20
776.09926892511794
 30
0.0
 11
329.81141916292557
 21
776.09926892511805
 31
0.0
  0
LINE
  5
10C0
  8
0
 10
337.70149018141001
 20
786.4302442763252
 30
0.0
 11
337.10149018140999
 21
785.83024427632506
 31
0.0
  0
LINE
  5
10C1
  8
0
 10
329.81141916292557
 20
786.07746752659227
 30
0.0
 11
334.17134814444108
 21
786.07746752659227
 31
0.0
  0
LINE
  5
10C2
  8
0
 10
337.10149018140999
 20
785.83024427632506
 30
0.0
 11
334.92134814444108
 21
785.83024427632495
 31
0.0
  0
LINE
  5
10C3
  8
0
 10
337.70149018141001
 20
786.4302442763252
 30
0.0
 11
334.92134814444103
 21
786.4302442763252
 31
0.0
  0
ARC
  5
10C4
  8
0
 10
332.1991259222188
 20
784.20107915172605
 30
0.0
 40
2.7222222222221419
 50
316.42642140347402
 51
0.0
  0
LINE
  5
10C5
  8
0
 10
329.81141916292557
 20
782.32469077685982
 30
0.0
 11
334.17134814444108
 21
782.32469077685982
 31
0.0
  0
ARC
  5
10C6
  8
0
 10
332.1991259222188
 20
784.20107915172605
 30
0.0
 40
2.7222222222221419
 50
359.99999999999829
 51
43.573578596523539
  0
LINE
  5
10C7
  8
0
 10
329.81141916292557
 20
786.83024427632483
 30
0.0
 11
329.81141916292557
 21
776.09926892511794
 31
0.0
  0
LINE
  5
10C8
  8
0
 10
339.01141916292568
 20
825.10902164793436
 30
0.0
 11
339.01141916292568
 21
807.14588888842047
 31
0.0
  0
LINE
  5
10C9
  8
0
 10
341.01141916292562
 20
871.58024427632495
 30
0.0
 11
341.01141916292568
 21
808.47077756117312
 31
0.0
  0
ARC
  5
10CB
  8
0
 10
331.01141916292568
 20
808.47077756117358
 30
0.0
 40
10.0
 50
340.42718409061001
 51
359.99999999999932
  0
ARC
  5
10CC
  8
0
 10
331.01141916292568
 20
808.47077756117324
 30
0.0
 40
10.0
 50
340.42718409060973
 51
359.99999999999932
  0
LINE
  5
10CD
  8
0
 10
337.70149018141029
 20
793.23024427632492
 30
0.0
 11
337.10149018141033
 21
793.83024427632495
 31
0.0
  0
LINE
  5
10CE
  8
0
 10
337.70149018141001
 20
793.23024427632481
 30
0.0
 11
334.92134814444103
 21
793.23024427632481
 31
0.0
  0
LINE
  5
10CF
  8
0
 10
337.10149018141033
 20
793.83024427632495
 30
0.0
 11
334.92134814444108
 21
793.83024427632495
 31
0.0
  0
LINE
  5
10D1
  8
0
 10
291.33201149010472
 20
887.33024427632483
 30
0.0
 11
329.29082683574649
 21
887.33024427632483
 31
0.0
  0
LINE
  5
10D2
  8
0
 10
280.31141916292552
 20
875.33024427632495
 30
0.0
 11
340.31141916292557
 21
875.33024427632506
 31
0.0
  0
LINE
  5
10D3
  8
0
 10
285.28555918381568
 20
883.8573414549935
 30
0.0
 11
280.31141916292557
 21
875.33024427632506
 31
0.0
  0
ARC
  5
10D4
  8
0
 10
291.33201149010472
 20
880.33024427632495
 30
0.0
 40
7.0
 50
90.0
 51
149.7435628364706
  0
ARC
  5
10D5
  8
0
 10
329.29082683574649
 20
880.33024427632495
 30
0.0
 40
7.0
 50
30.25643716352938
 51
90.0
  0
LINE
  5
10D6
  8
0
 10
335.33727914203553
 20
883.8573414549935
 30
0.0
 11
340.31141916292557
 21
875.33024427632506
 31
0.0
  0
ARC
  5
10D8
  8
0
 10
193.26790051872999
 20
789.83024427632483
 30
0.0
 40
62.5
 50
146.8342925136711
 51
82.806307718499212
  0
ARC
  5
10DE
  8
0
 10
193.26790051872999
 20
789.83024427632483
 30
0.0
 40
56.5
 50
149.50627970454349
 51
81.268984369513106
  0
ARC
  5
10DF
  8
0
 10
193.26790051872999
 20
789.83024427632483
 30
0.0
 40
42.5
 50
157.34540438176171
 51
76.441268763587786
  0
ARC
  5
10E0
  8
0
 10
193.26790051872999
 20
789.83024427632483
 30
0.0
 40
40.0
 50
159.12670454229169
 51
75.288876259140793
  0
ARC
  5
10E1
  8
0
 10
193.26790051872999
 20
789.83024427632483
 30
0.0
 40
25.0
 50
175.8658347905251
 51
63.963740619127769
  0
ARC
  5
1161
  8
0
 10
268.0385460785094
 20
903.69857605894003
 30
0.0
 40
150.0
 50
193.6381290159523
 51
238.09270809252681
  0
LINE
  5
11DE
  8
0
 10
172.92148892829161
 20
793.87430160952329
 30
0.0
 11
172.92148892829161
 21
868.7003859932953
 31
0.0
  0
LINE
  5
11DF
  8
0
 10
179.42148892829169
 20
787.56567408037165
 30
0.0
 11
179.42148892829169
 21
868.7003859932953
 31
0.0
  0
ARC
  5
11E2
  8
0
 10
56.971982831648567
 20
824.23024427632515
 30
0.0
 40
28.09999999999993
 50
59.460644523409719
 51
120.5393554765904
  0
ARC
  5
11E3
  8
0
 10
44.471982831648567
 20
845.4177405890099
 30
0.0
 40
3.5
 50
120.5393554765906
 51
180.0
  0
ARC
  5
11E4
  8
0
 10
69.471982831648575
 20
845.4177405890099
 30
0.0
 40
3.5
 50
0.0
 51
59.460644523410231
  0
LINE
  5
11E5
  8
0
 10
74.471982831648631
 20
814.83024427632506
 30
0.0
 11
72.971982831648575
 21
831.33024427632529
 31
0.0
  0
LINE
  5
11E6
  8
0
 10
39.471982831648511
 20
814.83024427632506
 30
0.0
 11
40.971982831648567
 21
831.33024427632529
 31
0.0
  0
ARC
  5
1229
  8
0
 10
310.3114191629254
 20
862.17411679961299
 30
0.0
 40
5.0
 50
69.414016925310548
 51
110.5859830746906
  0
ARC
  5
122A
  8
0
 10
310.31141916292557
 20
862.33024427632483
 30
0.0
 40
5.0
 50
75.611501730800114
 51
104.3884982691998
  0
ARC
  5
1269
  8
0
 10
310.31141916292557
 20
824.23024427632515
 30
0.0
 40
28.09999999999993
 50
59.460644523409719
 51
120.5393554765904
  0
ARC
  5
126A
  8
0
 10
322.81141916292557
 20
845.4177405890099
 30
0.0
 40
3.5
 50
0.0
 51
59.460644523410231
  0
ARC
  5
126B
  8
0
 10
297.81141916292557
 20
845.4177405890099
 30
0.0
 40
3.5
 50
120.5393554765906
 51
180.0
  0
LINE
  5
126C
  8
0
 10
292.81141916292552
 20
814.83024427632506
 30
0.0
 11
294.31141916292557
 21
831.33024427632529
 31
0.0
  0
LINE
  5
126D
  8
0
 10
327.81141916292557
 20
814.83024427632506
 30
0.0
 11
326.31141916292557
 21
831.33024427632529
 31
0.0
  0
LINE
  5
126E
  8
0
 10
294.31141916292552
 20
845.4177405890099
 30
0.0
 11
294.31141916292557
 21
734.24274796363977
 31
0.0
  0
LINE
  5
126F
  8
0
 10
326.31141916292557
 20
845.4177405890099
 30
0.0
 11
326.31141916292557
 21
734.24274796363977
 31
0.0
  0
LINE
  5
1270
  8
0
 10
327.81141916292557
 20
764.83024427632483
 30
0.0
 11
326.31141916292557
 21
748.33024427632461
 31
0.0
  0
ARC
  5
1271
  8
0
 10
310.31141916292557
 20
755.43024427632474
 30
0.0
 40
28.09999999999993
 50
239.46064452340951
 51
300.53935547659017
  0
ARC
  5
1272
  8
0
 10
322.81141916292557
 20
734.24274796363977
 30
0.0
 40
3.5
 50
300.53935547658972
 51
0.0
  0
LINE
  5
1273
  8
0
 10
292.81141916292552
 20
764.83024427632483
 30
0.0
 11
294.31141916292557
 21
748.33024427632461
 31
0.0
  0
ARC
  5
1274
  8
0
 10
297.81141916292557
 20
734.24274796363977
 30
0.0
 40
3.5
 50
180.0
 51
239.4606445234094
  0
LINE
  5
1275
  8
0
 10
294.31141916292557
 20
748.33024427632461
 30
0.0
 11
294.31141916292557
 21
734.24274796363977
 31
0.0
  0
ARC
  5
1277
  8
0
 10
227.66790051872999
 20
669.35608271701904
 30
0.0
 40
28.09999999999993
 50
329.4606445234096
 51
30.539355476590309
  0
ARC
  5
1278
  8
0
 10
248.85539683141491
 20
656.85608271701904
 30
0.0
 40
3.5
 50
270.0
 51
329.46064452340931
  0
LINE
  5
1279
  8
0
 10
234.76790051873019
 20
653.35608271701904
 30
0.0
 11
248.85539683141491
 21
653.35608271701904
 31
0.0
  0
ARC
  5
127A
  8
0
 10
248.85539683141499
 20
681.85608271701904
 30
0.0
 40
3.5
 50
30.539355476589751
 51
90.0
  0
LINE
  5
127B
  8
0
 10
212.7679005187303
 20
687.35608271701926
 30
0.0
 11
234.76790051873019
 21
685.35608271701904
 31
0.0
  0
LINE
  5
127C
  8
0
 10
198.85607295837551
 20
685.35608271701892
 30
0.0
 11
248.85539683141491
 21
685.35608271701904
 31
0.0
  0
LINE
  5
127D
  8
0
 10
212.7679005187286
 20
651.35608271701904
 30
0.0
 11
234.76790051873019
 21
653.35608271701904
 31
0.0
  0
LINE
  5
127E
  8
0
 10
198.85607295837551
 20
653.35608271701915
 30
0.0
 11
248.85539683141491
 21
653.35608271701904
 31
0.0
  0
LINE
  5
12BF
  8
0
  6
CENTER
 10
-229.5923864445522
 20
848.93284184022593
 30
0.0
 11
-229.5923864445522
 21
872.68284184022559
 31
0.0
  0
LINE
  5
1301
  8
0
 10
416.91074916984411
 20
900.16587896378701
 30
0.0
 11
474.3107491698442
 21
900.16587896378701
 31
0.0
  0
LINE
  5
1302
  8
0
 10
426.63134149702319
 20
913.91587896378689
 30
0.0
 11
464.59015684266501
 21
913.91587896378689
 31
0.0
  0
LINE
  5
1303
  8
0
 10
415.61074916984398
 20
901.91587896378701
 30
0.0
 11
475.61074916984421
 21
901.91587896378701
 31
0.0
  0
LINE
  5
1304
  8
0
 10
461.61074916984421
 20
897.29202302339377
 30
0.0
 11
429.61074916984398
 21
897.29202302339365
 31
0.0
  0
LINE
  5
1305
  8
0
 10
462.11074916984433
 20
899.29202302339377
 30
0.0
 11
429.11074916984393
 21
899.29202302339399
 31
0.0
  0
LINE
  5
1306
  8
0
  6
CENTER
 10
478.0008201883287
 20
803.91587896378746
 30
0.0
 11
413.22067815135961
 21
803.91587896378701
 31
0.0
  0
LINE
  5
130E
  8
0
 10
414.910749169844
 20
898.16587896378712
 30
0.0
 11
414.910749169844
 21
822.5564122486353
 31
0.0
  0
LINE
  5
130F
  8
0
 10
428.11074916984398
 20
895.79202302339377
 30
0.0
 11
428.11074916984398
 21
769.91587896378712
 31
0.0
  0
LINE
  5
1310
  8
0
 10
426.11074916984398
 20
896.29202302339399
 30
0.0
 11
426.1107491698441
 21
790.18490361258023
 31
0.0
  0
LINE
  5
1312
  8
0
 10
421.00082018832882
 20
809.54504408838602
 30
0.0
 11
421.0008201883287
 21
798.28671383918845
 31
0.0
  0
ARC
  5
1313
  8
0
 10
430.76470907721779
 20
803.91587896378724
 30
0.0
 40
9.7638888888889532
 50
157.39644098484479
 51
202.60355901515521
  0
LINE
  5
1314
  8
0
 10
428.1107491698441
 20
790.18490361258023
 30
0.0
 11
426.1107491698441
 21
790.18490361258046
 31
0.0
  0
ARC
  5
1315
  8
0
 10
423.72304241055099
 20
798.28671383918834
 30
0.0
 40
2.7222222222221419
 50
136.42642140347641
 51
180.00000000000159
  0
ARC
  5
1316
  8
0
 10
423.72304241055099
 20
798.28671383918834
 30
0.0
 40
2.7222222222221419
 50
180.0
 51
223.57357859652581
  0
LINE
  5
1317
  8
0
 10
426.1107491698441
 20
796.410325464322
 30
0.0
 11
421.7508201883287
 21
796.410325464322
 31
0.0
  0
LINE
  5
1318
  8
0
 10
426.1107491698441
 20
800.16310221405445
 30
0.0
 11
421.7508201883287
 21
800.16310221405445
 31
0.0
  0
ARC
  5
1319
  8
0
 10
469.79462867275231
 20
838.51485148541576
 30
0.0
 40
57.63648205005925
 50
199.5728159093903
 51
213.1029594044457
  0
ARC
  5
131A
  8
0
 10
424.91074916984411
 20
822.55641224863552
 30
0.0
 40
10.0
 50
180.0000000000006
 51
199.5728159093901
  0
ARC
  5
131B
  8
0
 10
423.72304241055099
 20
809.54504408838625
 30
0.0
 40
2.7222222222221419
 50
179.99999999999829
 51
223.5735785965235
  0
ARC
  5
131C
  8
0
 10
423.72304241055099
 20
809.54504408838625
 30
0.0
 40
2.7222222222221419
 50
136.42642140347411
 51
180.0
  0
LINE
  5
131D
  8
0
 10
426.1107491698441
 20
807.6686557135198
 30
0.0
 11
421.75082018832882
 21
807.66865571351968
 31
0.0
  0
LINE
  5
131E
  8
0
 10
426.1107491698441
 20
811.42143246325236
 30
0.0
 11
421.75082018832882
 21
811.42143246325224
 31
0.0
  0
LINE
  5
1320
  8
0
 10
420.5848891907342
 20
910.44297614245556
 30
0.0
 11
415.6107491698441
 21
901.91587896378701
 31
0.0
  0
ARC
  5
1321
  8
0
 10
416.91074916984411
 20
898.16587896378712
 30
0.0
 40
2.0
 50
89.999999999999886
 51
180.0
  0
LINE
  5
1322
  8
0
 10
417.6107491698441
 20
900.16587896378701
 30
0.0
 11
417.6107491698441
 21
901.91587896378701
 31
0.0
  0
ARC
  5
1323
  8
0
 10
429.61074916984398
 20
895.79202302339377
 30
0.0
 40
1.5
 50
90.000000000000028
 51
180.0
  0
ARC
  5
1324
  8
0
 10
429.11074916984393
 20
896.29202302339399
 30
0.0
 40
3.0
 50
90.0
 51
180.0
  0
ARC
  5
1325
  8
0
 10
426.63134149702319
 20
906.91587896378689
 30
0.0
 40
7.0
 50
90.0
 51
149.7435628364706
  0
LINE
  5
1329
  8
0
  6
CENTER
 10
582.25059488451041
 20
723.91587896378712
 30
0.0
 11
582.25059488451041
 21
883.91587896378701
 31
0.0
  0
LINE
  5
132D
  8
0
 10
702.90309496735392
 20
872.00337527647218
 30
0.0
 11
702.90309496735381
 21
735.82838265110206
 31
0.0
  0
LINE
  5
132E
  8
0
 10
734.9030949673537
 20
872.00337527647218
 30
0.0
 11
734.9030949673537
 21
735.82838265110206
 31
0.0
  0
LINE
  5
132F
  8
0
 10
736.40309496735381
 20
769.91587896378576
 30
0.0
 11
734.9030949673537
 21
753.41587896378564
 31
0.0
  0
LINE
  5
1330
  8
0
 10
701.40309496735381
 20
769.91587896378576
 30
0.0
 11
702.90309496735381
 21
753.41587896378564
 31
0.0
  0
LINE
  5
1331
  8
0
  6
CENTER
 10
718.9030949673537
 20
918.91587896378701
 30
0.0
 11
718.9030949673537
 21
723.91587896378712
 31
0.0
  0
ARC
  5
1332
  8
0
 10
573.4334936084216
 20
732.76636759648045
 30
0.0
 40
47.369805614436309
 50
246.89333359359759
 51
270.1676368617853
  0
ARC
  5
1333
  8
0
 10
573.43349360842194
 20
597.02716187154203
 30
0.0
 40
47.369805614436281
 50
89.832363138214717
 51
113.1066664064023
  0
CIRCLE
  5
1334
  8
0
 10
537.25059488451041
 20
664.89676473401119
 30
0.0
 40
30.00000000000005
  0
LINE
  5
1335
  8
0
  6
CENTER
 10
501.25059488451052
 20
664.89676473401119
 30
0.0
 11
635.25059488451041
 21
664.89676473401119
 31
0.0
  0
CIRCLE
  5
1336
  8
0
 10
537.25059488451041
 20
664.89676473401119
 30
0.0
 40
12.5
  0
CIRCLE
  5
1337
  8
0
 10
537.25059488451041
 20
664.89676473401119
 30
0.0
 40
17.5
  0
CIRCLE
  5
1338
  8
0
 10
537.25059488451041
 20
664.89676473401119
 30
0.0
 40
21.0
  0
LINE
  5
1339
  8
0
  6
CENTER
 10
537.25059488451041
 20
697.89676473401119
 30
0.0
 11
537.25059488451041
 21
631.89676473401107
 31
0.0
  0
CIRCLE
  5
133A
  8
0
 10
537.25059488451041
 20
664.89676473401119
 30
0.0
 40
7.0
  0
CIRCLE
  5
133B
  8
0
 10
537.25059488451041
 20
664.89676473401119
 30
0.0
 40
5.5
  0
ARC
  5
133E
  8
0
 10
447.91726155117908
 20
664.89676473401107
 30
0.0
 40
140.83333333333121
 50
351.98387862436857
 51
8.0161213756313785
  0
LINE
  5
1341
  8
0
  6
CENTER
 10
582.25059488451052
 20
647.39676473401096
 30
0.0
 11
582.25059488451052
 21
637.28683575249556
 31
0.0
  0
LINE
  5
1342
  8
0
 10
573.57208870730199
 20
644.39676473401107
 30
0.0
 11
593.40418329407203
 21
644.39676473401107
 31
0.0
  0
ARC
  5
1344
  8
0
 10
576.62142975991162
 20
643.00905797471785
 30
0.0
 40
2.7222222222221419
 50
226.42642140347411
 51
270.0
  0
LINE
  5
1345
  8
0
 10
589.75614838397564
 20
644.28683575249624
 30
0.0
 11
574.7450413850454
 21
644.28683575249568
 31
0.0
  0
LINE
  5
1346
  8
0
 10
574.7450413850454
 20
644.28683575249568
 30
0.0
 11
574.7450413850454
 21
641.03683575249579
 31
0.0
  0
LINE
  5
1347
  8
0
 10
586.00337163424308
 20
644.28683575249568
 30
0.0
 11
586.00337163424308
 21
641.03683575249568
 31
0.0
  0
LINE
  5
1348
  8
0
 10
589.75614838397564
 20
644.28683575249568
 30
0.0
 11
589.75614838397564
 21
641.03683575249568
 31
0.0
  0
ARC
  5
1349
  8
0
 10
587.87976000910942
 20
643.00905797471785
 30
0.0
 40
2.7222222222221419
 50
226.42642140347641
 51
270.00000000000159
  0
ARC
  5
134A
  8
0
 10
587.87976000910942
 20
643.00905797471785
 30
0.0
 40
2.7222222222221419
 50
270.0
 51
313.57357859652581
  0
ARC
  5
134B
  8
0
 10
586.38426524198815
 20
645.39676473401107
 30
0.0
 40
1.0
 50
270.0
 51
351.98387862436857
  0
LINE
  5
134C
  8
0
 10
578.49781813477784
 20
644.28683575249568
 30
0.0
 11
578.49781813477784
 21
641.03683575249579
 31
0.0
  0
ARC
  5
134D
  8
0
 10
576.62142975991162
 20
643.00905797471785
 30
0.0
 40
2.7222222222221419
 50
269.99999999999829
 51
313.57357859652348
  0
LINE
  5
134E
  8
0
 10
576.62142975991139
 20
640.28683575249579
 30
0.0
 11
587.87976000910919
 21
640.28683575249556
 31
0.0
  0
ARC
  5
134F
  8
0
 10
582.25059488451052
 20
650.05072464138482
 30
0.0
 40
9.7638888888889532
 50
247.39644098484479
 51
292.60355901515521
  0
LINE
  5
1350
  8
0
 10
593.40418329407203
 20
644.39676473401107
 30
0.0
 11
593.40418329407203
 21
647.39676473401096
 31
0.0
  0
LINE
  5
1355
  8
0
 10
573.57208870730187
 20
685.39676473401119
 30
0.0
 11
593.40418329407203
 21
685.39676473401119
 31
0.0
  0
LINE
  5
1357
  8
0
  6
CENTER
 10
582.25059488451029
 20
695.28683575249568
 30
0.0
 11
582.25059488451052
 21
682.39676473401119
 31
0.0
  0
ARC
  5
1358
  8
0
 10
576.62142975991162
 20
686.78447149330441
 30
0.0
 40
2.7222222222221419
 50
90.0
 51
133.57357859652581
  0
LINE
  5
1359
  8
0
 10
589.75614838397564
 20
685.50669371552613
 30
0.0
 11
574.7450413850454
 21
685.50669371552669
 31
0.0
  0
LINE
  5
135A
  8
0
 10
574.7450413850454
 20
685.50669371552669
 30
0.0
 11
574.7450413850454
 21
688.75669371552647
 31
0.0
  0
LINE
  5
135B
  8
0
 10
586.00337163424308
 20
685.50669371552658
 30
0.0
 11
586.00337163424308
 21
688.75669371552658
 31
0.0
  0
LINE
  5
135C
  8
0
 10
589.75614838397564
 20
685.50669371552669
 30
0.0
 11
589.75614838397564
 21
688.75669371552658
 31
0.0
  0
LINE
  5
135D
  8
0
 10
585.65059488451016
 20
685.50669371552635
 30
0.0
 11
585.65059488451016
 21
685.39676473401119
 31
0.0
  0
ARC
  5
135E
  8
0
 10
586.38426524198815
 20
684.39676473401119
 30
0.0
 40
1.0
 50
8.0161213756313785
 51
90.0
  0
ARC
  5
135F
  8
0
 10
586.38426524198815
 20
684.39676473401119
 30
0.0
 40
1.0
 50
8.0161213756313785
 51
90.0
  0
ARC
  5
1360
  8
0
 10
587.87976000910942
 20
686.78447149330441
 30
0.0
 40
2.7222222222221419
 50
89.999999999998366
 51
133.5735785965235
  0
LINE
  5
1361
  8
0
 10
585.65059488451016
 20
692.28683575249545
 30
0.0
 11
585.65059488451016
 21
689.50669371552658
 31
0.0
  0
LINE
  5
1362
  8
0
 10
586.25059488451006
 20
691.68683575249554
 30
0.0
 11
586.25059488451029
 21
689.50669371552669
 31
0.0
  0
LINE
  5
1363
  8
0
 10
585.65059488451016
 20
692.28683575249545
 30
0.0
 11
586.25059488451006
 21
691.68683575249554
 31
0.0
  0
ARC
  5
1364
  8
0
 10
587.87976000910942
 20
686.78447149330441
 30
0.0
 40
2.7222222222221419
 50
46.42642140347413
 51
90.0
  0
LINE
  5
1365
  8
0
 10
578.49781813477784
 20
685.50669371552658
 30
0.0
 11
578.49781813477784
 21
688.75669371552647
 31
0.0
  0
LINE
  5
1366
  8
0
 10
578.85059488451066
 20
692.28683575249545
 30
0.0
 11
578.85059488451054
 21
689.50669371552658
 31
0.0
  0
LINE
  5
1367
  8
0
 10
578.25059488451041
 20
691.68683575249577
 30
0.0
 11
578.25059488451029
 21
689.50669371552669
 31
0.0
  0
LINE
  5
1368
  8
0
 10
578.85059488451043
 20
692.2868357524959
 30
0.0
 11
578.25059488451041
 21
691.68683575249577
 31
0.0
  0
ARC
  5
1369
  8
0
 10
576.62142975991162
 20
686.78447149330441
 30
0.0
 40
2.7222222222221419
 50
46.426421403476432
 51
90.000000000001606
  0
LINE
  5
136A
  8
0
 10
576.62142975991139
 20
689.50669371552635
 30
0.0
 11
587.87976000910919
 21
689.50669371552669
 31
0.0
  0
LINE
  5
136B
  8
0
 10
578.25059488451041
 20
691.68683575249577
 30
0.0
 11
586.25059488451006
 21
691.68683575249554
 31
0.0
  0
LINE
  5
136C
  8
0
 10
578.85059488451043
 20
692.2868357524959
 30
0.0
 11
585.65059488451016
 21
692.28683575249545
 31
0.0
  0
ARC
  5
136D
  8
0
 10
582.25059488451052
 20
679.74280482663755
 30
0.0
 40
9.7638888888889532
 50
67.396440984844816
 51
112.6035590151551
  0
LINE
  5
136E
  8
0
 10
593.40418329407203
 20
685.39676473401119
 30
0.0
 11
593.40418329407203
 21
682.39676473401141
 31
0.0
  0
ARC
  5
1370
  8
0
 10
718.9030949673537
 20
757.01587896378703
 30
0.0
 40
28.09999999999993
 50
239.46064452340951
 51
300.53935547659017
  0
ARC
  5
1371
  8
0
 10
706.4030949673537
 20
735.82838265110206
 30
0.0
 40
3.5
 50
180.0
 51
239.4606445234094
  0
LINE
  5
1372
  8
0
 10
702.90309496735381
 20
753.41587896378564
 30
0.0
 11
702.90309496735381
 21
735.82838265110206
 31
0.0
  0
ARC
  5
1373
  8
0
 10
731.4030949673537
 20
735.82838265110206
 30
0.0
 40
3.5
 50
300.53935547658972
 51
0.0
  0
ARC
  5
1374
  8
0
 10
699.9236872945329
 20
906.91587896378689
 30
0.0
 40
7.0
 50
90.0
 51
149.7435628364706
  0
LINE
  5
1375
  8
0
 10
688.9030949673537
 20
901.91587896378701
 30
0.0
 11
748.90309496735381
 21
901.91587896378701
 31
0.0
  0
LINE
  5
1376
  8
0
 10
690.20309496735365
 20
900.16587896378701
 30
0.0
 11
747.60309496735385
 21
900.16587896378701
 31
0.0
  0
ARC
  5
1377
  8
0
 10
746.90489771493515
 20
844.0587673600221
 30
0.0
 40
58.708301063794927
 50
124.87759273495151
 51
179.1475040975121
  0
ARC
  5
1378
  8
0
 10
752.34317068409905
 20
843.27701405324399
 30
0.0
 40
62.274028732845913
 50
129.5940175930761
 51
183.75870529830931
  0
LINE
  5
1379
  8
0
 10
699.40309496735381
 20
796.410325464322
 30
0.0
 11
695.0431659858383
 21
796.410325464322
 31
0.0
  0
LINE
  5
137A
  8
0
 10
699.40309496735381
 20
800.16310221405445
 30
0.0
 11
695.0431659858383
 21
800.16310221405445
 31
0.0
  0
ARC
  5
137B
  8
0
 10
743.08697447026191
 20
838.51485148541576
 30
0.0
 40
57.63648205005925
 50
199.5728159093903
 51
220.71877235022359
  0
ARC
  5
137C
  8
0
 10
743.08697447026191
 20
838.51485148541576
 30
0.0
 40
55.636482050059243
 50
200.00141657396281
 51
221.4772760756577
  0
LINE
  5
137D
  8
0
  6
CENTER
 10
751.2931659858383
 20
803.91587896378746
 30
0.0
 11
686.5130239488692
 21
803.91587896378701
 31
0.0
  0
ARC
  5
137E
  8
0
 10
556.23000255733132
 20
906.91587896378712
 30
0.0
 40
7.0
 50
30.25643716352938
 51
90.0
  0
LINE
  5
137F
  8
0
 10
508.8729120107372
 20
900.16587896378724
 30
0.0
 11
565.25059488451052
 21
900.16587896378701
 31
0.0
  0
LINE
  5
1380
  8
0
 10
507.25059488451029
 20
901.91587896378701
 30
0.0
 11
567.25059488451052
 21
901.91587896378724
 31
0.0
  0
ARC
  5
1382
  8
0
 10
685.51662498261828
 20
939.18521412889845
 30
0.0
 40
183.6805692578844
 50
193.9463136866633
 51
234.07221814006141
  0
LINE
  5
1383
  8
0
  6
CENTER
 10
502.25059488451041
 20
803.91587896378724
 30
0.0
 11
662.25059488451041
 21
803.91587896378724
 31
0.0
  0
LINE
  5
1384
  8
0
 10
557.90418329407203
 20
816.78143484996622
 30
0.0
 11
557.90418329407203
 21
895.28602068075759
 31
0.0
  0
LINE
  5
1385
  8
0
 10
476.31074916984409
 20
898.16587896378712
 30
0.0
 11
476.31074916984443
 21
822.55641224863587
 31
0.0
  0
LINE
  5
1386
  8
0
 10
463.11074916984421
 20
895.79202302339377
 30
0.0
 11
463.11074916984421
 21
778.91587896378712
 31
0.0
  0
LINE
  5
1387
  8
0
 10
465.11074916984433
 20
896.29202302339399
 30
0.0
 11
465.11074916984421
 21
790.18490361258023
 31
0.0
  0
LINE
  5
1389
  8
0
 10
470.22067815135938
 20
809.54504408838602
 30
0.0
 11
470.22067815135972
 21
798.28671383918845
 31
0.0
  0
LINE
  5
138A
  8
0
 10
472.40082018832891
 20
807.91587896378724
 30
0.0
 11
472.40082018832851
 21
799.91587896378735
 31
0.0
  0
ARC
  5
138B
  8
0
 10
460.45678926247058
 20
803.91587896378724
 30
0.0
 40
9.7638888888889532
 50
337.39644098484479
 51
22.60355901515517
  0
LINE
  5
138C
  8
0
 10
473.00082018832887
 20
807.31587896378721
 30
0.0
 11
473.00082018832848
 21
800.51587896378737
 31
0.0
  0
ARC
  5
138D
  8
0
 10
467.49845592913738
 20
798.28671383918834
 30
0.0
 40
2.7222222222221419
 50
359.99999999999829
 51
43.573578596523539
  0
ARC
  5
138E
  8
0
 10
467.49845592913738
 20
798.28671383918834
 30
0.0
 40
2.7222222222221419
 50
316.42642140347402
 51
0.0
  0
LINE
  5
138F
  8
0
 10
473.00082018832848
 20
800.51587896378737
 30
0.0
 11
472.40082018832851
 21
799.91587896378735
 31
0.0
  0
LINE
  5
1390
  8
0
 10
472.40082018832851
 20
799.91587896378735
 30
0.0
 11
470.22067815135972
 21
799.91587896378724
 31
0.0
  0
LINE
  5
1391
  8
0
 10
473.00082018832848
 20
800.51587896378737
 30
0.0
 11
470.22067815135961
 21
800.51587896378737
 31
0.0
  0
LINE
  5
1392
  8
0
 10
463.11074916984421
 20
790.18490361258023
 30
0.0
 11
465.11074916984421
 21
790.18490361258046
 31
0.0
  0
LINE
  5
1393
  8
0
 10
465.11074916984421
 20
796.410325464322
 30
0.0
 11
469.47067815135961
 21
796.410325464322
 31
0.0
  0
LINE
  5
1394
  8
0
 10
465.11074916984421
 20
800.16310221405445
 30
0.0
 11
469.47067815135961
 21
800.16310221405445
 31
0.0
  0
ARC
  5
1395
  8
0
 10
466.31074916984431
 20
822.55641224863587
 30
0.0
 40
10.0
 50
340.4271840906099
 51
0.0
  0
ARC
  5
1396
  8
0
 10
421.426869666936
 20
838.51485148541599
 30
0.0
 40
57.636482050059328
 50
327.84145925419239
 51
340.4271840906099
  0
ARC
  5
1397
  8
0
 10
467.49845592913738
 20
809.54504408838625
 30
0.0
 40
2.7222222222221419
 50
316.42642140347641
 51
0.000000000001603
  0
LINE
  5
1398
  8
0
 10
473.00082018832887
 20
807.31587896378721
 30
0.0
 11
472.40082018832891
 21
807.91587896378724
 31
0.0
  0
LINE
  5
1399
  8
0
 10
473.00082018832848
 20
807.31587896378699
 30
0.0
 11
470.22067815135961
 21
807.31587896378699
 31
0.0
  0
LINE
  5
139A
  8
0
 10
472.40082018832891
 20
807.91587896378724
 30
0.0
 11
470.22067815135972
 21
807.91587896378724
 31
0.0
  0
ARC
  5
139B
  8
0
 10
467.49845592913738
 20
809.54504408838625
 30
0.0
 40
2.7222222222221419
 50
0.0
 51
43.573578596525849
  0
LINE
  5
139C
  8
0
 10
465.11074916984421
 20
807.6686557135198
 30
0.0
 11
469.47067815135961
 21
807.66865571351968
 31
0.0
  0
LINE
  5
139D
  8
0
 10
465.11074916984421
 20
811.42143246325236
 30
0.0
 11
469.47067815135961
 21
811.42143246325224
 31
0.0
  0
LINE
  5
139F
  8
0
 10
470.63660914895399
 20
910.44297614245556
 30
0.0
 11
475.61074916984421
 21
901.91587896378701
 31
0.0
  0
ARC
  5
13A0
  8
0
 10
462.11074916984433
 20
896.29202302339399
 30
0.0
 40
3.0
 50
359.99999999999989
 51
90.0
  0
ARC
  5
13A1
  8
0
 10
461.61074916984421
 20
895.79202302339377
 30
0.0
 40
1.5
 50
359.99999999999989
 51
89.999999999999986
  0
ARC
  5
13A2
  8
0
 10
474.3107491698442
 20
898.16587896378712
 30
0.0
 40
2.0
 50
0.000000000000007
 51
90.000000000000114
  0
LINE
  5
13A3
  8
0
 10
473.61074916984421
 20
900.16587896378701
 30
0.0
 11
473.6107491698441
 21
901.91587896378701
 31
0.0
  0
ARC
  5
13A4
  8
0
 10
464.59015684266501
 20
906.91587896378689
 30
0.0
 40
7.0
 50
30.25643716352938
 51
90.0
  0
LINE
  5
13A5
  8
0
 10
518.27118721168949
 20
913.91587896378712
 30
0.0
 11
556.23000255733132
 21
913.91587896378712
 31
0.0
  0
LINE
  5
13A6
  8
0
 10
512.22473490540051
 20
910.44297614245579
 30
0.0
 11
507.25059488451041
 21
901.91587896378724
 31
0.0
  0
LINE
  5
13A7
  8
0
 10
507.25059488451029
 20
894.91587896378724
 30
0.0
 11
507.37369909483971
 21
898.71446530760625
 31
0.0
  0
LINE
  5
13A8
  8
0
 10
509.25059488451018
 20
900.16587896378701
 30
0.0
 11
509.25059488451029
 21
901.91587896378724
 31
0.0
  0
ARC
  5
13A9
  8
0
 10
508.8729120107372
 20
898.66587896378712
 30
0.0
 40
1.5
 50
90.0
 51
178.1438136990557
  0
ARC
  5
13AA
  8
0
 10
518.27118721168949
 20
906.91587896378712
 30
0.0
 40
7.0
 50
90.0
 51
149.7435628364706
  0
LINE
  5
13AB
  8
0
  6
CENTER
 10
537.25059488451041
 20
895.16587896378735
 30
0.0
 11
537.25059488451041
 21
916.91587896378724
 31
0.0
  0
LINE
  5
13AC
  8
0
 10
688.20309496735365
 20
898.16587896378712
 30
0.0
 11
688.20309496735365
 21
822.5564122486353
 31
0.0
  0
LINE
  5
13AD
  8
0
 10
690.20309496735365
 20
839.19465633539653
 30
0.0
 11
690.20309496735365
 21
822.90519509312458
 31
0.0
  0
LINE
  5
13AE
  8
0
 10
564.40418329407203
 20
810.47280732081458
 30
0.0
 11
564.40418329407203
 21
895.28602068075759
 31
0.0
  0
ARC
  5
13AF
  8
0
 10
62.582631269746678
 20
816.27011859384891
 30
0.0
 40
530.82246016878116
 50
358.40575308825879
 51
8.7333277046366256
  0
POLYLINE
  5
13B0
  8
0
 66
     1
 10
0.0
 20
0.0
 30
0.0
 70
     1
  0
VERTEX
  5
17D9
  8
0
 10
578.49781813477784
 20
810.41587896378712
 30
0.0
  0
VERTEX
  5
17DA
  8
0
 10
574.74504138504528
 20
803.91587896378724
 30
0.0
  0
VERTEX
  5
17DB
  8
0
 10
578.49781813477784
 20
797.41587896378712
 30
0.0
  0
VERTEX
  5
17DC
  8
0
 10
586.00337163424285
 20
797.41587896378712
 30
0.0
  0
VERTEX
  5
17DD
  8
0
 10
589.75614838397553
 20
803.91587896378724
 30
0.0
  0
VERTEX
  5
17DE
  8
0
 10
586.00337163424285
 20
810.41587896378712
 30
0.0
  0
SEQEND
  5
17DF
  8
0
  0
CIRCLE
  5
13B1
  8
0
 10
582.25059488451041
 20
803.91587896378724
 30
0.0
 40
6.5
  0
ARC
  5
13B2
  8
0
 10
580.3441274907558
 20
803.18490361258023
 30
0.0
 40
13.0
 50
258.44125227686152
 51
349.22731283228251
  0
ARC
  5
13B3
  8
0
 10
588.20313919935074
 20
801.68959930770916
 30
0.0
 40
5.0
 50
349.22731283228251
 51
357.84936409849018
  0
LINE
  5
13B4
  8
0
 10
694.29316598583853
 20
807.83703675404684
 30
0.0
 11
694.29316598583819
 21
798.28671383918845
 31
0.0
  0
ARC
  5
13B5
  8
0
 10
704.05705487472744
 20
803.91587896378724
 30
0.0
 40
9.7638888888889532
 50
161.3578952510922
 51
202.60355901515521
  0
ARC
  5
13B6
  8
0
 10
697.01538820806047
 20
798.28671383918834
 30
0.0
 40
2.7222222222221419
 50
136.42642140347641
 51
180.00000000000159
  0
ARC
  5
13B7
  8
0
 10
697.01538820806047
 20
798.28671383918834
 30
0.0
 40
2.7222222222221419
 50
180.0
 51
223.57357859652581
  0
ARC
  5
13B8
  8
0
 10
698.20309496735365
 20
822.55641224863552
 30
0.0
 40
10.0
 50
180.0000000000006
 51
199.57281590939019
  0
ARC
  5
13B9
  8
0
 10
700.20309496735365
 20
822.90519509312458
 30
0.0
 40
10.0
 50
180.0
 51
200.00141657396281
  0
LINE
  5
13BA
  8
0
 10
562.2764548636203
 20
910.44297614245579
 30
0.0
 11
567.25059488451029
 21
901.91587896378724
 31
0.0
  0
LINE
  5
13BB
  8
0
 10
565.25059488451052
 20
900.16587896378701
 30
0.0
 11
588.75059488451018
 21
899.29202302339399
 31
0.0
  0
LINE
  5
13BC
  8
0
 10
565.25059488451052
 20
900.16587896378701
 30
0.0
 11
565.25059488451041
 21
901.91587896378724
 31
0.0
  0
LINE
  5
13BD
  8
0
 10
587.25059488451029
 20
896.86796084768741
 30
0.0
 11
588.75059488451018
 21
896.78851939856065
 31
0.0
  0
LINE
  5
13BE
  8
0
 10
587.25059488451029
 20
899.37146447252076
 30
0.0
 11
587.25059488451029
 21
896.86796084768741
 31
0.0
  0
LINE
  5
13BF
  8
0
 10
588.75059488451018
 20
899.29202302339377
 30
0.0
 11
588.75059488451029
 21
896.78851939856065
 31
0.0
  0
LINE
  5
13C0
  8
0
 10
693.87723498824391
 20
910.44297614245556
 30
0.0
 11
688.90309496735381
 21
901.91587896378701
 31
0.0
  0
ARC
  5
13C1
  8
0
 10
690.20309496735365
 20
898.16587896378712
 30
0.0
 40
2.0
 50
89.999999999999886
 51
180.0
  0
LINE
  5
13C2
  8
0
 10
690.90309496735381
 20
900.16587896378701
 30
0.0
 11
690.90309496735381
 21
901.91587896378701
 31
0.0
  0
LINE
  5
13C3
  8
0
 10
749.60309496735385
 20
898.16587896378712
 30
0.0
 11
749.60309496735385
 21
822.5564122486353
 31
0.0
  0
LINE
  5
13C4
  8
0
 10
747.60309496735385
 20
839.19465633539664
 30
0.0
 11
747.60309496735385
 21
821.23152357588287
 31
0.0
  0
LINE
  5
13C5
  8
0
 10
701.40309496735381
 20
837.91587896378837
 30
0.0
 11
702.90309496735381
 21
854.4158789637886
 31
0.0
  0
LINE
  5
13C6
  8
0
 10
736.40309496735381
 20
837.91587896378837
 30
0.0
 11
734.9030949673537
 21
854.4158789637886
 31
0.0
  0
LINE
  5
13C7
  8
0
 10
701.4030949673537
 20
769.91587896378621
 30
0.0
 11
701.4030949673537
 21
879.09828344157779
 31
0.0
  0
LINE
  5
13C8
  8
0
 10
736.40309496735392
 20
769.91587896378621
 30
0.0
 11
736.40309496735392
 21
879.09828344157756
 31
0.0
  0
LINE
  5
13C9
  8
0
 10
745.69316598583839
 20
807.91587896378724
 30
0.0
 11
745.69316598583816
 21
799.91587896378735
 31
0.0
  0
LINE
  5
13CA
  8
0
 10
743.51302394886909
 20
807.91587896378724
 30
0.0
 11
743.5130239488692
 21
798.28671383918845
 31
0.0
  0
ARC
  5
13CB
  8
0
 10
694.71921546444548
 20
838.51485148541599
 30
0.0
 40
57.636482050059328
 50
319.28122764977633
 51
340.4271840906099
  0
ARC
  5
13CC
  8
0
 10
733.74913505998006
 20
803.91587896378724
 30
0.0
 40
9.7638888888889532
 50
337.39644098484479
 51
18.642104748907741
  0
LINE
  5
13CD
  8
0
 10
746.29316598583853
 20
807.31587896378721
 30
0.0
 11
746.29316598583819
 21
800.51587896378737
 31
0.0
  0
ARC
  5
13CE
  8
0
 10
694.71921546444548
 20
838.51485148541576
 30
0.0
 40
55.636482050059243
 50
318.52272392434219
 51
341.90175049065942
  0
LINE
  5
13CF
  8
0
 10
699.40309496735381
 20
800.91587896378701
 30
0.0
 11
699.40309496735381
 21
790.18490361258023
 31
0.0
  0
LINE
  5
13D0
  8
0
 10
701.4030949673537
 20
790.18490361258023
 30
0.0
 11
699.40309496735381
 21
790.18490361258046
 31
0.0
  0
LINE
  5
13D1
  8
0
 10
736.40309496735392
 20
790.18490361258023
 30
0.0
 11
738.40309496735381
 21
790.18490361258046
 31
0.0
  0
LINE
  5
13D2
  8
0
 10
746.29316598583819
 20
800.51587896378737
 30
0.0
 11
745.69316598583816
 21
799.91587896378735
 31
0.0
  0
LINE
  5
13D3
  8
0
 10
738.40309496735381
 20
800.91587896378701
 30
0.0
 11
738.40309496735381
 21
790.18490361258023
 31
0.0
  0
ARC
  5
13D4
  8
0
 10
740.79080172664703
 20
798.28671383918834
 30
0.0
 40
2.7222222222221419
 50
359.99999999999829
 51
43.573578596523539
  0
ARC
  5
13D5
  8
0
 10
740.79080172664703
 20
798.28671383918834
 30
0.0
 40
2.7222222222221419
 50
316.42642140347402
 51
0.0
  0
LINE
  5
13D6
  8
0
 10
738.40309496735381
 20
796.410325464322
 30
0.0
 11
742.76302394886932
 21
796.410325464322
 31
0.0
  0
LINE
  5
13D7
  8
0
 10
738.40309496735381
 20
800.16310221405445
 30
0.0
 11
742.76302394886932
 21
800.16310221405445
 31
0.0
  0
LINE
  5
13D8
  8
0
 10
746.29316598583819
 20
800.51587896378737
 30
0.0
 11
743.5130239488692
 21
800.51587896378737
 31
0.0
  0
LINE
  5
13D9
  8
0
 10
745.69316598583816
 20
799.91587896378735
 30
0.0
 11
743.5130239488692
 21
799.91587896378724
 31
0.0
  0
ARC
  5
13DA
  8
0
 10
739.60309496735385
 20
822.55641224863552
 30
0.0
 40
10.0
 50
340.42718409060973
 51
359.99999999999932
  0
ARC
  5
13DB
  8
0
 10
739.60309496735385
 20
822.55641224863587
 30
0.0
 40
10.0
 50
340.42718409061001
 51
359.99999999999932
  0
LINE
  5
13DC
  8
0
 10
746.29316598583853
 20
807.31587896378721
 30
0.0
 11
745.69316598583839
 21
807.91587896378724
 31
0.0
  0
LINE
  5
13DD
  8
0
 10
746.29316598583819
 20
807.31587896378699
 30
0.0
 11
743.5130239488692
 21
807.31587896378699
 31
0.0
  0
LINE
  5
13DE
  8
0
 10
745.69316598583839
 20
807.91587896378724
 30
0.0
 11
743.5130239488692
 21
807.91587896378724
 31
0.0
  0
ARC
  5
13DF
  8
0
 10
690.90129221977247
 20
844.0587673600221
 30
0.0
 40
58.708301063794821
 50
0.8524959024888321
 51
55.122407265048558
  0
ARC
  5
13E0
  8
0
 10
685.46301925060914
 20
843.27701405324444
 30
0.0
 40
62.274028732845267
 50
356.24129470169049
 51
50.405982406924252
  0
LINE
  5
13E4
  8
0
 10
699.9236872945329
 20
913.91587896378689
 30
0.0
 11
737.88250264017472
 21
913.91587896378689
 31
0.0
  0
LINE
  5
13E7
  8
0
 10
743.92895494646359
 20
910.44297614245556
 30
0.0
 11
748.90309496735381
 21
901.91587896378701
 31
0.0
  0
ARC
  5
13E8
  8
0
 10
747.60309496735385
 20
898.16587896378712
 30
0.0
 40
2.0
 50
0.000000000000007
 51
90.000000000000114
  0
LINE
  5
13E9
  8
0
 10
746.90309496735381
 20
900.16587896378701
 30
0.0
 11
746.90309496735381
 21
901.91587896378701
 31
0.0
  0
ARC
  5
13EA
  8
0
 10
737.88250264017472
 20
906.91587896378689
 30
0.0
 40
7.0
 50
30.25643716352938
 51
90.0
  0
ARC
  5
13EB
  8
0
 10
582.25059488451041
 20
803.91587896378724
 30
0.0
 40
75.0
 50
140.73756262916709
 51
84.269015693383096
  0
ARC
  5
13ED
  8
0
 10
582.25059488451041
 20
803.91587896378724
 30
0.0
 40
69.0
 50
142.68026142151271
 51
83.195416044661584
  0
ARC
  5
146A
  8
0
 10
582.25059488451041
 20
803.91587896378724
 30
0.0
 40
57.0
 50
147.15847152703401
 51
80.570943680491922
  0
ARC
  5
146B
  8
0
 10
582.25059488451041
 20
803.91587896378724
 30
0.0
 40
54.0
 50
148.452515132466
 51
79.775720429183067
  0
ARC
  5
146C
  8
0
 10
582.25059488451041
 20
803.91587896378724
 30
0.0
 40
34.0
 50
160.87509334354829
 51
71.511853397955477
  0
ARC
  5
1530
  8
0
 10
718.9030949673537
 20
883.45777380309255
 30
0.0
 40
10.0
 50
51.31873816324746
 51
128.68126183675301
  0
ARC
  5
1531
  8
0
 10
718.9030949673537
 20
883.91587896378701
 30
0.0
 40
10.0
 50
56.157790564142651
 51
123.8422094358573
  0
ARC
  5
1534
  8
0
 10
718.9030949673537
 20
850.81587896378744
 30
0.0
 40
28.09999999999993
 50
59.460644523409719
 51
120.5393554765904
  0
ARC
  5
1535
  8
0
 10
706.4030949673537
 20
872.00337527647218
 30
0.0
 40
3.5
 50
120.5393554765906
 51
180.0
  0
ARC
  5
1536
  8
0
 10
731.4030949673537
 20
872.00337527647218
 30
0.0
 40
3.5
 50
0.0
 51
59.460644523410231
  0
ARC
  5
1537
  8
0
 10
433.11074916984421
 20
872.00337527647218
 30
0.0
 40
3.5
 50
120.5393554765906
 51
180.0
  0
ARC
  5
1538
  8
0
 10
458.11074916984421
 20
872.00337527647218
 30
0.0
 40
3.5
 50
0.0
 51
59.460644523410231
  0
ARC
  5
1539
  8
0
 10
445.61074916984421
 20
850.81587896378733
 30
0.0
 40
28.09999999999993
 50
59.460644523409719
 51
120.5393554765904
  0
LINE
  5
153A
  8
0
 10
461.61074916984421
 20
872.00337527647218
 30
0.0
 11
461.61074916984421
 21
735.82838265110195
 31
0.0
  0
LINE
  5
153B
  8
0
 10
463.11074916984421
 20
769.91587896378564
 30
0.0
 11
461.61074916984421
 21
753.41587896378553
 31
0.0
  0
ARC
  5
153C
  8
0
 10
445.61074916984421
 20
757.01587896378692
 30
0.0
 40
28.09999999999993
 50
239.46064452340951
 51
300.53935547659017
  0
ARC
  5
153D
  8
0
 10
458.11074916984421
 20
735.82838265110195
 30
0.0
 40
3.5
 50
300.53935547658972
 51
0.0
  0
LINE
  5
153E
  8
0
 10
463.11074916984421
 20
769.9158789637861
 30
0.0
 11
463.11074916984421
 21
879.09828344157745
 31
0.0
  0
LINE
  5
153F
  8
0
 10
429.61074916984421
 20
872.00337527647218
 30
0.0
 11
429.61074916984421
 21
735.82838265110195
 31
0.0
  0
LINE
  5
1540
  8
0
 10
428.11074916984421
 20
769.91587896378564
 30
0.0
 11
429.61074916984421
 21
753.41587896378553
 31
0.0
  0
ARC
  5
1542
  8
0
 10
433.11074916984421
 20
735.82838265110195
 30
0.0
 40
3.5
 50
180.0
 51
239.4606445234094
  0
LINE
  5
1543
  8
0
 10
428.11074916984421
 20
837.91587896378815
 30
0.0
 11
429.61074916984421
 21
854.41587896378849
 31
0.0
  0
LINE
  5
1544
  8
0
 10
463.11074916984421
 20
837.91587896378815
 30
0.0
 11
461.61074916984421
 21
854.41587896378849
 31
0.0
  0
LINE
  5
15C5
  8
0
 10
587.83876732415592
 20
680.89676473401107
 30
0.0
 11
650.33809119719535
 21
680.89676473401119
 31
0.0
  0
LINE
  5
15C6
  8
0
 10
587.83876732415592
 20
648.89676473401119
 30
0.0
 11
650.33809119719535
 21
648.89676473401107
 31
0.0
  0
LINE
  5
15C7
  8
0
 10
616.25059488451166
 20
647.39676473401119
 30
0.0
 11
632.75059488451188
 21
648.89676473401107
 31
0.0
  0
LINE
  5
15C8
  8
0
 10
616.25059488451166
 20
682.39676473401107
 30
0.0
 11
632.75059488451188
 21
680.89676473401119
 31
0.0
  0
ARC
  5
15CA
  8
0
 10
629.1505948845105
 20
664.89676473401119
 30
0.0
 40
28.09999999999993
 50
329.4606445234096
 51
30.539355476590309
  0
ARC
  5
15CB
  8
0
 10
650.33809119719535
 20
652.39676473401119
 30
0.0
 40
3.5
 50
270.0
 51
329.46064452340931
  0
ARC
  5
15CC
  8
0
 10
650.33809119719535
 20
677.39676473401119
 30
0.0
 40
3.5
 50
30.539355476589751
 51
90.0
  0
LINE
  5
15CD
  8
0
 10
587.65908699287422
 20
647.39676473401084
 30
0.0
 11
616.25059488451029
 21
647.39676473401084
 31
0.0
  0
LINE
  5
15CE
  8
0
 10
616.2505948845112
 20
682.39676473401119
 30
0.0
 11
587.65908699287422
 21
682.39676473401119
 31
0.0
  0
LINE
  5
15D2
  8
0
  6
CENTER
 10
445.61074916984421
 20
918.91587896378678
 30
0.0
 11
445.61074916984421
 21
723.91587896378701
 31
0.0
  0
POLYLINE
  5
15D3
  8
0
 66
     1
 10
0.0
 20
0.0
 30
0.0
 70
     1
  0
VERTEX
  5
17E0
  8
0
 10
388.16803199693089
 20
955.63849255676143
 30
0.0
  0
VERTEX
  5
17E1
  8
0
 10
775.04848525088801
 20
955.63849255676143
 30
0.0
  0
VERTEX
  5
17E2
  8
0
 10
775.04848525088801
 20
626.21604376252685
 30
0.0
  0
VERTEX
  5
17E3
  8
0
 10
388.16803199693089
 20
626.21604376252685
 30
0.0
  0
SEQEND
  5
17E4
  8
0
  0
LINE
  5
1658
  8
0
 10
-462.47605924520178
 20
813.18880182208864
 30
0.0
 11
-420.01959325833673
 21
813.18880182208864
 31
0.0
  0
ARC
  5
16E2
  8
0
 10
-647.65801814949691
 20
780.19551505528068
 30
0.0
 40
36.432710538626857
 50
34.934763387463519
 51
43.413879169544963
  0
ARC
  5
16E3
  8
0
 10
-649.787410716453
 20
777.21135269878414
 30
0.0
 40
40.400222577001308
 50
37.626913311794198
 51
46.866469546498443
  0
ARC
  5
16E4
  8
0
 10
-632.46032143142736
 20
794.94483262326014
 30
0.0
 40
15.258686230493369
 50
42.402978890430511
 51
87.483342681211212
  0
ARC
  5
16E5
  8
0
 10
-613.79321939150748
 20
777.21135269878391
 30
0.0
 40
40.400222577001443
 50
133.13353045350129
 51
142.373086688206
  0
ARC
  5
16E6
  8
0
 10
-631.79031505398029
 20
795.18880182208852
 30
0.0
 40
15.0
 50
50.085903885862443
 51
129.91409611413749
  0
ARC
  5
16E7
  8
0
 10
-631.12030867653334
 20
794.94483262326014
 30
0.0
 40
15.258686230493369
 50
92.516657318788802
 51
137.5970211095694
  0
ARC
  5
16E8
  8
0
 10
-615.9226119584639
 20
780.19551505528068
 30
0.0
 40
36.432710538626857
 50
136.586120830455
 51
145.06523661253669
  0
ARC
  5
16E9
  8
0
 10
-326.77909071615881
 20
820.45380628172154
 30
0.0
 40
29.593909663215861
 50
56.367993482212093
 51
92.148014160218636
  0
ARC
  5
16EA
  8
0
 10
-330.03866659228191
 20
819.2256459085047
 30
0.0
 40
30.876246977947769
 50
50.474373199455762
 51
86.006428142666536
  0
ARC
  5
16EB
  8
0
 10
-325.7379416709868
 20
819.2256459085047
 30
0.0
 40
30.876246977947851
 50
93.993571857333478
 51
129.52562680054081
  0
ARC
  5
16EC
  8
0
 10
-328.99751754710991
 20
820.45380628172154
 30
0.0
 40
29.59390966321584
 50
87.851985839781364
 51
123.6320065177847
  0
ARC
  5
172B
  8
0
 10
43.897619358226848
 20
827.71547619467958
 30
0.0
 40
41.85559758161159
 50
43.073979028668909
 51
69.245076202023824
  0
ARC
  5
172C
  8
0
 10
48.293278556862269
 20
829.0212888665086
 30
0.0
 40
39.420986273301018
 50
48.38818530171509
 51
75.423490777370773
  0
ARC
  5
172D
  8
0
 10
56.971982831648411
 20
862.17411679961299
 30
0.0
 40
5.0
 50
69.414016925310548
 51
110.5859830746906
  0
ARC
  5
172E
  8
0
 10
70.046346305070472
 20
827.71547619467958
 30
0.0
 40
41.855597581611711
 50
110.754923797977
 51
136.92602097133121
  0
ARC
  5
172F
  8
0
 10
65.65068710643493
 20
829.0212888665086
 30
0.0
 40
39.420986273301089
 50
104.5765092226293
 51
131.61181469828489
  0
ARC
  5
1730
  8
0
 10
412.17067345309948
 20
843.27701405324444
 30
0.0
 40
62.274028732845267
 50
35.115043287716951
 51
50.405982406924252
  0
ARC
  5
1731
  8
0
 10
417.60894642226282
 20
844.0587673600221
 30
0.0
 40
58.708301063794821
 50
39.190535955349858
 51
55.122407265048558
  0
ARC
  5
1732
  8
0
 10
445.61074916984421
 20
883.91587896378701
 30
0.0
 40
10.0
 50
56.157790564142651
 51
123.8422094358573
  0
ARC
  5
1733
  8
0
 10
445.61074916984421
 20
883.45777380309255
 30
0.0
 40
10.0
 50
51.31873816324746
 51
128.68126183675301
  0
ARC
  5
1734
  8
0
 10
479.0508248865894
 20
843.27701405324399
 30
0.0
 40
62.274028732845913
 50
129.5940175930761
 51
144.88495671228321
  0
ARC
  5
1735
  8
0
 10
473.61255191742561
 20
844.0587673600221
 30
0.0
 40
58.708301063794927
 50
124.87759273495151
 51
140.80946404465021
  0
VIEWPORT
  5
8D
 67
     1
  8
0
 10
143.47825622558591
 20
99.980751991271987
 30
0.0
 40
339.12752973873143
 41
222.1965796813964
 68
     1
 69
     1
1001
ACAD
1000
MVIEW
1002
{
1070
    16
1010
0.0
1020
0.0
1030
0.0
1010
0.0
1020
0.0
1030
1.0
1040
0.0
1040
222.1965796813964
1040
143.47825622558591
1040
99.980751991271987
1040
50.0
1040
0.0
1040
0.0
1070
     0
1070
   100
1070
     1
1070
     1
1070
     0
1070
     0
1070
     0
1070
     0
1040
0.0
1040
0.0
1040
0.0
1040
10.0
1040
10.0
1040
10.0
1040
10.0
1070
     0
1002
{
1002
}
1002
}
  0
VIEWPORT
  5
8F
 67
     1
  8
0
 10
143.37242841720581
 20
99.874916553497314
 30
0.0
 40
229.3958854675293
 41
159.79986648559569
 68
     2
 69
     2
1001
ACAD
1000
MVIEW
1002
{
1070
    16
1010
0.0
1020
0.0
1030
0.0
1010
0.0
1020
0.0
1030
1.0
1040
0.0
1040
300.10452961672468
1040
210.0
1040
148.5
1040
50.0
1040
0.0
1040
0.0
1070
     0
1070
   100
1070
     1
1070
     2
1070
     0
1070
     0
1070
     0
1070
     0
1040
0.0
1040
0.0
1040
0.0
1040
10.0
1040
10.0
1040
10.0
1040
10.0
1070
     0
1002
{
1002
}
1002
}
  0
ENDSEC
  0
EOF
