  0
SECTION
  2
HEADER
  9
$ACADVER
  1
AC1009
  9
$INSBASE
 10
0.0
 20
0.0
 30
0.0
  9
$EXTMIN
 10
-698.84872922934164
 20
541.76293317074214
 30
-0.0000000000112498
  9
$EXTMAX
 10
947.49861502104534
 20
971.89004481369363
 30
0.0000000000002956
  9
$LIMMIN
 10
0.0
 20
0.0
  9
$LIMMAX
 10
420.0
 20
297.0
  9
$ORTHOMODE
 70
     1
  9
$REGENMODE
 70
     1
  9
$FILLMODE
 70
     1
  9
$QTEXTMODE
 70
     0
  9
$MIRRTEXT
 70
     1
  9
$DRAGMODE
 70
     2
  9
$LTSCALE
 40
1.0
  9
$OSMODE
 70
    40
  9
$ATTMODE
 70
     1
  9
$TEXTSIZE
 40
2.5
  9
$TRACEWID
 40
1.0
  9
$TEXTSTYLE
  7
STANDARD
  9
$CLAYER
  8
0
  9
$CELTYPE
  6
BYLAYER
  9
$CECOLOR
 62
   256
  9
$DIMSCALE
 40
1.0
  9
$DIMASZ
 40
2.5
  9
$DIMEXO
 40
0.625
  9
$DIMDLI
 40
3.75
  9
$DIMRND
 40
0.0
  9
$DIMDLE
 40
0.0
  9
$DIMEXE
 40
1.25
  9
$DIMTP
 40
0.0
  9
$DIMTM
 40
0.0
  9
$DIMTXT
 40
2.5
  9
$DIMCEN
 40
2.5
  9
$DIMTSZ
 40
0.0
  9
$DIMTOL
 70
     0
  9
$DIMLIM
 70
     0
  9
$DIMTIH
 70
     1
  9
$DIMTOH
 70
     1
  9
$DIMSE1
 70
     0
  9
$DIMSE2
 70
     0
  9
$DIMTAD
 70
     1
  9
$DIMZIN
 70
     8
  9
$DIMBLK
  1

  9
$DIMASO
 70
     1
  9
$DIMSHO
 70
     1
  9
$DIMPOST
  1

  9
$DIMAPOST
  1

  9
$DIMALT
 70
     0
  9
$DIMALTD
 70
     3
  9
$DIMALTF
 40
0.03937007874016
  9
$DIMLFAC
 40
1.0
  9
$DIMTOFL
 70
     1
  9
$DIMTVP
 40
0.0
  9
$DIMTIX
 70
     0
  9
$DIMSOXD
 70
     0
  9
$DIMSAH
 70
     0
  9
$DIMBLK1
  1

  9
$DIMBLK2
  1

  9
$DIMSTYLE
  2
ISO-25
  9
$DIMCLRD
 70
     0
  9
$DIMCLRE
 70
     0
  9
$DIMCLRT
 70
     0
  9
$DIMTFAC
 40
1.0
  9
$DIMGAP
 40
0.625
  9
$LUNITS
 70
     2
  9
$LUPREC
 70
     4
  9
$SKETCHINC
 40
1.0
  9
$FILLETRAD
 40
4.0
  9
$AUNITS
 70
     0
  9
$AUPREC
 70
     0
  9
$MENU
  1
.
  9
$ELEVATION
 40
0.0
  9
$PELEVATION
 40
0.0
  9
$THICKNESS
 40
0.0
  9
$LIMCHECK
 70
     0
  9
$BLIPMODE
 70
     0
  9
$CHAMFERA
 40
0.6
  9
$CHAMFERB
 40
0.6
  9
$SKPOLY
 70
     0
  9
$TDCREATE
 40
2453692.5231076041
  9
$TDUPDATE
 40
2453696.5494438191
  9
$TDINDWG
 40
0.3487530556
  9
$TDUSRTIMER
 40
0.3487529398
  9
$USRTIMER
 70
     1
  9
$ANGBASE
 50
0.0
  9
$ANGDIR
 70
     0
  9
$PDMODE
 70
     3
  9
$PDSIZE
 40
2.0
  9
$PLINEWID
 40
0.0
  9
$COORDS
 70
     0
  9
$SPLFRAME
 70
     0
  9
$SPLINETYPE
 70
     6
  9
$SPLINESEGS
 70
     8
  9
$ATTDIA
 70
     0
  9
$ATTREQ
 70
     1
  9
$HANDLING
 70
-16383
  9
$HANDSEED
  5
3C09
  9
$SURFTAB1
 70
     6
  9
$SURFTAB2
 70
     6
  9
$SURFTYPE
 70
     6
  9
$SURFU
 70
     6
  9
$SURFV
 70
     6
  9
$UCSNAME
  2

  9
$UCSORG
 10
-375.34634535645881
 20
621.51974360826785
 30
0.0
  9
$UCSXDIR
 10
1.0
 20
0.0
 30
0.0
  9
$UCSYDIR
 10
0.0
 20
1.0
 30
0.0
  9
$PUCSNAME
  2

  9
$PUCSORG
 10
0.0
 20
0.0
 30
0.0
  9
$PUCSXDIR
 10
1.0
 20
0.0
 30
0.0
  9
$PUCSYDIR
 10
0.0
 20
1.0
 30
0.0
  9
$USERI1
 70
     0
  9
$USERI2
 70
     0
  9
$USERI3
 70
     0
  9
$USERI4
 70
     0
  9
$USERI5
 70
     0
  9
$USERR1
 40
0.0
  9
$USERR2
 40
0.0
  9
$USERR3
 40
0.0
  9
$USERR4
 40
0.0
  9
$USERR5
 40
0.0
  9
$WORLDVIEW
 70
     1
  9
$SHADEDGE
 70
     3
  9
$SHADEDIF
 70
    70
  9
$TILEMODE
 70
     1
  9
$MAXACTVP
 70
    48
  9
$PLIMCHECK
 70
     0
  9
$PEXTMIN
 10
28.674485683441159
 20
19.97498331069945
 30
0.0
  9
$PEXTMAX
 10
258.0703711509704
 20
179.77484979629509
 30
0.0
  9
$PLIMMIN
 10
-5.027069091796875
 20
-5.0270833969116211
  9
$PLIMMAX
 10
291.98358154296869
 20
204.98858737945551
  9
$UNITMODE
 70
     0
  9
$VISRETAIN
 70
     1
  9
$PLINEGEN
 70
     0
  9
$PSLTSCALE
 70
     1
  0
ENDSEC
  0
SECTION
  2
TABLES
  0
TABLE
  2
VPORT
 70
     9
  0
VPORT
  2
*ACTIVE
 70
     0
 10
0.0
 20
0.0
 11
1.0
 21
1.0
 12
124.32494289585171
 22
756.82648899221795
 13
0.0
 23
0.0
 14
10.0
 24
10.0
 15
10.0
 25
10.0
 16
0.0
 26
0.0
 36
1.0
 17
0.0
 27
0.0
 37
0.0
 40
1082.626932844162
 41
1.5281602002503121
 42
50.0
 43
0.0
 44
0.0
 50
0.0
 51
0.0
 71
     0
 72
   100
 73
     1
 74
     2
 75
     0
 76
     0
 77
     0
 78
     0
  0
ENDTAB
  0
TABLE
  2
LTYPE
 70
     2
  0
LTYPE
  2
CONTINUOUS
 70
     0
  3
Solid line
 72
    65
 73
     0
 40
0.0
  0
LTYPE
  2
CENTER
 70
     0
  3
Center (.5x) ___ _ ___ _ ___ _ ___ _ ___ _ ___
 72
    65
 73
     4
 40
28.574999999999989
 49
19.050000000000001
 49
-3.1749999999999989
 49
3.1749999999999989
 49
-3.1749999999999989
  0
ENDTAB
  0
TABLE
  2
LAYER
 70
     1
  0
LAYER
  2
0
 70
     0
 62
     7
  6
CONTINUOUS
  0
ENDTAB
  0
TABLE
  2
STYLE
 70
     1
  0
STYLE
  2
STANDARD
 70
     0
 40
0.0
 41
1.0
 50
0.0
 71
     0
 42
2.5
  3
txt
  4

  0
ENDTAB
  0
TABLE
  2
VIEW
 70
     0
  0
ENDTAB
  0
TABLE
  2
UCS
 70
     0
  0
ENDTAB
  0
TABLE
  2
APPID
 70
     1
  0
APPID
  2
ACAD
 70
     0
  0
ENDTAB
  0
TABLE
  2
DIMSTYLE
 70
     1
  0
DIMSTYLE
  2
ISO-25
 70
     0
  3

  4

  5

  6

  7

 40
1.0
 41
2.5
 42
0.625
 43
3.75
 44
1.25
 45
0.0
 46
0.0
 47
0.0
 48
0.0
140
2.5
141
2.5
142
0.0
143
0.03937007874016
144
1.0
145
0.0
146
1.0
147
0.625
 71
     0
 72
     0
 73
     1
 74
     1
 75
     0
 76
     0
 77
     1
 78
     8
170
     0
171
     3
172
     1
173
     0
174
     0
175
     0
176
     0
177
     0
178
     0
  0
ENDTAB
  0
ENDSEC
  0
SECTION
  2
BLOCKS
  0
BLOCK
  8
0
  2
$MODEL_SPACE
 70
     0
 10
0.0
 20
0.0
 30
0.0
  3
$MODEL_SPACE
  1

  0
ENDBLK
  5
21
  8
0
  0
BLOCK
 67
     1
  8
0
  2
$PAPER_SPACE
 70
     0
 10
0.0
 20
0.0
 30
0.0
  3
$PAPER_SPACE
  1

  0
ENDBLK
  5
53
 67
     1
  8
0
  0
ENDSEC
  0
SECTION
  2
ENTITIES
  0
ARC
  5
159
  8
0
 10
-199.41687238424271
 20
791.23717497529628
 30
0.0
 40
50.0
 50
153.04261096977089
 51
41.148292272197409
  0
POLYLINE
  5
15A
  8
0
 66
     1
 10
0.0
 20
0.0
 30
0.0
 70
     1
  0
VERTEX
  5
3B97
  8
0
 10
-203.1696491339753
 20
797.7371749752964
 30
0.0
  0
VERTEX
  5
3B98
  8
0
 10
-206.92242588370789
 20
791.23717497529628
 30
0.0
  0
VERTEX
  5
3B99
  8
0
 10
-203.1696491339753
 20
784.7371749752964
 30
0.0
  0
VERTEX
  5
3B9A
  8
0
 10
-195.6640956345102
 20
784.7371749752964
 30
0.0
  0
VERTEX
  5
3B9B
  8
0
 10
-191.91131888477759
 20
791.23717497529628
 30
0.0
  0
VERTEX
  5
3B9C
  8
0
 10
-195.6640956345102
 20
797.7371749752964
 30
0.0
  0
SEQEND
  5
3B9D
  8
0
  0
CIRCLE
  5
15B
  8
0
 10
-199.41687238424271
 20
791.23717497529628
 30
0.0
 40
6.5
  0
ARC
  5
15C
  8
0
 10
-201.32333977799729
 20
790.5061996240895
 30
0.0
 40
13.0
 50
225.6379573356578
 51
349.22731283228251
  0
LINE
  5
15E
  8
0
  6
CENTER
 10
-199.41687238424271
 20
738.23717497529628
 30
0.0
 11
-199.41687238424271
 21
844.23717497529628
 31
0.0
  0
LINE
  5
15F
  8
0
  6
CENTER
 10
-237.41687238424271
 20
857.48717497529628
 30
0.0
 11
-237.41687238424271
 21
879.2371749752964
 31
0.0
  0
LINE
  5
167
  8
0
 10
-265.79455525801581
 20
862.4871749752964
 30
0.0
 11
-209.41687238424271
 21
862.48717497529617
 31
0.0
  0
LINE
  5
16A
  8
0
 10
-267.41687238424282
 20
857.23717497529617
 30
0.0
 11
-267.29376817391341
 21
861.0357613191153
 31
0.0
  0
LINE
  5
16B
  8
0
 10
-267.41687238424282
 20
857.23717497529617
 30
0.0
 11
-263.98713848766408
 21
846.23717497529617
 31
0.0
  0
ARC
  5
16C
  8
0
 10
-106.9713598242778
 20
921.02018697142034
 30
0.0
 40
173.91507592063991
 50
205.46738840009189
 51
233.50295153760351
  0
ARC
  5
16D
  8
0
 10
-199.41687238424271
 20
791.23717497529628
 30
0.0
 40
38.0
 50
160.90537251866149
 51
57.528417501025253
  0
ARC
  5
16E
  8
0
 10
-199.41687238424271
 20
791.23717497529628
 30
0.0
 40
45.0
 50
155.92557155682951
 51
45.975802393211701
  0
ARC
  5
16F
  8
0
 10
-199.41687238424271
 20
791.23717497529628
 30
0.0
 40
36.0
 50
162.6184048252081
 51
62.978416856713622
  0
ARC
  5
170
  8
0
 10
-478.68288198202589
 20
799.72179773993651
 30
0.0
 40
290.4195980073448
 50
357.84936409849178
 51
3.30838035157984
  0
ARC
  5
171
  8
0
 10
-193.46432806940231
 20
789.01089531921855
 30
0.0
 40
5.0
 50
349.22731283228251
 51
357.84936409849018
  0
LINE
  5
172
  8
0
 10
-213.26328397468109
 20
789.74060084440487
 30
0.0
 11
-213.26328397468109
 21
857.48717497529628
 31
0.0
  0
LINE
  5
173
  8
0
 10
-219.763283974681
 20
795.28123230849485
 30
0.0
 11
-219.763283974681
 21
857.48717497529628
 31
0.0
  0
LINE
  5
174
  8
0
  6
CENTER
 10
-252.41687238424271
 20
791.23717497529628
 30
0.0
 11
-146.41687238424271
 21
791.23717497529628
 31
0.0
  0
LINE
  5
175
  8
0
  6
CENTER
 10
-273.41687238424271
 20
666.40481240973077
 30
0.0
 11
-103.6620266961751
 21
666.40481240973077
 31
0.0
  0
LINE
  5
178
  8
0
 10
-198.91687238424279
 20
686.90481240973099
 30
0.0
 11
-126.6522545989361
 21
686.90481240973145
 31
0.0
  0
LINE
  5
18D
  8
0
 10
-198.91687238424279
 20
691.01474139124616
 30
0.0
 11
-193.78770725964389
 21
691.01474139124628
 31
0.0
  0
LINE
  5
18E
  8
0
 10
-191.9113188847775
 20
687.01474139124582
 30
0.0
 11
-198.91687238424279
 21
687.01474139124605
 31
0.0
  0
ARC
  5
193
  8
0
 10
-193.7877072596437
 20
688.29251916902399
 30
0.0
 40
2.7222222222221419
 50
46.42642140347413
 51
90.0
  0
ARC
  5
194
  8
0
 10
-193.7877072596437
 20
688.29251916902399
 30
0.0
 40
2.7222222222221419
 50
89.999999999998366
 51
133.5735785965235
  0
LINE
  5
195
  8
0
 10
-195.66409563451009
 20
687.01474139124616
 30
0.0
 11
-195.66409563451009
 21
690.26474139124639
 31
0.0
  0
LINE
  5
196
  8
0
 10
-191.9113188847775
 20
687.01474139124628
 30
0.0
 11
-191.9113188847775
 21
690.26474139124639
 31
0.0
  0
ARC
  5
1A2
  8
0
 10
-265.79455525801581
 20
860.98717497529628
 30
0.0
 40
1.5
 50
90.0
 51
178.1438136990557
  0
ARC
  5
1B6
  8
0
 10
-222.2795860870462
 20
644.23020170901134
 30
0.0
 40
218.63566905507449
 50
62.854290978944789
 51
86.627242891047032
  0
ARC
  5
1B7
  8
0
 10
-151.84266164521949
 20
851.30069474211109
 30
0.0
 40
7.9253827851382752
 50
339.54760693866939
 51
155.62784225896269
  0
LINE
  5
1B8
  8
0
 10
-151.54859950832949
 20
852.16517870632072
 30
0.0
 11
-151.87063730338801
 21
851.21845189326768
 31
0.0
  0
ARC
  5
1B9
  8
0
 10
-222.2795860870462
 20
644.23020170901134
 30
0.0
 40
219.6356690550746
 50
71.213793052656314
 51
73.271891566860944
  0
LINE
  5
1BA
  8
0
 10
-123.41687238424269
 20
839.2371749752964
 30
0.0
 11
-125.1996545363825
 21
835.72063230252445
 31
0.0
  0
ARC
  5
1BB
  8
0
 10
-177.68800976134369
 20
973.2902993657832
 30
0.0
 40
150.0
 50
268.32660655622232
 51
288.13203192242202
  0
ARC
  5
1BC
  8
0
 10
-134.118920734304
 20
840.24243398886767
 30
0.0
 40
10.0
 50
288.13203192242042
 51
333.11635242359478
  0
ARC
  5
1BD
  8
0
 10
-182.2581342301504
 20
816.85704215255635
 30
0.0
 40
6.5
 50
88.326606556222359
 51
183.30838035157981
  0
LINE
  5
1BE
  8
0
 10
-122.52494576445061
 20
838.7849948066621
 30
0.0
 11
-123.6564422479626
 21
836.5531148971703
 31
0.0
  0
ARC
  5
1BF
  8
0
 10
-222.2795860870462
 20
644.23020170901134
 30
0.0
 40
216.13566905507449
 50
62.851259742764121
 51
63.11635242359489
  0
LINE
  5
1C0
  8
0
 10
-107.8488530190489
 20
841.01722228379322
 30
0.0
 11
-106.4720673498479
 21
837.04694565723241
 31
0.0
  0
ARC
  5
1C1
  8
0
 10
-222.2795860870462
 20
644.23020170901134
 30
0.0
 40
210.6356690550746
 50
62.029393479289581
 51
63.350524043121538
  0
ARC
  5
1C2
  8
0
 10
-95.883183883174269
 20
780.52717663676617
 30
0.0
 40
62.532068877943601
 50
102.1148011732277
 51
116.3686006411653
  0
ARC
  5
1C3
  8
0
 10
-147.5247729975988
 20
928.9512648455941
 30
0.0
 40
101.5752126236281
 50
283.6885831336275
 51
293.50550664960309
  0
ARC
  5
1C4
  8
0
 10
-108.79365805344381
 20
840.68958918567557
 30
0.0
 40
1.0
 50
19.125176989792621
 51
102.3101096266484
  0
ARC
  5
1C5
  8
0
 10
-107.41687238424269
 20
836.71931255911477
 30
0.0
 40
1.0
 50
293.83306731080779
 51
19.125176989789011
  0
LINE
  5
1C6
  8
0
 10
-125.44519326538649
 20
831.28764060182675
 30
0.0
 11
-123.061453751914
 21
836.84931471221262
 31
0.0
  0
CIRCLE
  5
1C7
  8
0
 10
-193.41687238424271
 20
845.2371749752964
 30
0.0
 40
3.0
  0
ARC
  5
1C8
  8
0
 10
-194.06764653167599
 20
666.40481240973099
 30
0.0
 40
71.54166666667021
 50
344.26031922947811
 51
15.73968077052186
  0
ARC
  5
1C9
  8
0
 10
-126.6522545989361
 20
685.40481240973145
 30
0.0
 40
1.5
 50
15.73968077052186
 51
90.0
  0
ARC
  5
1CA
  8
0
 10
-126.6522545989361
 20
647.4048124097302
 30
0.0
 40
1.5
 50
270.0
 51
344.26031922947811
  0
LINE
  5
1CB
  8
0
 10
-159.06176837085459
 20
676.40481240973065
 30
0.0
 11
-159.06176837085459
 21
656.40481240973077
 31
0.0
  0
LINE
  5
1CC
  8
0
 10
-144.41687238424279
 20
676.40481240973088
 30
0.0
 11
-144.41687238424279
 21
656.40481240973077
 31
0.0
  0
LINE
  5
1CD
  8
0
 10
-126.52597986500579
 20
656.40481240973077
 30
0.0
 11
-126.52597986500579
 21
676.40481240973065
 31
0.0
  0
LINE
  5
1CE
  8
0
 10
-159.06176837085459
 20
676.40481240973065
 30
0.0
 11
-126.52597986500579
 21
676.40481240973065
 31
0.0
  0
LINE
  5
1CF
  8
0
 10
-159.06176837085459
 20
656.40481240973077
 30
0.0
 11
-126.52597986500579
 21
656.40481240973077
 31
0.0
  0
ARC
  5
1D0
  8
0
 10
-194.06764653167599
 20
666.40481240973099
 30
0.0
 40
72.54166666667021
 50
344.26031922947811
 51
15.73968077052186
  0
ARC
  5
1D1
  8
0
 10
-181.5804790320465
 20
666.40481240973099
 30
0.0
 40
72.54166666667021
 50
345.17424270041488
 51
14.82575729958349
  0
ARC
  5
1D2
  8
0
 10
-179.2036933628454
 20
666.40481240973099
 30
0.0
 40
72.54166666667021
 50
345.17424270041488
 51
14.82575729958349
  0
LINE
  5
1D3
  8
0
 10
-124.2459943276904
 20
686.0829801670186
 30
0.0
 11
-110.52711351377179
 21
686.08298016701883
 31
0.0
  0
LINE
  5
1D4
  8
0
 10
-124.2459943276904
 20
646.72664465244304
 30
0.0
 11
-110.52711351377179
 21
646.72664465244293
 31
0.0
  0
ARC
  5
1D5
  8
0
 10
-110.52711351377179
 20
684.58298016701883
 30
0.0
 40
1.5
 50
14.82575729958349
 51
90.0
  0
ARC
  5
1D6
  8
0
 10
-112.90389918297291
 20
684.58298016701883
 30
0.0
 40
1.5
 50
14.82575729958349
 51
90.0
  0
ARC
  5
1D7
  8
0
 10
-112.90389918297291
 20
648.22664465244293
 30
0.0
 40
1.5
 50
270.0
 51
345.17424270041641
  0
ARC
  5
1D8
  8
0
 10
-110.52711351377179
 20
648.22664465244293
 30
0.0
 40
1.5
 50
270.0
 51
345.17424270041641
  0
LINE
  5
1D9
  8
0
 10
-123.22832080475401
 20
676.40481240973065
 30
0.0
 11
-122.2185449174019
 21
676.40481240973088
 31
0.0
  0
LINE
  5
1DA
  8
0
 10
-123.22832080475401
 20
656.40481240973088
 30
0.0
 11
-122.2185449174019
 21
656.40481240973077
 31
0.0
  0
LINE
  5
312
  8
0
 10
-322.73712593105188
 20
859.22607752724934
 30
0.0
 11
-342.73712593105182
 21
859.22607752724923
 31
0.0
  0
LINE
  5
38F
  8
0
 10
-322.73712593105188
 20
841.49611453378816
 30
0.0
 11
-322.73712593105188
 21
859.22607752724934
 31
0.0
  0
LINE
  5
390
  8
0
 10
-322.73712593105188
 20
848.53133630692628
 30
0.0
 11
-342.73712593105182
 21
848.53133630692605
 31
0.0
  0
LINE
  5
3CD
  8
0
 10
-342.73712593105199
 20
841.49611453378816
 30
0.0
 11
-342.73712593105182
 21
859.22607752724934
 31
0.0
  0
LINE
  5
415
  8
0
 10
-359.73712593105182
 20
862.48717497529663
 30
0.0
 11
-305.73712593105182
 21
862.48717497529663
 31
0.0
  0
LINE
  5
417
  8
0
 10
-352.41529368834023
 20
830.26116474590572
 30
0.0
 11
-352.41529368834
 21
840.01134593908625
 31
0.0
  0
LINE
  5
419
  8
0
 10
-313.05895817376359
 20
830.26116474590572
 30
0.0
 11
-313.05895817376393
 21
840.01134593908625
 31
0.0
  0
LINE
  5
41B
  8
0
  6
CENTER
 10
-332.73712593105182
 20
881.2371749752964
 30
0.0
 11
-332.73712593105182
 21
736.23717497529651
 31
0.0
  0
ARC
  5
421
  8
0
 10
-332.73712593105188
 20
583.16106499636055
 30
0.0
 40
258.52852418931502
 50
85.840768809615724
 51
94.159231190384261
  0
ARC
  5
422
  8
0
 10
-332.73712593105182
 20
578.52606175380777
 30
0.0
 40
258.52852418931502
 50
85.634649935394336
 51
94.365350064605636
  0
ARC
  5
423
  8
0
 10
-351.41529368833989
 20
840.01134593908637
 30
0.0
 40
1.0
 50
94.159231190379685
 51
180.00000000000651
  0
ARC
  5
424
  8
0
 10
-314.05895817376393
 20
840.01134593908637
 30
0.0
 40
1.0
 50
359.99999999999341
 51
85.840768809617074
  0
LINE
  5
425
  8
0
 10
-313.05895817376359
 20
830.26116474590594
 30
0.0
 11
-352.41529368834011
 21
830.26116474590572
 31
0.0
  0
LINE
  5
426
  8
0
 10
-302.73712593105171
 20
809.23717497529628
 30
0.0
 11
-302.73712593105182
 21
859.48717497529663
 31
0.0
  0
ARC
  5
427
  8
0
 10
-305.73712593105182
 20
859.48717497529663
 30
0.0
 40
3.0
 50
0.0
 51
90.0
  0
LINE
  5
428
  8
0
 10
-362.73712593105182
 20
809.23717497529628
 30
0.0
 11
-362.73712593105182
 21
859.48717497529663
 31
0.0
  0
ARC
  5
429
  8
0
 10
-359.73712593105182
 20
859.48717497529663
 30
0.0
 40
3.0
 50
90.0
 51
180.0
  0
LINE
  5
42E
  8
0
 10
-312.23712593105222
 20
777.5061996240895
 30
0.0
 11
-312.2371259310525
 21
859.48717497529663
 31
0.0
  0
ARC
  5
42F
  8
0
 10
-315.2371259310525
 20
859.48717497529663
 30
0.0
 40
3.0
 50
0.000000000000229
 51
90.000000000000185
  0
LINE
  5
430
  8
0
 10
-353.23712593105142
 20
777.5061996240895
 30
0.0
 11
-353.2371259310512
 21
859.48717497529663
 31
0.0
  0
ARC
  5
431
  8
0
 10
-350.23712593105108
 20
859.48717497529663
 30
0.0
 40
3.0
 50
89.999999999999815
 51
179.99999999999969
  0
LINE
  5
432
  8
0
 10
-312.23712593105222
 20
777.50619962408962
 30
0.0
 11
-314.23712593105222
 21
777.50619962408962
 31
0.0
  0
ARC
  5
4AC
  8
0
 10
-324.6301260709082
 20
807.8420734610803
 30
0.0
 40
21.937405574924341
 50
322.45226860584847
 51
322.45234378819481
  0
LINE
  5
4AD
  8
0
 10
-308.23712593105199
 20
797.73717497529651
 30
0.0
 11
-312.23712593105228
 21
797.73717497529651
 31
0.0
  0
LINE
  5
4AE
  8
0
 10
-308.23712593105211
 20
791.23717497529663
 30
0.0
 11
-312.23712593105228
 21
791.2371749752964
 31
0.0
  0
LINE
  5
4AF
  8
0
 10
-308.23712593105211
 20
784.7371749752964
 30
0.0
 11
-312.23712593105222
 21
784.73717497529617
 31
0.0
  0
LINE
  5
4B0
  8
0
 10
-307.23712593105222
 20
787.9871749752964
 30
0.0
 11
-307.23712593105222
 21
794.48717497529663
 31
0.0
  0
ARC
  5
4B8
  8
0
 10
-313.01837593105262
 20
787.9871749752964
 30
0.0
 40
5.7812500000003926
 50
325.79454206189649
 51
34.205457938103777
  0
ARC
  5
4B9
  8
0
 10
-313.01837593105262
 20
794.48717497529663
 30
0.0
 40
5.7812500000003926
 50
325.79454206189621
 51
34.205457938103478
  0
ARC
  5
4BA
  8
0
 10
-352.45587593105108
 20
787.9871749752964
 30
0.0
 40
5.7812500000003926
 50
145.79454206189621
 51
214.20545793810351
  0
LINE
  5
4BB
  8
0
 10
-357.23712593105159
 20
784.7371749752964
 30
0.0
 11
-353.23712593105148
 21
784.73717497529617
 31
0.0
  0
LINE
  5
4BC
  8
0
 10
-358.23712593105148
 20
787.9871749752964
 30
0.0
 11
-358.23712593105148
 21
794.48717497529663
 31
0.0
  0
LINE
  5
4BD
  8
0
 10
-357.23712593105159
 20
791.23717497529663
 30
0.0
 11
-353.23712593105142
 21
791.2371749752964
 31
0.0
  0
LINE
  5
4BE
  8
0
 10
-357.23712593105171
 20
797.73717497529651
 30
0.0
 11
-353.23712593105131
 21
797.73717497529651
 31
0.0
  0
ARC
  5
4BF
  8
0
 10
-352.45587593105108
 20
794.48717497529663
 30
0.0
 40
5.7812500000003926
 50
145.79454206189649
 51
214.20545793810371
  0
LINE
  5
4FD
  8
0
 10
-304.45698389408278
 20
794.63717497529615
 30
0.0
 11
-304.4569838940829
 21
787.83717497529653
 31
0.0
  0
LINE
  5
504
  8
0
 10
-305.0569838940828
 20
795.23717497529617
 30
0.0
 11
-307.23712593105188
 21
795.2371749752964
 31
0.0
  0
LINE
  5
50C
  8
0
 10
-305.05698389408298
 20
787.23717497529651
 30
0.0
 11
-307.23712593105188
 21
787.23717497529651
 31
0.0
  0
ARC
  5
510
  8
0
 10
-324.6301260709082
 20
807.8420734610803
 30
0.0
 40
21.937405574924341
 50
324.92944350753669
 51
3.6461652505647368
  0
LINE
  5
511
  8
0
 10
-305.0569838940828
 20
795.23717497529617
 30
0.0
 11
-304.45698389408278
 21
794.63717497529615
 31
0.0
  0
LINE
  5
512
  8
0
 10
-305.05698389408298
 20
787.23717497529651
 30
0.0
 11
-304.4569838940829
 21
787.83717497529653
 31
0.0
  0
LINE
  5
513
  8
0
 10
-305.05698389408298
 20
787.23717497529651
 30
0.0
 11
-305.0569838940828
 21
795.23717497529617
 31
0.0
  0
LINE
  5
514
  8
0
 10
-304.45698389408278
 20
794.63717497529615
 30
0.0
 11
-307.23712593105222
 21
794.63717497529615
 31
0.0
  0
LINE
  5
515
  8
0
 10
-304.45698389408278
 20
787.83717497529733
 30
0.0
 11
-307.23712593105222
 21
787.83717497529733
 31
0.0
  0
LINE
  5
516
  8
0
 10
-196.0168723842435
 20
693.79488342821537
 30
0.0
 11
-196.0168723842435
 21
691.01474139124605
 31
0.0
  0
LINE
  5
518
  8
0
 10
-195.41687238424271
 20
693.19488342821535
 30
0.0
 11
-195.41687238424271
 21
691.01474139124628
 31
0.0
  0
LINE
  5
51D
  8
0
 10
-195.41687238424271
 20
693.19488342821535
 30
0.0
 11
-199.1075014243697
 21
693.19488342821535
 31
0.0
  0
LINE
  5
51E
  8
0
 10
-199.2598165105467
 20
693.79488342821537
 30
0.0
 11
-196.0168723842427
 21
693.79488342821537
 31
0.0
  0
LINE
  5
51F
  8
0
 10
-195.41687238424271
 20
693.19488342821535
 30
0.0
 11
-196.0168723842427
 21
693.79488342821537
 31
0.0
  0
LINE
  5
521
  8
0
 10
-316.73712593105199
 20
748.14967866261372
 30
0.0
 11
-316.73712593105239
 21
830.26116474590594
 31
0.0
  0
LINE
  5
523
  8
0
 10
-348.73712593105171
 20
748.14967866261361
 30
0.0
 11
-348.73712593105131
 21
830.26116474590594
 31
0.0
  0
LINE
  5
524
  8
0
 10
-353.23712593105148
 20
777.50619962408962
 30
0.0
 11
-351.23712593105148
 21
777.50619962408962
 31
0.0
  0
ARC
  5
561
  8
0
 10
-340.84412579119549
 20
807.8420734610803
 30
0.0
 40
21.937405574924341
 50
176.35383474943521
 51
217.54765621180599
  0
ARC
  5
568
  8
0
 10
-199.41687238424271
 20
791.23717497529628
 30
0.0
 40
20.0
 50
188.90252983656049
 51
56.502600822106182
  0
LINE
  5
56C
  8
0
 10
-314.23712593105222
 20
830.26116474590606
 30
0.0
 11
-314.23712593105222
 21
771.23717497529651
 31
0.0
  0
LINE
  5
56D
  8
0
 10
-316.73712593105211
 20
755.2371749752964
 30
0.0
 11
-314.23712593105222
 21
771.23717497529628
 31
0.0
  0
ARC
  5
629
  8
0
 10
-332.73712593105188
 20
769.33717497529585
 30
0.0
 40
28.099999999999419
 50
239.4606445234071
 51
300.53935547659353
  0
ARC
  5
62A
  8
0
 10
-345.23712593105159
 20
748.14967866261361
 30
0.0
 40
3.5
 50
180.0
 51
239.46064452340741
  0
ARC
  5
62B
  8
0
 10
-320.23712593105199
 20
748.14967866261372
 30
0.0
 40
3.5
 50
300.53935547659353
 51
0.0
  0
LINE
  5
62C
  8
0
 10
-351.23712593105148
 20
830.26116474590606
 30
0.0
 11
-351.23712593105142
 21
771.23717497529651
 31
0.0
  0
LINE
  5
62D
  8
0
 10
-348.73712593105159
 20
755.2371749752964
 30
0.0
 11
-351.23712593105148
 21
771.23717497529628
 31
0.0
  0
LINE
  5
6A6
  8
0
 10
-20.58059173869804
 20
817.60602438318676
 30
0.0
 11
-20.5805917386981
 21
859.73717497529617
 31
0.0
  0
LINE
  5
6AA
  8
0
 10
-71.080591738697706
 20
777.5061996240895
 30
0.0
 11
-71.080591738697663
 21
789.23717497529617
 31
0.0
  0
LINE
  5
6AB
  8
0
 10
-30.080591738698441
 20
777.5061996240895
 30
0.0
 11
-30.080591738698502
 21
789.2371749752964
 31
0.0
  0
LINE
  5
6AC
  8
0
  6
CENTER
 10
-50.580591738698111
 20
881.2371749752964
 30
0.0
 11
-50.580591738698111
 21
736.23717497529651
 31
0.0
  0
ARC
  5
6AD
  8
0
 10
-70.299341738697365
 20
787.9871749752964
 30
0.0
 40
5.7812500000003926
 50
145.79454206189621
 51
214.20545793810351
  0
ARC
  5
6AE
  8
0
 10
-30.861841738698839
 20
787.9871749752964
 30
0.0
 40
5.7812500000003926
 50
325.79454206189649
 51
34.205457938103777
  0
LINE
  5
6AF
  8
0
 10
-32.080591738698431
 20
847.05181343044615
 30
0.0
 11
-32.080591738698502
 21
771.23717497529651
 31
0.0
  0
LINE
  5
6B0
  8
0
 10
-66.580591738697933
 20
748.14967866261361
 30
0.0
 11
-66.580591738697521
 21
834.32467128797907
 31
0.0
  0
LINE
  5
6B1
  8
0
 10
-34.580591738698267
 20
748.14967866261372
 30
0.0
 11
-34.580591738698701
 21
834.32467128797907
 31
0.0
  0
LINE
  5
6B2
  8
0
 10
-69.080591738697791
 20
847.05181343044615
 30
0.0
 11
-69.080591738697706
 21
771.23717497529651
 31
0.0
  0
ARC
  5
6B3
  8
0
 10
-50.58059173869816
 20
769.33717497529585
 30
0.0
 40
28.099999999999419
 50
239.4606445234071
 51
300.53935547659353
  0
ARC
  5
6B4
  8
0
 10
-63.080591738697869
 20
748.14967866261361
 30
0.0
 40
3.5
 50
180.0
 51
239.46064452340741
  0
LINE
  5
6B5
  8
0
 10
-66.580591738697876
 20
755.2371749752964
 30
0.0
 11
-69.080591738697763
 21
771.23717497529628
 31
0.0
  0
LINE
  5
6B6
  8
0
 10
-26.080591738698381
 20
784.7371749752964
 30
0.0
 11
-30.080591738698441
 21
784.73717497529617
 31
0.0
  0
LINE
  5
6B7
  8
0
 10
-71.080591738697763
 20
777.50619962408962
 30
0.0
 11
-69.080591738697763
 21
777.50619962408962
 31
0.0
  0
ARC
  5
6B8
  8
0
 10
-38.08059173869821
 20
748.14967866261372
 30
0.0
 40
3.5
 50
300.53935547659353
 51
0.0
  0
LINE
  5
6B9
  8
0
 10
-75.080591738697805
 20
784.7371749752964
 30
0.0
 11
-71.080591738697763
 21
784.73717497529617
 31
0.0
  0
LINE
  5
6BA
  8
0
 10
-34.580591738698331
 20
755.2371749752964
 30
0.0
 11
-32.080591738698438
 21
771.23717497529628
 31
0.0
  0
LINE
  5
6BB
  8
0
 10
-30.080591738698441
 20
777.50619962408962
 30
0.0
 11
-32.080591738698438
 21
777.50619962408962
 31
0.0
  0
ARC
  5
6C1
  8
0
 10
-30.861841738698839
 20
794.48717497529663
 30
0.0
 40
5.7812500000003926
 50
325.79454206189621
 51
23.808131242915799
  0
LINE
  5
6C2
  8
0
 10
-25.080591738698441
 20
787.9871749752964
 30
0.0
 11
-25.080591738698441
 21
794.48717497529663
 31
0.0
  0
LINE
  5
6C3
  8
0
 10
-26.080591738698381
 20
791.23717497529663
 30
0.0
 11
-28.713010176870441
 21
791.23717497529663
 31
0.0
  0
LINE
  5
6C8
  8
0
 10
-75.080591738697805
 20
791.23717497529663
 30
0.0
 11
-72.448173300525767
 21
791.23717497529663
 31
0.0
  0
LINE
  5
6CA
  8
0
 10
-78.26073377566712
 20
795.23717497529617
 30
0.0
 11
-76.080591738698047
 21
795.2371749752964
 31
0.0
  0
LINE
  5
6CB
  8
0
 10
-78.260733775667006
 20
787.23717497529651
 30
0.0
 11
-76.080591738698047
 21
787.23717497529651
 31
0.0
  0
LINE
  5
6CC
  8
0
 10
-78.860733775667143
 20
794.63717497529615
 30
0.0
 11
-76.080591738697763
 21
794.63717497529615
 31
0.0
  0
LINE
  5
6CD
  8
0
 10
-78.860733775667143
 20
787.83717497529733
 30
0.0
 11
-76.080591738697763
 21
787.83717497529733
 31
0.0
  0
ARC
  5
6CE
  8
0
 10
-70.299341738697365
 20
794.48717497529663
 30
0.0
 40
5.7812500000003926
 50
156.19186875708411
 51
214.20545793810371
  0
LINE
  5
6CF
  8
0
 10
-76.080591738697763
 20
787.9871749752964
 30
0.0
 11
-76.080591738697763
 21
794.48717497529663
 31
0.0
  0
ARC
  5
6D0
  8
0
 10
-58.68759159884177
 20
807.8420734610803
 30
0.0
 40
21.937405574924341
 50
217.5476562118051
 51
217.5477313941515
  0
LINE
  5
6D1
  8
0
 10
-78.26073377566712
 20
795.23717497529617
 30
0.0
 11
-78.860733775667143
 21
794.63717497529615
 31
0.0
  0
LINE
  5
6D2
  8
0
 10
-78.260733775667006
 20
787.23717497529651
 30
0.0
 11
-78.860733775667015
 21
787.83717497529653
 31
0.0
  0
LINE
  5
6D3
  8
0
 10
-78.860733775667143
 20
794.63717497529615
 30
0.0
 11
-78.860733775667015
 21
787.83717497529653
 31
0.0
  0
LINE
  5
6D4
  8
0
 10
-78.260733775667006
 20
787.23717497529651
 30
0.0
 11
-78.26073377566712
 21
795.23717497529617
 31
0.0
  0
ARC
  5
820
  8
0
 10
-71.086135638387844
 20
818.74395769232945
 30
0.0
 40
50.518361580909882
 50
324.26195194257548
 51
358.70929522161578
  0
LINE
  5
821
  8
0
 10
-80.58059173869816
 20
817.60602438318676
 30
0.0
 11
-80.580591738698104
 21
859.73717497529617
 31
0.0
  0
ARC
  5
822
  8
0
 10
-30.075047839008359
 20
818.74395769232945
 30
0.0
 40
50.518361580909882
 50
181.29070477838411
 51
215.73804805742441
  0
ARC
  5
8A0
  8
0
 10
-50.58059173869816
 20
813.13717497529683
 30
0.0
 40
28.099999999999419
 50
59.460644523406501
 51
120.5393554765928
  0
ARC
  5
8A1
  8
0
 10
-63.080591738697869
 20
834.32467128797907
 30
0.0
 40
3.5
 50
120.5393554765926
 51
180.0
  0
LINE
  5
8A2
  8
0
 10
-66.580591738697876
 20
827.23717497529628
 30
0.0
 11
-69.080591738697763
 21
811.23717497529628
 31
0.0
  0
ARC
  5
8A3
  8
0
 10
-38.08059173869821
 20
834.32467128797907
 30
0.0
 40
3.5
 50
0.0
 51
59.460644523406501
  0
LINE
  5
8A4
  8
0
 10
-34.580591738698331
 20
827.23717497529628
 30
0.0
 11
-32.080591738698438
 21
811.23717497529628
 31
0.0
  0
ARC
  5
8A7
  8
0
 10
-51.15935375166206
 20
824.00202565519044
 30
0.0
 40
31.240510855569649
 50
11.81394033012648
 51
88.938477094972825
  0
ARC
  5
8A8
  8
0
 10
-50.001829725734162
 20
824.00202565519044
 30
0.0
 40
31.240510855569649
 50
91.061522905027175
 51
168.18605966987349
  0
LINE
  5
8A9
  8
0
 10
-78.58059173869816
 20
817.60602438318676
 30
0.0
 11
-78.580591738698132
 21
829.12715826681665
 31
0.0
  0
ARC
  5
8AA
  8
0
 10
-30.075047839008359
 20
818.74395769232945
 30
0.0
 40
48.518361580909868
 50
181.29070477838411
 51
216.49260192679449
  0
ARC
  5
8AB
  8
0
 10
-48.211114148408157
 20
824.18103835871477
 30
0.0
 40
30.961386391331541
 50
94.320377176735363
 51
166.35158156184829
  0
ARC
  5
8AD
  8
0
 10
-68.580591738698132
 20
829.12715826681665
 30
0.0
 40
10.0
 50
166.35158156184849
 51
180.0
  0
ARC
  5
8AE
  8
0
 10
-52.95006932898805
 20
824.18103835871477
 30
0.0
 40
30.961386391331541
 50
13.64841843815163
 51
85.679622823264637
  0
LINE
  5
8AF
  8
0
 10
-22.58059173869804
 20
817.60602438318676
 30
0.0
 11
-22.580591738698072
 21
829.12715826681665
 31
0.0
  0
ARC
  5
8B0
  8
0
 10
-32.580591738698068
 20
829.12715826681665
 30
0.0
 40
10.0
 50
0.0
 51
13.6484184381515
  0
ARC
  5
8B1
  8
0
 10
-71.086135638387844
 20
818.74395769232945
 30
0.0
 40
48.518361580909868
 50
323.50739807320542
 51
358.70929522161578
  0
LINE
  5
8EE
  8
0
 10
-69.080591738697763
 20
830.26116474590572
 30
0.0
 11
-66.580591738697535
 21
830.26116474590572
 31
0.0
  0
LINE
  5
8EF
  8
0
 10
-34.580591738698672
 20
830.26116474590572
 30
0.0
 11
-32.080591738698438
 21
830.26116474590572
 31
0.0
  0
LINE
  5
92C
  8
0
 10
-43.080591738698097
 20
853.52726229584346
 30
0.0
 11
-43.080591738698097
 21
846.23717497529617
 31
0.0
  0
LINE
  5
969
  8
0
 10
-42.080591738698097
 20
853.17175936022704
 30
0.0
 11
-42.080591738698097
 21
846.23717497529617
 31
0.0
  0
LINE
  5
96A
  8
0
 10
-69.080591738697791
 20
846.2371749752964
 30
0.0
 11
-58.080591738698111
 21
846.2371749752964
 31
0.0
  0
LINE
  5
96B
  8
0
 10
-58.080591738698111
 20
853.52726229584346
 30
0.0
 11
-58.080591738698111
 21
846.23717497529617
 31
0.0
  0
LINE
  5
96C
  8
0
 10
-59.080591738698097
 20
853.17175936022704
 30
0.0
 11
-59.080591738698097
 21
846.23717497529617
 31
0.0
  0
LINE
  5
96D
  8
0
 10
-43.080591738698097
 20
846.23717497529617
 30
0.0
 11
-32.080591738698431
 21
846.23717497529617
 31
0.0
  0
POLYLINE
  5
A9A
  8
0
 66
     1
 10
0.0
 20
0.0
 30
0.0
 70
     1
  0
VERTEX
  5
3B9E
  8
0
 10
-375.34634535645881
 20
896.24194630513705
 30
0.0
  0
VERTEX
  5
3B9F
  8
0
 10
-7.622829279127699
 20
896.24194630513705
 30
0.0
  0
VERTEX
  5
3BA0
  8
0
 10
-7.622829279127699
 20
621.51974360826785
 30
0.0
  0
VERTEX
  5
3BA1
  8
0
 10
-375.34634535645881
 20
621.51974360826785
 30
0.0
  0
SEQEND
  5
3BA2
  8
0
  0
ARC
  5
180A
  8
0
 10
-559.8823090411172
 20
759.6653387741369
 30
0.0
 40
37.5
 50
154.53824300268059
 51
46.109601942456109
  0
ARC
  5
180B
  8
0
 10
-559.8823090411172
 20
759.6653387741369
 30
0.0
 40
34.0
 50
157.185094031456
 51
54.3863219263622
  0
LINE
  5
180C
  8
0
  6
CENTER
 10
-559.8823090411172
 20
717.16533877413679
 30
0.0
 11
-559.8823090411172
 21
802.16533877413679
 31
0.0
  0
LINE
  5
180D
  8
0
  6
CENTER
 10
-602.3823090411172
 20
759.6653387741369
 30
0.0
 11
-517.3823090411172
 21
759.6653387741369
 31
0.0
  0
ARC
  5
180E
  8
0
 10
-559.8823090411172
 20
759.6653387741369
 30
0.0
 40
25.0
 50
164.81613696512699
 51
76.628670376155981
  0
LINE
  5
180F
  8
0
  6
CENTER
 10
-583.8823090411172
 20
804.16533877413656
 30
0.0
 11
-583.8823090411172
 21
827.16533877413724
 31
0.0
  0
LINE
  5
1816
  8
0
 10
-605.28230904111706
 20
809.16533877413679
 30
0.0
 11
-604.93877502797932
 21
809.16533877413679
 31
0.0
  0
ARC
  5
1817
  8
0
 10
-548.66334333125258
 20
811.87023390382001
 30
0.0
 40
57.740051557214699
 50
183.74269256920351
 51
239.85307095107481
  0
LINE
  5
1818
  8
0
 10
-563.92513322227626
 20
753.95083331519857
 30
0.0
 11
-577.66150498532136
 21
761.94008094476794
 31
0.0
  0
LINE
  5
181B
  8
0
 10
-603.88230904111708
 20
810.16533877413679
 30
0.0
 11
-603.88230904111708
 21
811.25746037130295
 31
0.0
  0
ARC
  5
181C
  8
0
 10
-604.93069733999948
 20
810.21486516223194
 30
0.0
 40
1.049557472628901
 50
269.5590312959165
 51
357.29532946855761
  0
ARC
  5
181D
  8
0
 10
-605.28230904111706
 20
808.16533877413679
 30
0.0
 40
1.0
 50
90.0
 51
183.6772786709661
  0
ARC
  5
181E
  8
0
 10
-561.9106836688245
 20
810.1340297544757
 30
0.0
 40
1.97187394713252
 50
179.0902308575958
 51
235.18227202275111
  0
LINE
  5
1820
  8
0
 10
-563.8823090411172
 20
810.16533877413679
 30
0.0
 11
-563.8823090411172
 21
811.25746037130295
 31
0.0
  0
ARC
  5
1822
  8
0
 10
-559.8823090411172
 20
759.6653387741369
 30
0.0
 40
7.0
 50
234.72185232190219
 51
344.8895574480822
  0
ARC
  5
1823
  8
0
 10
-614.57860256874449
 20
768.17618875207097
 30
0.0
 40
62.317350222446677
 50
350.45312202739888
 51
13.655742164419291
  0
ARC
  5
1824
  8
0
 10
-559.8823090411172
 20
759.6653387741369
 30
0.0
 40
7.0
 50
359.6365764435925
 51
0.0
  0
ARC
  5
1825
  8
0
 10
-559.8823090411172
 20
759.6653387741369
 30
0.0
 40
26.0
 50
163.8794279233712
 51
76.718098067895738
  0
POLYLINE
  5
1826
  8
0
 66
     1
 10
0.0
 20
0.0
 30
0.0
 70
     1
  0
VERTEX
  5
3BA3
  8
0
 10
-562.76906038706534
 20
764.6653387741369
 30
0.0
  0
VERTEX
  5
3BA4
  8
0
 10
-565.65581173301337
 20
759.6653387741369
 30
0.0
  0
VERTEX
  5
3BA5
  8
0
 10
-562.76906038706534
 20
754.66533877413679
 30
0.0
  0
VERTEX
  5
3BA6
  8
0
 10
-556.99555769516905
 20
754.66533877413679
 30
0.0
  0
VERTEX
  5
3BA7
  8
0
 10
-554.10880634922091
 20
759.6653387741369
 30
0.0
  0
VERTEX
  5
3BA8
  8
0
 10
-556.99555769516905
 20
764.6653387741369
 30
0.0
  0
SEQEND
  5
3BA9
  8
0
  0
LINE
  5
182B
  8
0
  6
CENTER
 10
-610.28230904111695
 20
662.17624109317444
 30
0.0
 11
-517.3823090411172
 21
662.17624109317444
 31
0.0
  0
LINE
  5
182D
  8
0
 10
-553.88230904111708
 20
678.17624109317444
 30
0.0
 11
-520.88230904111708
 21
678.17624109317421
 31
0.0
  0
LINE
  5
1830
  8
0
 10
-553.88230904111708
 20
646.17624109317444
 30
0.0
 11
-520.88230904111697
 21
646.17624109317455
 31
0.0
  0
CIRCLE
  5
1835
  8
0
 10
-559.8823090411172
 20
759.6653387741369
 30
0.0
 40
5.0
  0
LINE
  5
1860
  8
0
  6
CENTER
 10
-660.38190275438876
 20
804.16533877413656
 30
0.0
 11
-660.38190275438876
 21
827.16533877413724
 31
0.0
  0
LINE
  5
1862
  8
0
 10
-682.78190275438874
 20
807.16533877413724
 30
0.0
 11
-682.78190275438874
 21
807.16533877413667
 31
0.0
  0
LINE
  5
1864
  8
0
 10
-637.98190275438913
 20
807.16533877413633
 30
0.0
 11
-637.98190275439424
 21
763.36714155168602
 31
0.0
  0
LINE
  5
1868
  8
0
 10
-573.88230904111708
 20
763.36714155168602
 30
0.0
 11
-573.88230904111708
 21
805.52455576926934
 31
0.0
  0
LINE
  5
1869
  8
0
 10
-570.88230904111708
 20
761.23854022819876
 30
0.0
 11
-570.88230904111708
 21
805.52455576926934
 31
0.0
  0
LINE
  5
186C
  8
0
 10
-644.38190275438876
 20
752.6653387741369
 30
0.0
 11
-644.38190275438876
 21
807.16533877413701
 31
0.0
  0
LINE
  5
186D
  8
0
 10
-674.38190275438888
 20
777.6653387741369
 30
0.0
 11
-672.88190275438876
 21
784.6653387741369
 31
0.0
  0
LINE
  5
186E
  8
0
 10
-646.38190275438876
 20
777.6653387741369
 30
0.0
 11
-647.88190275438876
 21
784.6653387741369
 31
0.0
  0
ARC
  5
1870
  8
0
 10
-653.88190275438899
 20
789.95589497948629
 30
0.0
 40
6.0
 50
0.0
 51
34.988070393197283
  0
ARC
  5
1871
  8
0
 10
-666.88190275438899
 20
789.95589497948629
 30
0.0
 40
6.0
 50
145.01192960680271
 51
180.0
  0
LINE
  5
1872
  8
0
 10
-672.8819027543891
 20
729.3747825687874
 30
0.0
 11
-672.88190275438876
 21
789.95589497948629
 31
0.0
  0
LINE
  5
1873
  8
0
 10
-647.88190275438876
 20
729.3747825687874
 30
0.0
 11
-647.88190275438876
 21
789.95589497948629
 31
0.0
  0
LINE
  5
1874
  8
0
  6
CENTER
 10
-660.38190275438876
 20
717.16533877413667
 30
0.0
 11
-660.38190275438876
 21
802.16533877413679
 31
0.0
  0
LINE
  5
1875
  8
0
 10
-646.38190275438933
 20
741.66533877413406
 30
0.0
 11
-646.38190275438876
 21
791.39633018461279
 31
0.0
  0
ARC
  5
1876
  8
0
 10
-660.3819027543891
 20
746.23676734556557
 30
0.0
 40
24.071428571428751
 50
248.91922196572011
 51
291.08077803427972
  0
LINE
  5
1877
  8
0
 10
-674.38190275438888
 20
741.66533877413679
 30
0.0
 11
-672.88190275438876
 21
734.6653387741369
 31
0.0
  0
ARC
  5
1878
  8
0
 10
-666.88190275438899
 20
729.3747825687874
 30
0.0
 40
6.0
 50
180.0
 51
248.91922196572
  0
LINE
  5
1879
  8
0
 10
-646.38190275438876
 20
741.66533877413679
 30
0.0
 11
-647.88190275438876
 21
734.6653387741369
 31
0.0
  0
ARC
  5
187A
  8
0
 10
-653.88190275438899
 20
729.3747825687874
 30
0.0
 40
6.0
 50
291.08077803427989
 51
0.0
  0
LINE
  5
187C
  8
0
 10
-644.38190275438876
 20
752.6653387741369
 30
0.0
 11
-646.3819027543891
 21
752.6653387741369
 31
0.0
  0
ARC
  5
187D
  8
0
 10
-646.38190275438876
 20
807.16533877413701
 30
0.0
 40
2.0
 50
0.0
 51
90.000000000000099
  0
ARC
  5
187F
  8
0
 10
-649.6982212921348
 20
764.68947498538489
 30
0.0
 40
11.790703362721059
 50
296.80084495473642
 51
301.76952247703082
  0
LINE
  5
1880
  8
0
 10
-674.38190275438842
 20
741.66533877413406
 30
0.0
 11
-674.38190275438922
 21
791.39633018461279
 31
0.0
  0
LINE
  5
1881
  8
0
 10
-676.38190275438876
 20
752.6653387741369
 30
0.0
 11
-676.3819027543891
 21
807.16533877413701
 31
0.0
  0
ARC
  5
1882
  8
0
 10
-674.38190275438899
 20
807.16533877413701
 30
0.0
 40
2.0
 50
89.999999999999915
 51
180.0
  0
LINE
  5
1884
  8
0
 10
-682.78190275438874
 20
807.1653387741369
 30
0.0
 11
-682.78190275438374
 21
763.36714155168602
 31
0.0
  0
ARC
  5
1886
  8
0
 10
-671.06558421664306
 20
764.68947498538489
 30
0.0
 40
11.790703362721059
 50
186.43929813161179
 51
217.88897956692779
  0
LINE
  5
1887
  8
0
 10
-676.38190275438876
 20
752.6653387741369
 30
0.0
 11
-674.38190275438865
 21
752.6653387741369
 31
0.0
  0
LINE
  5
1888
  8
0
 10
-641.38190275438888
 20
764.6653387741369
 30
0.0
 11
-644.38190275438876
 21
764.6653387741369
 31
0.0
  0
LINE
  5
1889
  8
0
 10
-641.38190275438888
 20
759.66533877413656
 30
0.0
 11
-644.38190275438876
 21
759.66533877413656
 31
0.0
  0
LINE
  5
188A
  8
0
 10
-641.38190275438888
 20
754.66533877413679
 30
0.0
 11
-644.38190275438876
 21
754.66533877413679
 31
0.0
  0
ARC
  5
188B
  8
0
 10
-644.00690275438888
 20
757.1653387741369
 30
0.0
 40
3.624999999999917
 50
316.39718102729393
 51
43.60281897270599
  0
ARC
  5
188C
  8
0
 10
-644.00690275438888
 20
762.1653387741369
 30
0.0
 40
3.624999999999917
 50
316.39718102729393
 51
43.60281897270599
  0
LINE
  5
188D
  8
0
 10
-640.38190275438888
 20
757.1653387741369
 30
0.0
 11
-640.38190275438888
 21
762.1653387741369
 31
0.0
  0
ARC
  5
188E
  8
0
 10
-649.6982212921348
 20
764.68947498538489
 30
0.0
 40
11.790703362721059
 50
322.1110204330721
 51
322.198693222381
  0
ARC
  5
188F
  8
0
 10
-676.7569027543891
 20
762.1653387741369
 30
0.0
 40
3.624999999999917
 50
136.39718102729401
 51
223.6028189727059
  0
LINE
  5
1890
  8
0
 10
-679.38190275438899
 20
759.66533877413656
 30
0.0
 11
-676.3819027543891
 21
759.66533877413656
 31
0.0
  0
LINE
  5
1891
  8
0
 10
-679.38190275438876
 20
764.6653387741369
 30
0.0
 11
-676.38190275438876
 21
764.6653387741369
 31
0.0
  0
LINE
  5
1892
  8
0
 10
-680.38190275438876
 20
757.1653387741369
 30
0.0
 11
-680.38190275438876
 21
762.1653387741369
 31
0.0
  0
ARC
  5
1893
  8
0
 10
-676.7569027543891
 20
757.1653387741369
 30
0.0
 40
3.624999999999917
 50
136.39718102729401
 51
223.6028189727059
  0
LINE
  5
1894
  8
0
 10
-679.38190275438876
 20
754.66533877413679
 30
0.0
 11
-676.38190275438876
 21
754.66533877413679
 31
0.0
  0
ARC
  5
1895
  8
0
 10
-671.06558421664306
 20
764.68947498538489
 30
0.0
 40
11.790703362721059
 50
238.23047752296901
 51
243.1991550452635
  0
LINE
  5
1896
  8
0
 10
-637.38190275438899
 20
762.16533877413667
 30
0.0
 11
-637.38190275438899
 21
757.1653387741369
 31
0.0
  0
LINE
  5
1897
  8
0
 10
-637.88190275438899
 20
762.66533877413679
 30
0.0
 11
-637.88190275438899
 21
756.6653387741369
 31
0.0
  0
LINE
  5
1898
  8
0
 10
-637.88190275438899
 20
762.66533877413679
 30
0.0
 11
-637.38190275438899
 21
762.1653387741369
 31
0.0
  0
LINE
  5
1899
  8
0
 10
-637.88190275438899
 20
762.66533877413679
 30
0.0
 11
-640.38190275438888
 21
762.66533877413679
 31
0.0
  0
LINE
  5
189A
  8
0
 10
-637.38190275438933
 20
762.1653387741369
 30
0.0
 11
-640.3819027543891
 21
762.16533877413713
 31
0.0
  0
LINE
  5
189B
  8
0
 10
-637.88190275438899
 20
762.66533877413679
 30
0.0
 11
-637.38190275438899
 21
762.1653387741369
 31
0.0
  0
LINE
  5
189C
  8
0
 10
-637.88190275438899
 20
756.6653387741369
 30
0.0
 11
-637.38190275438899
 21
757.1653387741369
 31
0.0
  0
LINE
  5
189D
  8
0
 10
-637.38190275438933
 20
757.1653387741369
 30
0.0
 11
-640.3819027543891
 21
757.16533877413656
 31
0.0
  0
LINE
  5
189E
  8
0
 10
-637.88190275438899
 20
756.6653387741369
 30
0.0
 11
-640.38190275438888
 21
756.6653387741369
 31
0.0
  0
ARC
  5
189F
  8
0
 10
-649.6982212921348
 20
764.68947498538489
 30
0.0
 40
11.790703362721059
 50
350.1149403433933
 51
353.56070186838809
  0
LINE
  5
18A0
  8
0
 10
-472.3038572234496
 20
807.16533877413667
 30
0.0
 11
-472.30385722344562
 21
772.16533877413576
 31
0.0
  0
LINE
  5
18A1
  8
0
 10
-463.90385722344951
 20
741.66533877413406
 30
0.0
 11
-463.90385722345007
 21
797.03500263731985
 31
0.0
  0
LINE
  5
18A2
  8
0
 10
-435.90385722345042
 20
741.66533877413406
 30
0.0
 11
-435.90385722344968
 21
797.03500263731985
 31
0.0
  0
LINE
  5
18A3
  8
0
 10
-462.40385722345007
 20
729.3747825687874
 30
0.0
 11
-462.4038572234499
 21
789.95589497948629
 31
0.0
  0
LINE
  5
18A4
  8
0
 10
-437.4038572234499
 20
729.3747825687874
 30
0.0
 11
-437.4038572234499
 21
789.95589497948629
 31
0.0
  0
LINE
  5
18A5
  8
0
  6
CENTER
 10
-449.9038572234499
 20
709.26533877413704
 30
0.0
 11
-449.9038572234499
 21
804.42320364105353
 31
0.0
  0
LINE
  5
18A6
  8
0
 10
-427.5038572234501
 20
807.16533877413622
 30
0.0
 11
-427.50385722345408
 21
772.16533877414122
 31
0.0
  0
ARC
  5
18A7
  8
0
 10
-449.90385722345007
 20
746.23676734556557
 30
0.0
 40
24.071428571428751
 50
248.91922196572011
 51
291.08077803427972
  0
ARC
  5
18A8
  8
0
 10
-456.40385722345002
 20
729.3747825687874
 30
0.0
 40
6.0
 50
180.0
 51
248.91922196572
  0
LINE
  5
18A9
  8
0
 10
-465.9038572234499
 20
752.6653387741369
 30
0.0
 11
-463.90385722344968
 21
752.6653387741369
 31
0.0
  0
LINE
  5
18AA
  8
0
 10
-468.9038572234499
 20
754.66533877413679
 30
0.0
 11
-465.9038572234499
 21
754.66533877413679
 31
0.0
  0
ARC
  5
18AB
  8
0
 10
-466.27885722345002
 20
757.1653387741369
 30
0.0
 40
3.624999999999917
 50
136.39718102729401
 51
223.6028189727059
  0
LINE
  5
18AC
  8
0
 10
-469.9038572234499
 20
757.1653387741369
 30
0.0
 11
-469.9038572234499
 21
762.1653387741369
 31
0.0
  0
LINE
  5
18AD
  8
0
 10
-468.90385722345002
 20
759.66533877413656
 30
0.0
 11
-465.90385722345002
 21
759.66533877413656
 31
0.0
  0
ARC
  5
18AE
  8
0
 10
-466.27885722345002
 20
762.1653387741369
 30
0.0
 40
3.624999999999917
 50
163.54437984768199
 51
223.6028189727059
  0
LINE
  5
18AF
  8
0
 10
-463.90385722345002
 20
741.66533877413679
 30
0.0
 11
-462.4038572234499
 21
734.6653387741369
 31
0.0
  0
ARC
  5
18B0
  8
0
 10
-443.40385722345002
 20
729.3747825687874
 30
0.0
 40
6.0
 50
291.08077803427989
 51
0.0
  0
LINE
  5
18B1
  8
0
 10
-435.90385722344979
 20
741.66533877413679
 30
0.0
 11
-437.4038572234499
 21
734.6653387741369
 31
0.0
  0
ARC
  5
18B2
  8
0
 10
-433.52885722344979
 20
762.1653387741369
 30
0.0
 40
3.624999999999917
 50
316.39718102729393
 51
16.45562015231793
  0
ARC
  5
18B3
  8
0
 10
-433.52885722344979
 20
757.1653387741369
 30
0.0
 40
3.624999999999917
 50
316.39718102729393
 51
43.60281897270599
  0
LINE
  5
18B4
  8
0
 10
-430.90385722344979
 20
759.66533877413656
 30
0.0
 11
-433.90385722344979
 21
759.66533877413656
 31
0.0
  0
LINE
  5
18B5
  8
0
 10
-430.9038572234499
 20
754.66533877413679
 30
0.0
 11
-433.9038572234499
 21
754.66533877413679
 31
0.0
  0
LINE
  5
18B6
  8
0
 10
-433.9038572234499
 20
752.6653387741369
 30
0.0
 11
-435.90385722345019
 21
752.6653387741369
 31
0.0
  0
ARC
  5
18B7
  8
0
 10
-439.22017576119578
 20
764.68947498538489
 30
0.0
 40
11.790703362721059
 50
322.1110204330721
 51
322.198693222381
  0
LINE
  5
18B8
  8
0
 10
-427.40385722345007
 20
762.66533877413679
 30
0.0
 11
-429.90385722345002
 21
762.66533877413679
 31
0.0
  0
LINE
  5
18B9
  8
0
 10
-427.40385722345007
 20
762.66533877413679
 30
0.0
 11
-426.90385722345007
 21
762.1653387741369
 31
0.0
  0
LINE
  5
18BA
  8
0
 10
-426.9038572234503
 20
762.1653387741369
 30
0.0
 11
-429.90385722345007
 21
762.16533877413713
 31
0.0
  0
LINE
  5
18BB
  8
0
 10
-427.40385722345007
 20
762.66533877413679
 30
0.0
 11
-426.90385722345007
 21
762.1653387741369
 31
0.0
  0
LINE
  5
18BC
  8
0
 10
-427.40385722345007
 20
756.6653387741369
 30
0.0
 11
-429.90385722345002
 21
756.6653387741369
 31
0.0
  0
LINE
  5
18BD
  8
0
 10
-426.9038572234503
 20
757.1653387741369
 30
0.0
 11
-429.90385722345007
 21
757.16533877413656
 31
0.0
  0
LINE
  5
18BE
  8
0
 10
-427.40385722345007
 20
756.6653387741369
 30
0.0
 11
-426.90385722345007
 21
757.1653387741369
 31
0.0
  0
LINE
  5
18BF
  8
0
 10
-427.40385722345007
 20
762.66533877413679
 30
0.0
 11
-427.40385722345007
 21
756.6653387741369
 31
0.0
  0
LINE
  5
18C0
  8
0
 10
-426.90385722345002
 20
762.16533877413667
 30
0.0
 11
-426.90385722345007
 21
757.1653387741369
 31
0.0
  0
LINE
  5
18C1
  8
0
 10
-429.90385722345002
 20
757.1653387741369
 30
0.0
 11
-429.90385722345002
 21
762.1653387741369
 31
0.0
  0
ARC
  5
18C2
  8
0
 10
-449.90385722345007
 20
773.09391020270823
 30
0.0
 40
24.071428571428751
 50
68.919221965720212
 51
111.0807780342797
  0
LINE
  5
18C5
  8
0
 10
-463.90385722345002
 20
777.6653387741369
 30
0.0
 11
-462.4038572234499
 21
784.6653387741369
 31
0.0
  0
ARC
  5
18C6
  8
0
 10
-456.40385722345002
 20
789.95589497948629
 30
0.0
 40
6.0
 50
111.0807780342799
 51
180.0
  0
LINE
  5
18CF
  8
0
  6
CENTER
 10
-449.9038572234499
 20
806.42320364105331
 30
0.0
 11
-449.9038572234499
 21
827.16533877413724
 31
0.0
  0
LINE
  5
18D0
  8
0
 10
-435.90385722344979
 20
777.6653387741369
 30
0.0
 11
-437.4038572234499
 21
784.6653387741369
 31
0.0
  0
ARC
  5
18D1
  8
0
 10
-443.40385722345002
 20
789.95589497948629
 30
0.0
 40
6.0
 50
0.0
 51
68.919221965720027
  0
LINE
  5
18D8
  8
0
  6
CENTER
 10
-688.38190275438865
 20
759.6653387741369
 30
0.0
 11
-632.3819027543891
 21
759.66533877413576
 31
0.0
  0
LINE
  5
18DA
  8
0
  6
CENTER
 10
-477.90385722344962
 20
759.6653387741369
 30
0.0
 11
-421.90385722345007
 21
759.66533877413576
 31
0.0
  0
LINE
  5
18DB
  8
0
 10
-433.9038572234499
 20
752.6653387741369
 30
0.0
 11
-433.90385722345002
 21
758.66533877413679
 31
0.0
  0
ARC
  5
18DC
  8
0
 10
-445.49048266972773
 20
772.42529454125543
 30
0.0
 40
17.98850388290791
 50
310.09918815483161
 51
0.8280225458805043
  0
ARC
  5
18DD
  8
0
 10
-467.90095288592272
 20
773.1878896508324
 30
0.0
 40
40.400222577001308
 50
359.28713620547171
 51
46.866469546497939
  0
ARC
  5
18DE
  8
0
 10
-431.90676156097697
 20
773.1878896508324
 30
0.0
 40
40.400222577001443
 50
133.13353045350189
 51
180.7128637945282
  0
ARC
  5
18DF
  8
0
 10
-454.3172317771722
 20
772.42529454125543
 30
0.0
 40
17.98850388290791
 50
179.17197745411951
 51
229.90081184516831
  0
LINE
  5
18E0
  8
0
 10
-465.9038572234499
 20
752.6653387741369
 30
0.0
 11
-465.9038572234499
 21
758.66533877413679
 31
0.0
  0
ARC
  5
18E1
  8
0
 10
-449.9038572234499
 20
791.1653387741369
 30
0.0
 40
15.0
 50
50.085903885863459
 51
129.9140961141365
  0
ARC
  5
18E2
  8
0
 10
-434.0361541279334
 20
776.17205200732894
 30
0.0
 40
36.432710538626857
 50
136.5861208304562
 51
185.45260133934181
  0
ARC
  5
18E3
  8
0
 10
-454.3172317771722
 20
772.42529454125543
 30
0.0
 40
15.98850388290791
 50
179.17197745411951
 51
232.94625643995289
  0
ARC
  5
18E4
  8
0
 10
-449.23385084600278
 20
790.92136957530852
 30
0.0
 40
15.258686230493369
 50
92.516657318788731
 51
137.5970211095684
  0
ARC
  5
18E5
  8
0
 10
-450.57386360089691
 20
790.92136957530852
 30
0.0
 40
15.258686230493369
 50
42.40297889043152
 51
87.483342681211255
  0
ARC
  5
18E6
  8
0
 10
-465.77156031896641
 20
776.17205200732894
 30
0.0
 40
36.432710538626857
 50
354.54739866065819
 51
43.413879169543812
  0
ARC
  5
18E7
  8
0
 10
-445.49048266972773
 20
772.42529454125543
 30
0.0
 40
15.98850388290791
 50
307.053743560047
 51
0.8280225458805043
  0
ARC
  5
1C1D
  8
0
 10
-578.79746081834378
 20
654.58160899885206
 30
0.0
 40
154.738323744767
 50
67.620439515439003
 51
84.153989540255878
  0
ARC
  5
1C1F
  8
0
 10
-550.18233980301829
 20
654.10275252988924
 30
0.0
 40
133.58555868179931
 50
82.541330420183925
 51
89.755046170589424
  0
ARC
  5
1C20
  8
0
 10
-550.10985977825965
 20
783.71829106125506
 30
0.0
 40
4.0
 50
82.83902262003572
 51
191.9721990205494
  0
LINE
  5
1C21
  8
0
 10
-519.88230904111708
 20
797.6653387741369
 30
0.0
 11
-520.87473713002646
 21
794.63727900917331
 31
0.0
  0
ARC
  5
1C22
  8
0
 10
-531.51813255071784
 20
797.49992019706997
 30
0.0
 40
11.02164146812204
 50
263.10403142916709
 51
344.94601058133281
  0
LINE
  5
1C66
  8
0
 10
-545.76395038215026
 20
807.34092413205178
 30
0.0
 11
-545.98627138352595
 21
806.31282861748423
 31
0.0
  0
ARC
  5
1C67
  8
0
 10
-578.79746081834378
 20
654.58160899885206
 30
0.0
 40
155.238323744767
 50
75.222288755020216
 51
77.797929829096802
  0
LINE
  5
1C6C
  8
0
 10
-536.01318584285946
 20
805.2323654370233
 30
0.0
 11
-536.40922817918306
 21
803.40091745400105
 31
0.0
  0
ARC
  5
1C6D
  8
0
 10
-540.96152342102982
 20
805.94927213420806
 30
0.0
 40
5.0
 50
351.7564426411393
 51
163.83941701697429
  0
LINE
  5
1C6E
  8
0
 10
-539.20087862138905
 20
804.68506611228725
 30
0.0
 11
-539.30666589267435
 21
804.1958661787047
 31
0.0
  0
LINE
  5
1CF1
  8
0
 10
-519.88230904111708
 20
797.66533877413667
 30
0.0
 11
-506.56954504096842
 21
802.33767464188236
 31
0.0
  0
LINE
  5
1CF2
  8
0
 10
-521.62810288044921
 20
790.66565529810111
 30
0.0
 11
-504.54486184114688
 21
796.68960789826451
 31
0.0
  0
LINE
  5
1CF3
  8
0
 10
-503.94096458384752
 20
797.96839955550433
 30
0.0
 11
-505.2907533837286
 21
801.73377738458294
 31
0.0
  0
LINE
  5
1CF5
  8
0
 10
-518.68987443969559
 20
798.0927951789522
 30
0.0
 11
-519.92447244078812
 21
794.32583556264331
 31
0.0
  0
ARC
  5
1CF6
  8
0
 10
-531.51813255071784
 20
797.49992019706997
 30
0.0
 40
12.02164146812204
 50
325.3545294487401
 51
344.94601058133281
  0
LINE
  5
1CF7
  8
0
 10
-521.62810288044932
 20
790.66565529810089
 30
0.0
 11
-522.57138762949671
 21
791.06312472366596
 31
0.0
  0
ARC
  5
1D38
  8
0
 10
-506.23209784099822
 20
801.39633018461268
 30
0.0
 40
1.0
 50
19.72141980495223
 51
109.72141980495201
  0
ARC
  5
1D39
  8
0
 10
-504.8823090411172
 20
797.63095235553396
 30
0.0
 40
1.0
 50
289.72141980495292
 51
19.72141980495276
  0
LINE
  5
1D3F
  8
0
 10
-545.98627138352595
 20
669.17624109317444
 30
0.0
 11
-545.98627138352595
 21
655.17624109317455
 31
0.0
  0
LINE
  5
1D40
  8
0
 10
-545.98627138352595
 20
669.17624109317444
 30
0.0
 11
-522.88230904111708
 21
669.17624109317444
 31
0.0
  0
LINE
  5
1D41
  8
0
 10
-535.98627138352595
 20
669.17624109317444
 30
0.0
 11
-535.98627138352595
 21
655.17624109317455
 31
0.0
  0
LINE
  5
1D42
  8
0
 10
-522.88230904111708
 20
669.17624109317444
 30
0.0
 11
-522.88230904111708
 21
655.17624109317444
 31
0.0
  0
LINE
  5
1D43
  8
0
 10
-545.98627138352595
 20
655.17624109317444
 30
0.0
 11
-522.88230904111708
 21
655.17624109317444
 31
0.0
  0
ARC
  5
1D47
  8
0
 10
-648.38230904112083
 20
662.17624109317376
 30
0.0
 40
128.50000000000361
 50
352.84733125000582
 51
7.1526687499946551
  0
ARC
  5
1DCB
  8
0
 10
-648.38230904112083
 20
662.17624109317376
 30
0.0
 40
129.50000000000361
 50
352.90284957133213
 51
7.0971504286682592
  0
ARC
  5
1DCC
  8
0
 10
-647.38230904112083
 20
662.17624109317376
 30
0.0
 40
143.50000000000361
 50
353.95767158094628
 51
6.0423284190539732
  0
LINE
  5
1DCF
  8
0
 10
-520.07311217666802
 20
669.17624109317444
 30
0.0
 11
-519.07163662773905
 21
669.17624109317444
 31
0.0
  0
LINE
  5
1DD0
  8
0
 10
-520.07311217666779
 20
655.17624109317444
 30
0.0
 11
-519.07163662773905
 21
655.17624109317444
 31
0.0
  0
LINE
  5
1DD1
  8
0
 10
-519.87452717558165
 20
646.17624109317455
 30
0.0
 11
-505.67398183343312
 21
646.17624109317467
 31
0.0
  0
LINE
  5
1DD2
  8
0
 10
-519.87452717558199
 20
678.17624109317399
 30
0.0
 11
-505.67398183343317
 21
678.17624109317387
 31
0.0
  0
ARC
  5
1DD3
  8
0
 10
-505.67398183343317
 20
677.17624109317399
 30
0.0
 40
1.0
 50
6.0423284190513904
 51
90.0
  0
ARC
  5
1DD4
  8
0
 10
-505.67398183343312
 20
647.17624109317455
 30
0.0
 40
1.0
 50
270.0
 51
353.95767158094242
  0
LINE
  5
1ED5
  8
0
 10
-604.93877502800171
 20
809.16533877413701
 30
0.0
 11
-563.62821813659809
 21
809.16533877413701
 31
0.0
  0
LINE
  5
1F9C
  8
0
 10
-653.38190275438888
 20
810.94927213420817
 30
0.0
 11
-667.38190275438888
 21
810.94927213420817
 31
0.0
  0
LINE
  5
1F9D
  8
0
 10
-653.38190275438865
 20
802.30070258531941
 30
0.0
 11
-653.38190275438865
 21
810.94927213420817
 31
0.0
  0
ARC
  5
1FA0
  8
0
 10
-660.38190275438785
 20
546.14633018463564
 30
0.0
 40
256.24999999997692
 50
86.420178783507765
 51
93.579821216492704
  0
ARC
  5
1FA1
  8
0
 10
-660.38190275438785
 20
546.14633018463564
 30
0.0
 40
251.24999999997689
 50
86.348842918297635
 51
93.651157081702834
  0
LINE
  5
1FA2
  8
0
 10
-667.38190275438888
 20
802.30070258531941
 30
0.0
 11
-667.38190275438888
 21
810.94927213420817
 31
0.0
  0
LINE
  5
1FA3
  8
0
 10
-667.38190275438888
 20
809.16533877413701
 30
0.0
 11
-674.38190275438899
 21
809.16533877413701
 31
0.0
  0
LINE
  5
1FA4
  8
0
 10
-653.38190275438888
 20
803.40091745400105
 30
0.0
 11
-667.38190275438888
 21
803.40091745400105
 31
0.0
  0
LINE
  5
1FE5
  8
0
 10
-673.38190275438899
 20
791.39633018461257
 30
0.0
 11
-673.38190275438876
 21
797.05978638017007
 31
0.0
  0
LINE
  5
1FE7
  8
0
 10
-673.38190275438899
 20
791.39633018461257
 30
0.0
 11
-676.38190275438888
 21
791.39633018461257
 31
0.0
  0
LINE
  5
1FE8
  8
0
 10
-647.38190275438865
 20
791.39633018461257
 30
0.0
 11
-647.38190275438876
 21
797.05978638017007
 31
0.0
  0
LINE
  5
1FE9
  8
0
 10
-647.38190275438865
 20
791.39633018461257
 30
0.0
 11
-644.38190275438865
 21
791.39633018461257
 31
0.0
  0
LINE
  5
1FEA
  8
0
 10
-673.38190275438899
 20
793.39633018461268
 30
0.0
 11
-647.38190275438865
 21
793.39633018461268
 31
0.0
  0
ARC
  5
1FEF
  8
0
 10
-449.90385722344882
 20
546.14633018463564
 30
0.0
 40
251.24999999997689
 50
86.800931656024787
 51
93.199068343975739
  0
LINE
  5
1FF1
  8
0
 10
-462.9038572234499
 20
791.39633018461257
 30
0.0
 11
-462.90385722344979
 21
797.05978638017007
 31
0.0
  0
LINE
  5
1FF7
  8
0
 10
-436.90385722344962
 20
791.39633018461257
 30
0.0
 11
-436.90385722344968
 21
797.05978638017007
 31
0.0
  0
LINE
  5
1FFF
  8
0
 10
-462.9038572234499
 20
791.39633018461257
 30
0.0
 11
-462.22838694007379
 21
791.39633018461257
 31
0.0
  0
LINE
  5
2000
  8
0
 10
-437.5793275068263
 20
791.39633018461257
 30
0.0
 11
-436.90385722344962
 21
791.39633018461257
 31
0.0
  0
LINE
  5
2001
  8
0
 10
-459.49246615721529
 20
802.21686944814314
 30
0.0
 11
-440.31524828968469
 21
802.21686944814326
 31
0.0
  0
POLYLINE
  5
2002
  8
0
 66
     1
 10
0.0
 20
0.0
 30
0.0
 70
     1
  0
VERTEX
  5
3BAA
  8
0
 10
-698.82362636206278
 20
847.01096107045009
 30
0.0
  0
VERTEX
  5
3BAB
  8
0
 10
-400.46440917744479
 20
847.01096107045009
 30
0.0
  0
VERTEX
  5
3BAC
  8
0
 10
-400.46440917744479
 20
621.51974360826785
 30
0.0
  0
VERTEX
  5
3BAD
  8
0
 10
-698.82362636206278
 20
621.51974360826785
 30
0.0
  0
SEQEND
  5
3BAE
  8
0
  0
LINE
  5
2009
  8
0
  6
CENTER
 10
176.42602945236581
 20
703.78942813731589
 30
0.0
 11
176.42602945236581
 21
637.78942813731578
 31
0.0
  0
LINE
  5
2013
  8
0
 10
161.12687662323879
 20
879.37179070288153
 30
0.0
 11
217.50455949701191
 21
879.3717907028813
 31
0.0
  0
ARC
  5
2016
  8
0
 10
363.91640813575322
 20
944.7379415471022
 30
0.0
 40
216.92165987945609
 50
202.10141375584939
 51
227.1919902859799
  0
ARC
  5
2017
  8
0
 10
227.5045594970118
 20
795.6217907028813
 30
0.0
 40
20.0
 50
183.5077296259285
 51
59.005790258456649
  0
LINE
  5
201C
  8
0
  6
CENTER
 10
160.0045594970118
 20
795.62179070288141
 30
0.0
 11
295.00455949701183
 21
795.62179070288141
 31
0.0
  0
LINE
  5
201D
  8
0
  6
CENTER
 10
132.9260294523659
 20
670.78942813731589
 30
0.0
 11
310.18087514043339
 21
670.78942813731589
 31
0.0
  0
LINE
  5
201E
  8
0
 10
213.6581479065735
 20
794.12521657198977
 30
0.0
 11
213.6581479065735
 21
874.37179070288141
 31
0.0
  0
LINE
  5
201F
  8
0
 10
111.1057759055569
 20
813.6217907028813
 30
0.0
 11
111.1057759055568
 21
876.37179070288175
 31
0.0
  0
LINE
  5
2020
  8
0
 10
91.105775905556811
 20
858.38073026137329
 30
0.0
 11
91.105775905556683
 21
876.11069325483447
 31
0.0
  0
LINE
  5
2021
  8
0
 10
71.105775905556698
 20
858.38073026137329
 30
0.0
 11
71.105775905556811
 21
876.11069325483447
 31
0.0
  0
LINE
  5
2022
  8
0
 10
207.1581479065735
 20
799.66584803607986
 30
0.0
 11
207.15814790657359
 21
874.37179070288141
 31
0.0
  0
LINE
  5
2023
  8
0
 10
101.6057759055564
 20
781.89081535167452
 30
0.0
 11
101.6057759055561
 21
876.37179070288175
 31
0.0
  0
LINE
  5
2024
  8
0
  6
CENTER
 10
81.105775905556811
 20
898.12179070288153
 30
0.0
 11
81.105775905556811
 21
728.12179070288141
 31
0.0
  0
LINE
  5
2025
  8
0
 10
51.105775905556811
 20
813.6217907028813
 30
0.0
 11
51.105775905556811
 21
876.37179070288175
 31
0.0
  0
LINE
  5
2026
  8
0
 10
60.605775905557209
 20
781.89081535167452
 30
0.0
 11
60.605775905557493
 21
876.37179070288175
 31
0.0
  0
ARC
  5
2027
  8
0
 10
81.105775905556754
 20
600.04568072394568
 30
0.0
 40
258.52852418931502
 50
85.840768809615724
 51
94.159231190384261
  0
LINE
  5
2028
  8
0
 10
100.783943662845
 20
847.14578047349096
 30
0.0
 11
61.427608148268519
 21
847.14578047349084
 31
0.0
  0
ARC
  5
2029
  8
0
 10
81.105775905556868
 20
595.4106774813929
 30
0.0
 40
258.52852418931502
 50
85.634649935394336
 51
94.365350064605636
  0
ARC
  5
202A
  8
0
 10
81.105775905556754
 20
761.22179070288075
 30
0.0
 40
28.099999999999419
 50
239.4606445234071
 51
300.53935547659353
  0
LINE
  5
202B
  8
0
 10
65.105775905556982
 20
740.03429439019851
 30
0.0
 11
65.10577590555738
 21
847.14578047349096
 31
0.0
  0
LINE
  5
202C
  8
0
 10
62.605775905557152
 20
847.14578047349119
 30
0.0
 11
62.605775905557209
 21
771.62179070288119
 31
0.0
  0
LINE
  5
202D
  8
0
 10
55.605775905557152
 20
792.37179070288141
 30
0.0
 11
55.605775905557152
 21
798.87179070288164
 31
0.0
  0
ARC
  5
202E
  8
0
 10
61.38702590555755
 20
798.87179070288164
 30
0.0
 40
5.7812500000003926
 50
145.79454206189649
 51
214.20545793810371
  0
LINE
  5
202F
  8
0
 10
56.605775905557103
 20
795.62179070288164
 30
0.0
 11
60.605775905557273
 21
795.62179070288153
 31
0.0
  0
LINE
  5
2030
  8
0
 10
56.605775905557103
 20
789.1217907028813
 30
0.0
 11
60.605775905557152
 21
789.1217907028813
 31
0.0
  0
ARC
  5
2031
  8
0
 10
61.38702590555755
 20
792.37179070288141
 30
0.0
 40
5.7812500000003926
 50
145.79454206189621
 51
214.20545793810351
  0
LINE
  5
2032
  8
0
 10
65.105775905557039
 20
755.62179070288096
 30
0.0
 11
62.605775905557152
 21
771.62179070288096
 31
0.0
  0
ARC
  5
2033
  8
0
 10
68.605775905557039
 20
740.03429439019851
 30
0.0
 40
3.5
 50
180.0
 51
239.46064452340741
  0
LINE
  5
2034
  8
0
 10
60.605775905557152
 20
781.89081535167463
 30
0.0
 11
62.605775905557152
 21
781.89081535167463
 31
0.0
  0
LINE
  5
2035
  8
0
 10
56.605775905556982
 20
802.12179070288141
 30
0.0
 11
60.605775905557323
 21
802.12179070288141
 31
0.0
  0
ARC
  5
2036
  8
0
 10
72.998776045413138
 20
812.22668918866532
 30
0.0
 40
21.937405574924341
 50
176.35383474943521
 51
217.54765621180599
  0
LINE
  5
2037
  8
0
 10
61.427608148268462
 20
847.14578047349084
 30
0.0
 11
61.427608148268689
 21
856.89596166667127
 31
0.0
  0
ARC
  5
2038
  8
0
 10
62.427608148268739
 20
856.8959616666715
 30
0.0
 40
1.0
 50
94.159231190379685
 51
180.00000000000651
  0
LINE
  5
203E
  8
0
 10
106.6057759055564
 20
792.37179070288141
 30
0.0
 11
106.6057759055564
 21
798.87179070288164
 31
0.0
  0
LINE
  5
203F
  8
0
 10
109.38591794252579
 20
799.02179070288105
 30
0.0
 11
109.38591794252569
 21
792.22179070288155
 31
0.0
  0
LINE
  5
2040
  8
0
 10
108.7859179425257
 20
791.62179070288153
 30
0.0
 11
108.7859179425258
 21
799.62179070288107
 31
0.0
  0
ARC
  5
2041
  8
0
 10
100.824525905556
 20
798.87179070288164
 30
0.0
 40
5.7812500000003926
 50
325.79454206189621
 51
34.205457938103478
  0
LINE
  5
2042
  8
0
 10
99.60577590555647
 20
847.14578047349119
 30
0.0
 11
99.605775905556413
 21
771.62179070288119
 31
0.0
  0
LINE
  5
2043
  8
0
 10
97.105775905556655
 20
740.03429439019862
 30
0.0
 11
97.105775905556243
 21
847.14578047349096
 31
0.0
  0
LINE
  5
2044
  8
0
 10
97.105775905556584
 20
755.62179070288096
 30
0.0
 11
99.60577590555647
 21
771.62179070288096
 31
0.0
  0
ARC
  5
2045
  8
0
 10
93.605775905556683
 20
740.03429439019862
 30
0.0
 40
3.5
 50
300.53935547659353
 51
0.0
  0
LINE
  5
2046
  8
0
 10
101.6057759055564
 20
781.89081535167463
 30
0.0
 11
99.60577590555647
 21
781.89081535167463
 31
0.0
  0
LINE
  5
2047
  8
0
 10
108.7859179425257
 20
791.62179070288153
 30
0.0
 11
106.6057759055567
 21
791.62179070288153
 31
0.0
  0
ARC
  5
2048
  8
0
 10
100.824525905556
 20
792.37179070288141
 30
0.0
 40
5.7812500000003926
 50
325.79454206189649
 51
34.205457938103777
  0
LINE
  5
2049
  8
0
 10
105.6057759055565
 20
795.62179070288164
 30
0.0
 11
101.6057759055563
 21
795.62179070288153
 31
0.0
  0
LINE
  5
204A
  8
0
 10
105.6057759055565
 20
789.1217907028813
 30
0.0
 11
101.6057759055564
 21
789.1217907028813
 31
0.0
  0
LINE
  5
204B
  8
0
 10
109.38591794252579
 20
792.22179070288234
 30
0.0
 11
106.6057759055564
 21
792.22179070288234
 31
0.0
  0
LINE
  5
204C
  8
0
 10
108.7859179425257
 20
791.62179070288153
 30
0.0
 11
109.38591794252569
 21
792.22179070288155
 31
0.0
  0
LINE
  5
204D
  8
0
 10
108.7859179425258
 20
799.62179070288107
 30
0.0
 11
106.6057759055567
 21
799.62179070288153
 31
0.0
  0
ARC
  5
204E
  8
0
 10
89.212775765700485
 20
812.22668918866532
 30
0.0
 40
21.937405574924341
 50
322.45226860584847
 51
322.45234378819481
  0
LINE
  5
204F
  8
0
 10
105.6057759055566
 20
802.12179070288141
 30
0.0
 11
101.6057759055563
 21
802.12179070288141
 31
0.0
  0
LINE
  5
2050
  8
0
 10
109.38591794252579
 20
799.02179070288105
 30
0.0
 11
106.6057759055564
 21
799.02179070288105
 31
0.0
  0
LINE
  5
2051
  8
0
 10
108.7859179425258
 20
799.62179070288107
 30
0.0
 11
109.38591794252579
 21
799.02179070288105
 31
0.0
  0
ARC
  5
2052
  8
0
 10
89.212775765700485
 20
812.22668918866532
 30
0.0
 40
21.937405574924341
 50
324.92944350753669
 51
3.6461652505647368
  0
ARC
  5
2053
  8
0
 10
99.783943662844763
 20
856.8959616666715
 30
0.0
 40
1.0
 50
359.99999999999341
 51
85.840768809617074
  0
LINE
  5
2054
  8
0
 10
100.783943662845
 20
847.14578047349084
 30
0.0
 11
100.78394366284471
 21
856.89596166667127
 31
0.0
  0
LINE
  5
2055
  8
0
 10
91.105775905556683
 20
876.11069325483447
 30
0.0
 11
71.105775905556868
 21
876.11069325483436
 31
0.0
  0
LINE
  5
2056
  8
0
 10
91.105775905556754
 20
865.41595203451141
 30
0.0
 11
71.105775905556811
 21
865.41595203451118
 31
0.0
  0
ARC
  5
205D
  8
0
 10
54.105775905556811
 20
876.37179070288175
 30
0.0
 40
3.0
 50
90.0
 51
180.0
  0
ARC
  5
205E
  8
0
 10
63.605775905557493
 20
876.37179070288175
 30
0.0
 40
3.0
 50
89.999999999999815
 51
179.99999999999969
  0
ARC
  5
2060
  8
0
 10
98.605775905556143
 20
876.37179070288175
 30
0.0
 40
3.0
 50
0.000000000000229
 51
90.000000000000185
  0
ARC
  5
2062
  8
0
 10
108.1057759055568
 20
876.37179070288175
 30
0.0
 40
3.0
 50
0.0
 51
90.0
  0
LINE
  5
2067
  8
0
 10
159.5045594970118
 20
874.1217907028813
 30
0.0
 11
159.6276637073411
 21
877.92037704670042
 31
0.0
  0
ARC
  5
2068
  8
0
 10
161.12687662323879
 20
877.87179070288153
 30
0.0
 40
1.5
 50
90.0
 51
178.1438136990557
  0
LINE
  5
2069
  8
0
 10
159.5045594970118
 20
874.1217907028813
 30
0.0
 11
162.93429339359051
 21
863.12179070288141
 31
0.0
  0
LINE
  5
206B
  8
0
  6
CENTER
 10
189.5045594970118
 20
874.37179070288141
 30
0.0
 11
189.5045594970118
 21
896.12179070288164
 31
0.0
  0
LINE
  5
206D
  8
0
 10
429.41881802239573
 20
821.99064011077166
 30
0.0
 11
429.41881802239561
 21
876.62179070288153
 31
0.0
  0
LINE
  5
206E
  8
0
 10
369.41881802239561
 20
821.99064011077166
 30
0.0
 11
369.41881802239573
 21
876.62179070288153
 31
0.0
  0
ARC
  5
206F
  8
0
 10
412.94457541359378
 20
831.14209497737193
 30
0.0
 40
41.513642741861631
 50
112.0474616778672
 51
173.45855430953989
  0
ARC
  5
2071
  8
0
 10
384.25868368633149
 20
829.22016861720044
 30
0.0
 40
45.501415919398731
 50
7.0218803637322829
 51
53.524281678076221
  0
LINE
  5
2072
  8
0
 10
417.91881802239521
 20
857.55673859069896
 30
0.0
 11
417.91881802239521
 21
771.62179070288062
 31
0.0
  0
LINE
  5
2073
  8
0
 10
380.91881802239601
 20
857.55673859069873
 30
0.0
 11
380.91881802239612
 21
771.62179070288084
 31
0.0
  0
LINE
  5
2074
  8
0
  6
CENTER
 10
399.41881802239573
 20
898.12179070288153
 30
0.0
 11
399.41881802239573
 21
728.12179070288119
 31
0.0
  0
ARC
  5
2075
  8
0
 10
414.5789523584599
 20
829.22016861720044
 30
0.0
 40
45.501415919398752
 50
126.47571832192369
 51
172.97811963626771
  0
CIRCLE
  5
2076
  8
0
 10
233.5045594970118
 20
862.12179070288164
 30
0.0
 40
3.0
  0
LINE
  5
2077
  8
0
  6
CENTER
 10
227.5045594970118
 20
728.12179070288119
 30
0.0
 11
227.5045594970118
 21
863.12179070288119
 31
0.0
  0
ARC
  5
2078
  8
0
 10
204.64184579420831
 20
661.11481743659647
 30
0.0
 40
218.63566905507449
 50
62.854290978944789
 51
86.627242891047032
  0
LINE
  5
2079
  8
0
 10
254.78113346575401
 20
680.78942813731567
 30
0.0
 11
287.31692197160282
 21
680.78942813731567
 31
0.0
  0
LINE
  5
207A
  8
0
 10
254.78113346575401
 20
660.78942813731589
 30
0.0
 11
287.31692197160282
 21
660.78942813731567
 31
0.0
  0
LINE
  5
207B
  8
0
 10
214.9260294523659
 20
650.28942813731567
 30
0.0
 11
287.19064723767252
 21
650.28942813731533
 31
0.0
  0
LINE
  5
207C
  8
0
 10
214.92602945236581
 20
691.28942813731612
 30
0.0
 11
287.19064723767252
 21
691.28942813731635
 31
0.0
  0
LINE
  5
2090
  8
0
 10
254.78113346575401
 20
680.78942813731567
 30
0.0
 11
254.78113346575401
 21
660.78942813731589
 31
0.0
  0
ARC
  5
2092
  8
0
 10
219.77525530493261
 20
670.78942813731589
 30
0.0
 40
71.54166666667021
 50
344.26031922947811
 51
15.73968077052186
  0
LINE
  5
2093
  8
0
 10
287.31692197160282
 20
660.78942813731589
 30
0.0
 11
287.31692197160282
 21
680.78942813731567
 31
0.0
  0
LINE
  5
2094
  8
0
 10
269.42602945236581
 20
680.78942813731578
 30
0.0
 11
269.42602945236581
 21
660.78942813731589
 31
0.0
  0
ARC
  5
2095
  8
0
 10
287.19064723767252
 20
651.78942813731533
 30
0.0
 40
1.5
 50
270.0
 51
344.26031922947811
  0
ARC
  5
2096
  8
0
 10
287.19064723767252
 20
689.78942813731635
 30
0.0
 40
1.5
 50
15.73968077052186
 51
90.0
  0
ARC
  5
2097
  8
0
 10
234.63920847376329
 20
670.78942813731589
 30
0.0
 40
72.54166666667021
 50
345.17424270041488
 51
14.82575729958349
  0
ARC
  5
2098
  8
0
 10
232.26242280456211
 20
670.78942813731589
 30
0.0
 40
72.54166666667021
 50
345.17424270041488
 51
14.82575729958349
  0
ARC
  5
2099
  8
0
 10
219.77525530493261
 20
670.78942813731589
 30
0.0
 40
72.54166666667021
 50
344.26031922947811
 51
15.73968077052186
  0
ARC
  5
209A
  8
0
 10
303.3157883228368
 20
652.61126038002794
 30
0.0
 40
1.5
 50
270.0
 51
345.17424270041641
  0
ARC
  5
209B
  8
0
 10
300.93900265363573
 20
652.61126038002794
 30
0.0
 40
1.5
 50
270.0
 51
345.17424270041641
  0
LINE
  5
209C
  8
0
 10
290.61458103185458
 20
660.78942813731601
 30
0.0
 11
291.62435691920672
 21
660.78942813731589
 31
0.0
  0
LINE
  5
209D
  8
0
 10
289.59690750891821
 20
651.11126038002806
 30
0.0
 11
303.3157883228368
 21
651.11126038002794
 31
0.0
  0
ARC
  5
209E
  8
0
 10
303.3157883228368
 20
688.96759589460385
 30
0.0
 40
1.5
 50
14.82575729958349
 51
90.0
  0
ARC
  5
209F
  8
0
 10
300.93900265363573
 20
688.96759589460385
 30
0.0
 40
1.5
 50
14.82575729958349
 51
90.0
  0
LINE
  5
20A0
  8
0
 10
290.61458103185458
 20
680.78942813731567
 30
0.0
 11
291.62435691920672
 21
680.78942813731578
 31
0.0
  0
LINE
  5
20A1
  8
0
 10
289.59690750891821
 20
690.46759589460373
 30
0.0
 11
303.3157883228368
 21
690.46759589460385
 31
0.0
  0
ARC
  5
20A2
  8
0
 10
249.23342211991081
 20
990.17491509336833
 30
0.0
 40
150.0
 50
266.37008794380392
 51
288.13203192242202
  0
CIRCLE
  5
20A4
  8
0
 10
227.5045594970118
 20
795.62179070288141
 30
0.0
 40
6.5
  0
POLYLINE
  5
20A5
  8
0
 66
     1
 10
0.0
 20
0.0
 30
0.0
 70
     1
  0
VERTEX
  5
3BAF
  8
0
 10
223.75178274727929
 20
802.12179070288141
 30
0.0
  0
VERTEX
  5
3BB0
  8
0
 10
219.9990059975467
 20
795.62179070288141
 30
0.0
  0
VERTEX
  5
3BB1
  8
0
 10
223.75178274727929
 20
789.1217907028813
 30
0.0
  0
VERTEX
  5
3BB2
  8
0
 10
231.25733624674439
 20
789.1217907028813
 30
0.0
  0
VERTEX
  5
3BB3
  8
0
 10
235.01011299647701
 20
795.62179070288141
 30
0.0
  0
VERTEX
  5
3BB4
  8
0
 10
231.25733624674439
 20
802.12179070288141
 30
0.0
  0
SEQEND
  5
3BB5
  8
0
  0
ARC
  5
20A6
  8
0
 10
225.59809210325719
 20
794.89081535167452
 30
0.0
 40
13.0
 50
225.6379573356578
 51
349.22731283228251
  0
ARC
  5
20A7
  8
0
 10
233.45710381185231
 20
793.39551104680345
 30
0.0
 40
5.0
 50
349.22731283228251
 51
357.84936409849018
  0
LINE
  5
20A9
  8
0
 10
303.50455949701183
 20
856.12179070288153
 30
0.0
 11
301.72177734487201
 21
852.60524803010958
 31
0.0
  0
LINE
  5
20AA
  8
0
 10
301.476238615868
 20
848.17225632941199
 30
0.0
 11
303.8599781293405
 21
853.73393043979775
 31
0.0
  0
ARC
  5
20AB
  8
0
 10
292.80251114695062
 20
857.1270497164528
 30
0.0
 40
10.0
 50
288.13203192242042
 51
333.11635242359478
  0
ARC
  5
20AC
  8
0
 10
204.64184579420831
 20
661.11481743659647
 30
0.0
 40
210.6356690550746
 50
62.029393479289581
 51
63.350524043121538
  0
ARC
  5
20AD
  8
0
 10
331.03824799808029
 20
797.41179236435141
 30
0.0
 40
62.532068877943601
 50
102.1148011732277
 51
116.3686006411653
  0
ARC
  5
20AE
  8
0
 10
279.39665888365579
 20
945.83588057317922
 30
0.0
 40
101.5752126236281
 50
283.6885831336275
 51
293.50550664960309
  0
ARC
  5
20AF
  8
0
 10
204.64184579420831
 20
661.11481743659647
 30
0.0
 40
216.13566905507449
 50
62.851259742764121
 51
63.11635242359489
  0
LINE
  5
20B0
  8
0
 10
304.39648611680389
 20
855.66961053424734
 30
0.0
 11
303.26498963329198
 21
853.43773062475543
 31
0.0
  0
ARC
  5
20B1
  8
0
 10
319.50455949701183
 20
853.6039282866999
 30
0.0
 40
1.0
 50
293.83306731080779
 51
19.125176989789011
  0
ARC
  5
20B2
  8
0
 10
318.1277738278107
 20
857.5742049132607
 30
0.0
 40
1.0
 50
19.125176989792621
 51
102.3101096266484
  0
LINE
  5
20B3
  8
0
 10
319.0725788622056
 20
857.90183801137835
 30
0.0
 11
320.44936453140662
 21
853.93156138481766
 31
0.0
  0
LINE
  5
20B6
  8
0
 10
383.41881802239578
 20
740.03429439019851
 30
0.0
 11
383.41881802239629
 21
851.2092870155642
 31
0.0
  0
LINE
  5
20B7
  8
0
 10
373.91881802239601
 20
792.37179070288141
 30
0.0
 11
373.91881802239601
 21
798.87179070288164
 31
0.0
  0
LINE
  5
20B8
  8
0
 10
371.73867598542682
 20
791.62179070288153
 30
0.0
 11
371.73867598542671
 21
799.62179070288107
 31
0.0
  0
LINE
  5
20B9
  8
0
 10
371.13867598542669
 20
799.02179070288105
 30
0.0
 11
371.1386759854268
 21
792.22179070288155
 31
0.0
  0
ARC
  5
20BA
  8
0
 10
379.70006802239641
 20
798.87179070288164
 30
0.0
 40
5.7812500000003926
 50
156.19186875708411
 51
214.20545793810371
  0
ARC
  5
20BB
  8
0
 10
419.9243619220855
 20
823.12857341991435
 30
0.0
 40
50.518361580909882
 50
181.29070477838411
 51
215.73804805742441
  0
ARC
  5
20BC
  8
0
 10
419.9243619220855
 20
823.12857341991435
 30
0.0
 40
48.518361580909868
 50
181.29070477838411
 51
216.49260192679449
  0
LINE
  5
20BF
  8
0
 10
378.91881802239612
 20
781.89081535167452
 30
0.0
 11
378.91881802239612
 21
793.6217907028813
 31
0.0
  0
LINE
  5
20C0
  8
0
 10
378.91881802239601
 20
781.89081535167463
 30
0.0
 11
380.91881802239601
 21
781.89081535167463
 31
0.0
  0
ARC
  5
20C1
  8
0
 10
379.70006802239641
 20
792.37179070288141
 30
0.0
 40
5.7812500000003926
 50
145.79454206189621
 51
214.20545793810351
  0
LINE
  5
20C2
  8
0
 10
371.73867598542682
 20
791.62179070288153
 30
0.0
 11
371.1386759854268
 21
792.22179070288155
 31
0.0
  0
LINE
  5
20C3
  8
0
 10
371.73867598542682
 20
791.62179070288153
 30
0.0
 11
373.91881802239573
 21
791.62179070288153
 31
0.0
  0
LINE
  5
20C4
  8
0
 10
371.13867598542669
 20
792.22179070288234
 30
0.0
 11
373.91881802239601
 21
792.22179070288234
 31
0.0
  0
LINE
  5
20C5
  8
0
 10
374.91881802239601
 20
795.62179070288164
 30
0.0
 11
377.55123646056802
 21
795.62179070288164
 31
0.0
  0
LINE
  5
20C6
  8
0
 10
374.91881802239601
 20
789.1217907028813
 30
0.0
 11
378.91881802239601
 21
789.1217907028813
 31
0.0
  0
LINE
  5
20C7
  8
0
 10
380.91881802239601
 20
844.2053198201877
 30
0.0
 11
383.41881802239629
 21
844.2053198201877
 31
0.0
  0
LINE
  5
20CA
  8
0
 10
371.41881802239561
 20
821.99064011077166
 30
0.0
 11
371.41881802239573
 21
833.51177399440166
 31
0.0
  0
ARC
  5
20CB
  8
0
 10
391.311818162252
 20
812.22668918866532
 30
0.0
 40
21.937405574924341
 50
217.5476562118051
 51
217.5477313941515
  0
LINE
  5
20CC
  8
0
 10
371.73867598542671
 20
799.62179070288107
 30
0.0
 11
371.13867598542669
 21
799.02179070288105
 31
0.0
  0
LINE
  5
20CD
  8
0
 10
371.73867598542671
 20
799.62179070288107
 30
0.0
 11
373.91881802239573
 21
799.62179070288153
 31
0.0
  0
LINE
  5
20CE
  8
0
 10
371.13867598542669
 20
799.02179070288105
 30
0.0
 11
373.91881802239601
 21
799.02179070288105
 31
0.0
  0
ARC
  5
20CF
  8
0
 10
381.41881802239573
 20
833.51177399440166
 30
0.0
 40
10.0
 50
166.35158156184849
 51
180.0
  0
LINE
  5
20D0
  8
0
 10
424.91881802239539
 20
792.37179070288141
 30
0.0
 11
424.91881802239539
 21
798.87179070288164
 31
0.0
  0
ARC
  5
20D1
  8
0
 10
419.13756802239487
 20
798.87179070288164
 30
0.0
 40
5.7812500000003926
 50
325.79454206189621
 51
23.808131242915799
  0
ARC
  5
20D2
  8
0
 10
378.9132741227059
 20
823.12857341991435
 30
0.0
 40
50.518361580909882
 50
324.26195194257548
 51
358.70929522161578
  0
LINE
  5
20D3
  8
0
 10
415.41881802239573
 20
740.03429439019862
 30
0.0
 11
415.41881802239499
 21
851.2092870155642
 31
0.0
  0
ARC
  5
20D4
  8
0
 10
378.9132741227059
 20
823.12857341991435
 30
0.0
 40
48.518361580909868
 50
323.50739807320542
 51
358.70929522161578
  0
ARC
  5
20D7
  8
0
 10
419.13756802239487
 20
792.37179070288141
 30
0.0
 40
5.7812500000003926
 50
325.79454206189649
 51
34.205457938103777
  0
LINE
  5
20D8
  8
0
 10
419.91881802239539
 20
781.89081535167452
 30
0.0
 11
419.91881802239533
 21
793.6217907028813
 31
0.0
  0
LINE
  5
20D9
  8
0
 10
423.91881802239539
 20
795.62179070288164
 30
0.0
 11
421.28639958422337
 21
795.62179070288164
 31
0.0
  0
LINE
  5
20DA
  8
0
 10
423.91881802239539
 20
789.1217907028813
 30
0.0
 11
419.91881802239539
 21
789.1217907028813
 31
0.0
  0
LINE
  5
20DB
  8
0
 10
419.91881802239539
 20
781.89081535167463
 30
0.0
 11
417.91881802239533
 21
781.89081535167463
 31
0.0
  0
LINE
  5
20DC
  8
0
 10
427.41881802239578
 20
821.99064011077166
 30
0.0
 11
427.41881802239573
 21
833.51177399440166
 31
0.0
  0
LINE
  5
20DF
  8
0
 10
415.4188180223951
 20
844.2053198201877
 30
0.0
 11
417.91881802239533
 21
844.2053198201877
 31
0.0
  0
ARC
  5
20E0
  8
0
 10
417.41881802239573
 20
833.51177399440166
 30
0.0
 40
10.0
 50
0.0
 51
13.6484184381515
  0
ARC
  5
20E2
  8
0
 10
275.0787702360351
 20
868.18531046969622
 30
0.0
 40
7.9253827851382752
 50
339.54760693866939
 51
155.62784225896269
  0
LINE
  5
20E5
  8
0
 10
406.91881802239573
 20
863.12179070288141
 30
0.0
 11
412.36345154260579
 21
863.12179070288119
 31
0.0
  0
LINE
  5
20E9
  8
0
 10
386.47418450218578
 20
863.12179070288141
 30
0.0
 11
391.91881802239573
 21
863.12179070288153
 31
0.0
  0
LINE
  5
20EE
  8
0
 10
390.91881802239573
 20
866.33085092359727
 30
0.0
 11
390.91881802239573
 21
863.12179070288141
 31
0.0
  0
LINE
  5
20EF
  8
0
 10
391.91881802239573
 20
866.93734689470591
 30
0.0
 11
391.91881802239573
 21
863.12179070288141
 31
0.0
  0
LINE
  5
20F0
  8
0
 10
406.91881802239573
 20
866.93734689470591
 30
0.0
 11
406.91881802239573
 21
863.12179070288141
 31
0.0
  0
LINE
  5
20F1
  8
0
 10
407.91881802239561
 20
866.33085092359727
 30
0.0
 11
407.91881802239561
 21
863.12179070288141
 31
0.0
  0
ARC
  5
20F6
  8
0
 10
227.5045594970118
 20
795.6217907028813
 30
0.0
 40
56.5
 50
145.1440493970878
 51
52.898640002814943
  0
ARC
  5
20F7
  8
0
 10
227.5045594970118
 20
795.6217907028813
 30
0.0
 40
62.5
 50
142.78259805577031
 51
47.358796901857829
  0
ARC
  5
20F8
  8
0
 10
227.5045594970118
 20
795.6217907028813
 30
0.0
 40
40.0
 50
154.11884299622821
 51
80.011902750621516
  0
ARC
  5
20F9
  8
0
 10
227.5045594970118
 20
795.6217907028813
 30
0.0
 40
42.5
 50
152.40558710369771
 51
80.065225798725137
  0
ARC
  5
20FA
  8
0
 10
227.5045594970118
 20
795.6217907028813
 30
0.0
 40
25.0
 50
171.10821188839421
 51
67.219858374405391
  0
ARC
  5
20FD
  8
0
 10
239.42013270044379
 20
835.48587427027132
 30
0.0
 40
5.0
 50
86.370087943804037
 51
187.43454665430511
  0
LINE
  5
213F
  8
0
 10
267.85966351040003
 20
871.45581354641956
 30
0.0
 11
275.0507945778665
 21
868.10306762085281
 31
0.0
  0
ARC
  5
2180
  8
0
 10
59.390932067081557
 20
797.04692503805893
 30
0.0
 40
179.10379912182219
 50
358.7717842187966
 51
12.181314712848719
  0
ARC
  5
224A
  8
0
 10
399.41881802239573
 20
849.7260833933484
 30
0.0
 40
20.0
 50
53.52428167807625
 51
126.47571832192369
  0
ARC
  5
224C
  8
0
 10
385.89306063119761
 20
831.14209497737193
 30
0.0
 40
41.513642741861631
 50
6.541445690460046
 51
67.952538322132753
  0
ARC
  5
224D
  8
0
 10
399.41881802239561
 20
761.22179070288075
 30
0.0
 40
28.099999999999419
 50
239.4606445234071
 51
300.53935547659353
  0
LINE
  5
2250
  8
0
 10
383.41881802239578
 20
755.62179070288175
 30
0.0
 11
380.91881802239601
 21
771.62179070288096
 31
0.0
  0
ARC
  5
2251
  8
0
 10
386.9188180223959
 20
740.03429439019851
 30
0.0
 40
3.5
 50
180.0
 51
239.46064452340741
  0
LINE
  5
2253
  8
0
 10
415.41881802239533
 20
755.62179070288073
 30
0.0
 11
417.91881802239533
 21
771.62179070288096
 31
0.0
  0
ARC
  5
2254
  8
0
 10
411.91881802239561
 20
740.03429439019862
 30
0.0
 40
3.5
 50
300.53935547659353
 51
0.0
  0
LINE
  5
2297
  8
0
 10
383.41881802239578
 20
835.62179070288096
 30
0.0
 11
380.91881802239601
 21
819.62179070288175
 31
0.0
  0
LINE
  5
2298
  8
0
 10
415.41881802239533
 20
835.62179070288198
 30
0.0
 11
417.91881802239533
 21
819.62179070288175
 31
0.0
  0
ARC
  5
2299
  8
0
 10
399.41881802239561
 20
830.02179070288196
 30
0.0
 40
28.099999999999419
 50
59.460644523406501
 51
120.5393554765928
  0
ARC
  5
229A
  8
0
 10
386.9188180223959
 20
851.2092870155642
 30
0.0
 40
3.5
 50
120.5393554765926
 51
180.0
  0
ARC
  5
229B
  8
0
 10
411.91881802239561
 20
851.2092870155642
 30
0.0
 40
3.5
 50
0.0
 51
59.460644523406501
  0
LINE
  5
239D
  8
0
  6
CENTER
 10
367.02874700391118
 20
795.62179070288084
 30
0.0
 11
431.80888904088027
 21
795.62179070288153
 31
0.0
  0
LINE
  5
239E
  8
0
  6
CENTER
 10
48.71570488707232
 20
795.62179070288084
 30
0.0
 11
113.4958469240414
 21
795.62179070288153
 31
0.0
  0
LINE
  5
23A0
  8
0
  6
CENTER
 10
537.69092885527982
 20
826.13393785372102
 30
0.0
 11
602.47107089224892
 21
826.13393785372148
 31
0.0
  0
ARC
  5
23A1
  8
0
 10
570.08099987376431
 20
779.23393785372093
 30
0.0
 40
28.099999999999419
 50
239.4606445234071
 51
300.53935547659353
  0
ARC
  5
23A2
  8
0
 10
570.08099987376431
 20
643.05782787478574
 30
0.0
 40
258.52852418931502
 50
85.840768809615724
 51
94.159231190384261
  0
LINE
  5
23A3
  8
0
 10
589.75916763105261
 20
890.15792762433102
 30
0.0
 11
550.40283211647602
 21
890.15792762433102
 31
0.0
  0
ARC
  5
23A4
  8
0
 10
570.08099987376431
 20
638.42282463223296
 30
0.0
 40
258.52852418931502
 50
85.634649935394336
 51
94.365350064605636
  0
LINE
  5
23A6
  8
0
 10
543.0809998737642
 20
922.38393785372148
 30
0.0
 11
597.0809998737642
 21
922.38393785372193
 31
0.0
  0
LINE
  5
23A8
  8
0
  6
CENTER
 10
570.08099987376431
 20
941.13393785372148
 30
0.0
 11
570.08099987376431
 21
746.13393785372159
 31
0.0
  0
LINE
  5
23AA
  8
0
 10
554.08099987376454
 20
758.04644154103869
 30
0.0
 11
554.08099987376488
 21
890.15792762433102
 31
0.0
  0
LINE
  5
23AB
  8
0
 10
551.58099987376465
 20
890.15792762433125
 30
0.0
 11
551.58099987376477
 21
791.13393785372125
 31
0.0
  0
LINE
  5
23AC
  8
0
 10
549.58099987376465
 20
812.40296250251458
 30
0.0
 11
549.58099987376499
 21
919.38393785372182
 31
0.0
  0
LINE
  5
23AE
  8
0
 10
549.58099987376465
 20
812.40296250251458
 30
0.0
 11
551.58099987376465
 21
812.40296250251458
 31
0.0
  0
ARC
  5
23AF
  8
0
 10
557.58099987376454
 20
758.04644154103869
 30
0.0
 40
3.5
 50
180.0
 51
239.46064452340741
  0
LINE
  5
23B0
  8
0
 10
540.08099987376431
 20
844.13393785372125
 30
0.0
 11
540.08099987376431
 21
919.38393785372182
 31
0.0
  0
ARC
  5
23B1
  8
0
 10
561.97400001362064
 20
842.73883633950527
 30
0.0
 40
21.937405574924341
 50
176.35383474943521
 51
217.54765621180599
  0
LINE
  5
23B2
  8
0
 10
545.58099987376454
 20
832.63393785372159
 30
0.0
 11
549.58099987376465
 21
832.63393785372159
 31
0.0
  0
ARC
  5
23B3
  8
0
 10
550.36224987376499
 20
822.88393785372136
 30
0.0
 40
5.7812500000003926
 50
145.79454206189621
 51
214.20545793810351
  0
LINE
  5
23B4
  8
0
 10
545.58099987376454
 20
819.63393785372136
 30
0.0
 11
549.58099987376465
 21
819.63393785372136
 31
0.0
  0
LINE
  5
23B5
  8
0
 10
545.58099987376454
 20
826.1339378537217
 30
0.0
 11
549.58099987376465
 21
826.13393785372148
 31
0.0
  0
ARC
  5
23B6
  8
0
 10
550.36224987376499
 20
829.3839378537217
 30
0.0
 40
5.7812500000003926
 50
145.79454206189649
 51
214.20545793810371
  0
LINE
  5
23B7
  8
0
 10
544.58099987376465
 20
822.88393785372136
 30
0.0
 11
544.58099987376465
 21
829.3839378537217
 31
0.0
  0
ARC
  5
23B8
  8
0
 10
551.40283211647625
 20
899.90810881751145
 30
0.0
 40
1.0
 50
94.159231190379685
 51
180.00000000000651
  0
LINE
  5
23B9
  8
0
 10
550.40283211647602
 20
890.15792762433102
 30
0.0
 11
550.40283211647625
 21
899.90810881751145
 31
0.0
  0
ARC
  5
23BC
  8
0
 10
552.58099987376488
 20
919.38393785372182
 30
0.0
 40
3.0
 50
89.999999999999815
 51
179.99999999999969
  0
ARC
  5
23BD
  8
0
 10
543.0809998737642
 20
919.38393785372182
 30
0.0
 40
3.0
 50
90.0
 51
180.0
  0
LINE
  5
23BE
  8
0
 10
580.0809998737642
 20
901.39287741221347
 30
0.0
 11
580.0809998737642
 21
919.12284040567465
 31
0.0
  0
LINE
  5
23BF
  8
0
 10
560.08099987376409
 20
901.39287741221347
 30
0.0
 11
560.08099987376431
 21
919.12284040567465
 31
0.0
  0
LINE
  5
23C0
  8
0
 10
580.0809998737642
 20
908.42809918535136
 30
0.0
 11
560.08099987376431
 21
908.42809918535136
 31
0.0
  0
LINE
  5
23C1
  8
0
 10
580.0809998737642
 20
919.12284040567465
 30
0.0
 11
560.08099987376431
 21
919.12284040567465
 31
0.0
  0
ARC
  5
23C2
  8
0
 10
726.62017077181065
 20
671.54432492848491
 30
0.0
 40
72.54166666667021
 50
345.17424270041488
 51
14.82575729958349
  0
ARC
  5
23C3
  8
0
 10
728.99695644101178
 20
671.54432492848491
 30
0.0
 40
72.54166666667021
 50
345.17424270041488
 51
14.82575729958349
  0
ARC
  5
23C4
  8
0
 10
714.1330032721811
 20
671.54432492848491
 30
0.0
 40
72.54166666667021
 50
344.26031922947811
 51
15.73968077052186
  0
ARC
  5
23C5
  8
0
 10
714.1330032721811
 20
671.54432492848491
 30
0.0
 40
71.54166666667021
 50
344.26031922947811
 51
15.73968077052186
  0
LINE
  5
23CD
  8
0
 10
709.28377741961435
 20
651.04432492848446
 30
0.0
 11
781.54839520492112
 21
651.04432492848423
 31
0.0
  0
LINE
  5
23CE
  8
0
  6
CENTER
 10
634.78377741961435
 20
671.5443249284848
 30
0.0
 11
804.53862310768204
 21
671.5443249284848
 31
0.0
  0
LINE
  5
23D8
  8
0
 10
749.13888143300255
 20
661.54432492848468
 30
0.0
 11
781.67466993885125
 21
661.54432492848457
 31
0.0
  0
LINE
  5
23D9
  8
0
 10
749.13888143300255
 20
681.54432492848468
 30
0.0
 11
781.67466993885125
 21
681.54432492848468
 31
0.0
  0
LINE
  5
23DE
  8
0
 10
749.13888143300255
 20
681.54432492848468
 30
0.0
 11
749.13888143300255
 21
661.54432492848468
 31
0.0
  0
LINE
  5
23DF
  8
0
 10
763.78377741961435
 20
681.5443249284848
 30
0.0
 11
763.78377741961435
 21
661.54432492848468
 31
0.0
  0
LINE
  5
23E0
  8
0
 10
783.95465547616675
 20
651.86615717119696
 30
0.0
 11
797.67353629008528
 21
651.86615717119685
 31
0.0
  0
ARC
  5
23E1
  8
0
 10
781.54839520492112
 20
652.54432492848423
 30
0.0
 40
1.5
 50
270.0
 51
344.26031922947811
  0
ARC
  5
23E2
  8
0
 10
795.29675062088415
 20
653.36615717119685
 30
0.0
 40
1.5
 50
270.0
 51
345.17424270041641
  0
ARC
  5
23E3
  8
0
 10
797.67353629008528
 20
653.36615717119685
 30
0.0
 40
1.5
 50
270.0
 51
345.17424270041641
  0
LINE
  5
23E4
  8
0
 10
784.97232899910318
 20
681.54432492848468
 30
0.0
 11
785.98210488645532
 21
681.5443249284848
 31
0.0
  0
LINE
  5
23E5
  8
0
 10
784.97232899910318
 20
661.54432492848491
 30
0.0
 11
785.98210488645532
 21
661.54432492848468
 31
0.0
  0
LINE
  5
23E6
  8
0
 10
781.67466993885125
 20
661.54432492848468
 30
0.0
 11
781.67466993885125
 21
681.54432492848468
 31
0.0
  0
LINE
  5
23E9
  8
0
  6
CENTER
 10
670.78377741961447
 20
917.38393785372159
 30
0.0
 11
670.78377741961447
 21
939.13393785372159
 31
0.0
  0
LINE
  5
23EB
  8
0
  6
CENTER
 10
628.78377741961435
 20
826.13393785372148
 30
0.0
 11
788.78377741961435
 21
826.13393785372148
 31
0.0
  0
ARC
  5
23F2
  8
0
 10
706.87731002585986
 20
825.40296250251447
 30
0.0
 40
13.0
 50
225.6379573356578
 51
349.22731283228251
  0
POLYLINE
  5
23F3
  8
0
 66
     1
 10
0.0
 20
0.0
 30
0.0
 70
     1
  0
VERTEX
  5
3BB6
  8
0
 10
705.03100066988179
 20
832.63393785372136
 30
0.0
  0
VERTEX
  5
3BB7
  8
0
 10
701.27822392014934
 20
826.13393785372148
 30
0.0
  0
VERTEX
  5
3BB8
  8
0
 10
705.03100066988179
 20
819.63393785372136
 30
0.0
  0
VERTEX
  5
3BB9
  8
0
 10
712.53655416934703
 20
819.63393785372136
 30
0.0
  0
VERTEX
  5
3BBA
  8
0
 10
716.28933091907959
 20
826.13393785372148
 30
0.0
  0
VERTEX
  5
3BBB
  8
0
 10
712.53655416934703
 20
832.63393785372136
 30
0.0
  0
SEQEND
  5
3BBC
  8
0
  0
CIRCLE
  5
23F4
  8
0
 10
708.78377741961435
 20
826.13393785372148
 30
0.0
 40
6.5
  0
ARC
  5
23FA
  8
0
 10
685.92106371681098
 20
704.12696458743653
 30
0.0
 40
218.63566905507449
 50
62.854290978944789
 51
86.627242891047032
  0
LINE
  5
23FB
  8
0
 10
709.28377741961435
 20
692.04432492848514
 30
0.0
 11
781.54839520492112
 21
692.04432492848525
 31
0.0
  0
LINE
  5
23FC
  8
0
 10
586.08099987376397
 20
758.04644154103869
 30
0.0
 11
586.08099987376374
 21
890.15792762433102
 31
0.0
  0
LINE
  5
23FD
  8
0
 10
588.58099987376397
 20
890.15792762433125
 30
0.0
 11
588.58099987376397
 21
791.13393785372136
 31
0.0
  0
LINE
  5
23FE
  8
0
 10
590.58099987376386
 20
812.40296250251458
 30
0.0
 11
590.58099987376363
 21
919.38393785372182
 31
0.0
  0
LINE
  5
23FF
  8
0
  6
CENTER
 10
708.78377741961435
 20
746.13393785372136
 30
0.0
 11
708.78377741961435
 21
906.13393785372136
 31
0.0
  0
ARC
  5
2400
  8
0
 10
896.39918009597739
 20
995.25693527925375
 30
0.0
 40
267.47059690369429
 50
199.4635257027991
 51
222.05057341619141
  0
ARC
  5
2402
  8
0
 10
582.5809998737642
 20
758.04644154103869
 30
0.0
 40
3.5
 50
300.53935547659353
 51
0.0
  0
LINE
  5
2403
  8
0
 10
590.58099987376386
 20
812.40296250251458
 30
0.0
 11
588.58099987376397
 21
812.40296250251458
 31
0.0
  0
LINE
  5
240E
  8
0
 10
600.08099987376431
 20
844.13393785372125
 30
0.0
 11
600.08099987376431
 21
919.38393785372182
 31
0.0
  0
ARC
  5
240F
  8
0
 10
578.18799973390787
 20
842.73883633950527
 30
0.0
 40
21.937405574924341
 50
324.92944350753669
 51
3.6461652505647368
  0
LINE
  5
2410
  8
0
 10
597.76114191073339
 20
830.13393785372125
 30
0.0
 11
598.36114191073329
 21
829.53393785372123
 31
0.0
  0
LINE
  5
2411
  8
0
 10
598.36114191073329
 20
829.53393785372123
 30
0.0
 11
595.58099987376386
 21
829.53393785372123
 31
0.0
  0
ARC
  5
2412
  8
0
 10
578.18799973390787
 20
842.73883633950527
 30
0.0
 40
21.937405574924341
 50
322.45226860584847
 51
322.45234378819481
  0
LINE
  5
2413
  8
0
 10
597.76114191073339
 20
830.13393785372125
 30
0.0
 11
595.58099987376431
 21
830.13393785372159
 31
0.0
  0
LINE
  5
2414
  8
0
 10
594.58099987376397
 20
832.63393785372159
 30
0.0
 11
590.58099987376374
 21
832.63393785372159
 31
0.0
  0
LINE
  5
2415
  8
0
 10
597.76114191073304
 20
822.13393785372159
 30
0.0
 11
598.36114191073329
 21
822.73393785372161
 31
0.0
  0
LINE
  5
2416
  8
0
 10
598.36114191073329
 20
822.7339378537223
 30
0.0
 11
595.58099987376386
 21
822.7339378537223
 31
0.0
  0
LINE
  5
2417
  8
0
 10
597.76114191073304
 20
822.13393785372159
 30
0.0
 11
595.58099987376431
 21
822.13393785372159
 31
0.0
  0
LINE
  5
2418
  8
0
 10
594.58099987376397
 20
819.63393785372136
 30
0.0
 11
590.58099987376386
 21
819.63393785372136
 31
0.0
  0
LINE
  5
2419
  8
0
 10
594.58099987376397
 20
826.1339378537217
 30
0.0
 11
590.58099987376374
 21
826.13393785372148
 31
0.0
  0
ARC
  5
241A
  8
0
 10
589.79974987376363
 20
822.88393785372136
 30
0.0
 40
5.7812500000003926
 50
325.79454206189649
 51
34.205457938103777
  0
ARC
  5
241B
  8
0
 10
589.79974987376363
 20
829.3839378537217
 30
0.0
 40
5.7812500000003926
 50
325.79454206189621
 51
34.205457938103478
  0
LINE
  5
241C
  8
0
 10
597.76114191073304
 20
822.13393785372159
 30
0.0
 11
597.76114191073339
 21
830.13393785372125
 31
0.0
  0
LINE
  5
241D
  8
0
 10
598.36114191073329
 20
829.53393785372123
 30
0.0
 11
598.36114191073329
 21
822.73393785372161
 31
0.0
  0
LINE
  5
241E
  8
0
 10
595.58099987376386
 20
822.88393785372136
 30
0.0
 11
595.58099987376386
 21
829.3839378537217
 31
0.0
  0
ARC
  5
241F
  8
0
 10
588.75916763105215
 20
899.90810881751145
 30
0.0
 40
1.0
 50
359.99999999999341
 51
85.840768809617074
  0
LINE
  5
2420
  8
0
 10
589.75916763105261
 20
890.15792762433102
 30
0.0
 11
589.75916763105215
 21
899.90810881751145
 31
0.0
  0
ARC
  5
2422
  8
0
 10
597.0809998737642
 20
919.38393785372182
 30
0.0
 40
3.0
 50
0.0
 51
90.0
  0
ARC
  5
2424
  8
0
 10
587.58099987376352
 20
919.38393785372182
 30
0.0
 40
3.0
 50
0.000000000000229
 51
90.000000000000185
  0
LINE
  5
2425
  8
0
 10
640.78377741961435
 20
917.13393785372148
 30
0.0
 11
644.21351131619315
 21
906.13393785372136
 31
0.0
  0
LINE
  5
2427
  8
0
 10
640.78377741961435
 20
917.13393785372148
 30
0.0
 11
640.90688162994377
 21
920.9325241975406
 31
0.0
  0
ARC
  5
2428
  8
0
 10
642.40609454584126
 20
920.88393785372159
 30
0.0
 40
1.5
 50
90.0
 51
178.1438136990557
  0
LINE
  5
242A
  8
0
 10
694.93736582917609
 20
824.63736372282983
 30
0.0
 11
694.93736582917609
 21
917.38393785372159
 31
0.0
  0
LINE
  5
242B
  8
0
 10
688.43736582917597
 20
830.17799518692004
 30
0.0
 11
688.4373658291762
 21
917.38393785372136
 31
0.0
  0
LINE
  5
2435
  8
0
 10
783.95465547616675
 20
691.22249268577264
 30
0.0
 11
797.67353629008528
 21
691.22249268577275
 31
0.0
  0
ARC
  5
2436
  8
0
 10
781.54839520492112
 20
690.54432492848537
 30
0.0
 40
1.5
 50
15.73968077052186
 51
90.0
  0
ARC
  5
2437
  8
0
 10
795.29675062088415
 20
689.72249268577275
 30
0.0
 40
1.5
 50
14.82575729958349
 51
90.0
  0
ARC
  5
2438
  8
0
 10
797.67353629008528
 20
689.72249268577275
 30
0.0
 40
1.5
 50
14.82575729958349
 51
90.0
  0
ARC
  5
2439
  8
0
 10
730.51264004251345
 20
1033.1870622442079
 30
0.0
 40
150.0
 50
266.37008794380392
 51
288.13203192242202
  0
ARC
  5
243A
  8
0
 10
720.69935062304648
 20
878.4980214211115
 30
0.0
 40
5.0
 50
86.370087943804037
 51
187.43454665430511
  0
ARC
  5
243B
  8
0
 10
418.51518762350111
 20
828.72205617295765
 30
0.0
 40
301.25914132293872
 50
359.04863132720772
 51
9.3856497604526581
  0
ARC
  5
243C
  8
0
 10
714.7363217344548
 20
823.90765819764351
 30
0.0
 40
5.0
 50
349.22731283228251
 51
357.84936409849018
  0
CIRCLE
  5
243D
  8
0
 10
714.78377741961435
 20
905.13393785372159
 30
0.0
 40
3.0
  0
ARC
  5
243E
  8
0
 10
756.35798815863768
 20
911.19745762053617
 30
0.0
 40
7.9253827851382752
 50
339.54760693866939
 51
155.62784225896269
  0
LINE
  5
243F
  8
0
 10
749.13888143300267
 20
914.46796069725963
 30
0.0
 11
756.33001250046914
 21
911.11521477169288
 31
0.0
  0
ARC
  5
2440
  8
0
 10
812.31746592068305
 20
840.42393951519148
 30
0.0
 40
62.532068877943601
 50
102.1148011732277
 51
116.3686006411653
  0
ARC
  5
2441
  8
0
 10
760.67587680625843
 20
988.8480277240194
 30
0.0
 40
101.5752126236281
 50
283.6885831336275
 51
293.50550664960309
  0
LINE
  5
2442
  8
0
 10
784.78377741961435
 20
899.13393785372148
 30
0.0
 11
783.00099526747465
 21
895.61739518094964
 31
0.0
  0
ARC
  5
2443
  8
0
 10
685.92106371681098
 20
704.12696458743653
 30
0.0
 40
216.13566905507449
 50
62.851259742764121
 51
63.11635242359489
  0
LINE
  5
2444
  8
0
 10
785.67570403940647
 20
898.68175768508729
 30
0.0
 11
784.54420755589456
 21
896.44987777559538
 31
0.0
  0
LINE
  5
2445
  8
0
 10
782.75545653847064
 20
891.18440348025194
 30
0.0
 11
785.13919605194314
 21
896.74607759063804
 31
0.0
  0
ARC
  5
2446
  8
0
 10
774.08172906955315
 20
900.13919686729275
 30
0.0
 40
10.0
 50
288.13203192242042
 51
333.11635242359478
  0
ARC
  5
2447
  8
0
 10
685.92106371681098
 20
704.12696458743653
 30
0.0
 40
210.6356690550746
 50
62.029393479289581
 51
63.350524043121538
  0
ARC
  5
2448
  8
0
 10
800.78377741961435
 20
896.61607543754008
 30
0.0
 40
1.0
 50
293.83306731080779
 51
19.125176989789011
  0
ARC
  5
2449
  8
0
 10
799.40699175041334
 20
900.58635206410065
 30
0.0
 40
1.0
 50
19.125176989792621
 51
102.3101096266484
  0
LINE
  5
244A
  8
0
 10
800.35179678480824
 20
900.9139851622183
 30
0.0
 11
801.72858245400926
 21
896.94370853565761
 31
0.0
  0
LINE
  5
244C
  8
0
  6
CENTER
 10
865.78743942783797
 20
941.13393785372148
 30
0.0
 11
865.78743942783797
 21
746.13393785372136
 31
0.0
  0
LINE
  5
244F
  8
0
 10
881.78743942783797
 20
758.04644154103869
 30
0.0
 11
881.78743942783751
 21
894.22143416640415
 31
0.0
  0
LINE
  5
2450
  8
0
 10
849.78743942783797
 20
758.04644154103869
 30
0.0
 11
849.78743942783865
 21
894.22143416640438
 31
0.0
  0
LINE
  5
2451
  8
0
 10
884.28743942783774
 20
900.56888574153891
 30
0.0
 11
884.28743942783774
 21
795.25180441441705
 31
0.0
  0
LINE
  5
2452
  8
0
 10
847.28743942783854
 20
900.56888574153868
 30
0.0
 11
847.28743942783854
 21
795.25180441441785
 31
0.0
  0
LINE
  5
2453
  8
0
 10
886.28743942783763
 20
812.40296250251458
 30
0.0
 11
886.28743942783763
 21
824.13393785372148
 31
0.0
  0
LINE
  5
2454
  8
0
 10
845.28743942783854
 20
812.40296250251458
 30
0.0
 11
845.28743942783854
 21
824.13393785372125
 31
0.0
  0
LINE
  5
2458
  8
0
 10
845.28743942783831
 20
812.40296250251458
 30
0.0
 11
847.28743942783854
 21
812.40296250251458
 31
0.0
  0
LINE
  5
245B
  8
0
 10
886.28743942783763
 20
812.40296250251458
 30
0.0
 11
884.28743942783774
 21
812.40296250251458
 31
0.0
  0
LINE
  5
245C
  8
0
  6
CENTER
 10
833.39736840935348
 20
826.13393785372102
 30
0.0
 11
898.17751044632257
 21
826.13393785372148
 31
0.0
  0
ARC
  5
245D
  8
0
 10
865.78743942783797
 20
873.03393785372214
 30
0.0
 40
28.099999999999419
 50
59.460644523406501
 51
120.5393554765928
  0
ARC
  5
245E
  8
0
 10
865.78743942783797
 20
892.73823054418858
 30
0.0
 40
20.0
 50
53.52428167807625
 51
126.47571832192369
  0
ARC
  5
2461
  8
0
 10
879.31319681903619
 20
874.15424212821188
 30
0.0
 40
41.513642741861631
 50
112.0474616778672
 51
173.45855430953989
  0
ARC
  5
2462
  8
0
 10
880.94757376390226
 20
872.23231576804051
 30
0.0
 40
45.501415919398752
 50
126.47571832192369
 51
172.97811963626771
  0
LINE
  5
2463
  8
0
 10
835.78743942783808
 20
865.00278726161196
 30
0.0
 11
835.78743942783808
 21
919.63393785372148
 31
0.0
  0
ARC
  5
2464
  8
0
 10
934.05120225432995
 20
866.30571899717017
 30
0.0
 40
98.272400580878084
 50
180.75967083632861
 51
205.41245458700729
  0
ARC
  5
2465
  8
0
 10
933.09189382280067
 20
866.28486455708799
 30
0.0
 40
95.312989604844574
 50
180.74363858516699
 51
205.810521641164
  0
ARC
  5
2466
  8
0
 10
857.68043956769441
 20
842.73883633950527
 30
0.0
 40
21.937405574924341
 50
217.5476562118051
 51
217.5477313941515
  0
LINE
  5
2467
  8
0
 10
838.10729739086901
 20
830.13393785372125
 30
0.0
 11
837.5072973908691
 21
829.53393785372123
 31
0.0
  0
LINE
  5
2468
  8
0
 10
838.10729739086901
 20
830.13393785372125
 30
0.0
 11
840.28743942783808
 21
830.13393785372159
 31
0.0
  0
LINE
  5
2469
  8
0
 10
837.5072973908691
 20
829.53393785372123
 30
0.0
 11
840.28743942783842
 21
829.53393785372123
 31
0.0
  0
ARC
  5
246A
  8
0
 10
846.06868942783865
 20
822.88393785372136
 30
0.0
 40
5.7812500000003926
 50
145.79454206189621
 51
214.20545793810351
  0
LINE
  5
246B
  8
0
 10
838.10729739086912
 20
822.13393785372159
 30
0.0
 11
837.5072973908691
 21
822.73393785372161
 31
0.0
  0
LINE
  5
246C
  8
0
 10
838.10729739086912
 20
822.13393785372159
 30
0.0
 11
840.28743942783808
 21
822.13393785372159
 31
0.0
  0
LINE
  5
246D
  8
0
 10
837.5072973908691
 20
822.7339378537223
 30
0.0
 11
840.28743942783842
 21
822.7339378537223
 31
0.0
  0
LINE
  5
246E
  8
0
 10
841.28743942783819
 20
826.1339378537217
 30
0.0
 11
843.91985786601049
 21
826.1339378537217
 31
0.0
  0
LINE
  5
246F
  8
0
 10
841.28743942783819
 20
819.63393785372136
 30
0.0
 11
845.28743942783831
 21
819.63393785372136
 31
0.0
  0
LINE
  5
2470
  8
0
 10
840.28743942783842
 20
822.88393785372136
 30
0.0
 11
840.28743942783842
 21
829.3839378537217
 31
0.0
  0
LINE
  5
2471
  8
0
 10
838.10729739086912
 20
822.13393785372159
 30
0.0
 11
838.10729739086901
 21
830.13393785372125
 31
0.0
  0
LINE
  5
2472
  8
0
 10
837.5072973908691
 20
829.53393785372123
 30
0.0
 11
837.5072973908691
 21
822.73393785372161
 31
0.0
  0
ARC
  5
2473
  8
0
 10
846.06868942783865
 20
829.3839378537217
 30
0.0
 40
5.7812500000003926
 50
156.19186875708411
 51
214.20545793810371
  0
ARC
  5
2475
  8
0
 10
847.78743942783797
 20
876.52392114524173
 30
0.0
 40
10.0
 50
166.35158156184849
 51
180.0
  0
LINE
  5
2476
  8
0
 10
837.78743942783797
 20
865.00278726161196
 30
0.0
 11
837.78743942783797
 21
876.52392114524173
 31
0.0
  0
LINE
  5
2479
  8
0
 10
858.28743942783797
 20
909.94949404554586
 30
0.0
 11
858.28743942783797
 21
906.13393785372136
 31
0.0
  0
LINE
  5
247A
  8
0
 10
847.28743942783854
 20
887.21746697102787
 30
0.0
 11
849.78743942783865
 21
887.21746697102787
 31
0.0
  0
ARC
  5
247B
  8
0
 10
853.28743942783831
 20
894.22143416640438
 30
0.0
 40
3.5
 50
120.5393554765926
 51
180.0
  0
LINE
  5
247C
  8
0
 10
852.84280590762808
 20
906.13393785372136
 30
0.0
 11
858.28743942783797
 21
906.13393785372159
 31
0.0
  0
LINE
  5
247D
  8
0
 10
857.28743942783808
 20
909.34299807443733
 30
0.0
 11
857.28743942783808
 21
906.13393785372136
 31
0.0
  0
ARC
  5
247F
  8
0
 10
852.26168203663985
 20
874.15424212821188
 30
0.0
 40
41.513642741861631
 50
6.541445690460046
 51
67.952538322132753
  0
ARC
  5
2480
  8
0
 10
850.62730509177391
 20
872.23231576804051
 30
0.0
 40
45.501415919398731
 50
7.0218803637322829
 51
53.524281678076221
  0
LINE
  5
2481
  8
0
 10
895.78743942783797
 20
865.00278726161196
 30
0.0
 11
895.78743942783797
 21
919.63393785372148
 31
0.0
  0
ARC
  5
2482
  8
0
 10
797.52367660134598
 20
866.30571899717017
 30
0.0
 40
98.272400580878326
 50
334.5875454129926
 51
359.24032916367128
  0
ARC
  5
2483
  8
0
 10
798.48298503287549
 20
866.28486455708799
 30
0.0
 40
95.312989604844475
 50
334.18947835883591
 51
359.25636141483272
  0
ARC
  5
2484
  8
0
 10
885.5061894278374
 20
822.88393785372136
 30
0.0
 40
5.7812500000003926
 50
325.79454206189649
 51
34.205457938103777
  0
LINE
  5
2485
  8
0
 10
890.28743942783785
 20
826.1339378537217
 30
0.0
 11
887.65502098966556
 21
826.1339378537217
 31
0.0
  0
LINE
  5
2486
  8
0
 10
890.28743942783785
 20
819.63393785372136
 30
0.0
 11
886.28743942783763
 21
819.63393785372136
 31
0.0
  0
LINE
  5
2487
  8
0
 10
891.28743942783774
 20
822.88393785372136
 30
0.0
 11
891.28743942783774
 21
829.3839378537217
 31
0.0
  0
ARC
  5
2488
  8
0
 10
885.5061894278374
 20
829.3839378537217
 30
0.0
 40
5.7812500000003926
 50
325.79454206189621
 51
23.808131242915799
  0
ARC
  5
248A
  8
0
 10
883.78743942783808
 20
876.52392114524173
 30
0.0
 40
10.0
 50
0.0
 51
13.6484184381515
  0
LINE
  5
248B
  8
0
 10
893.78743942783808
 20
865.00278726161196
 30
0.0
 11
893.78743942783808
 21
876.52392114524173
 31
0.0
  0
LINE
  5
248C
  8
0
 10
873.28743942783808
 20
909.94949404554586
 30
0.0
 11
873.28743942783808
 21
906.13393785372136
 31
0.0
  0
LINE
  5
248D
  8
0
 10
881.78743942783751
 20
887.21746697102765
 30
0.0
 11
884.28743942783774
 21
887.21746697102787
 31
0.0
  0
ARC
  5
248E
  8
0
 10
878.28743942783797
 20
894.22143416640415
 30
0.0
 40
3.5
 50
0.0
 51
59.460644523406501
  0
LINE
  5
248F
  8
0
 10
873.28743942783808
 20
906.13393785372136
 30
0.0
 11
878.7320729480482
 21
906.13393785372136
 31
0.0
  0
LINE
  5
2490
  8
0
 10
874.28743942783808
 20
909.34299807443733
 30
0.0
 11
874.28743942783808
 21
906.13393785372136
 31
0.0
  0
POLYLINE
  5
2495
  8
0
 66
     1
 10
0.0
 20
0.0
 30
0.0
 70
     1
  0
VERTEX
  5
3BBD
  8
0
 10
29.09297865758117
 20
913.21954777681651
 30
0.0
  0
VERTEX
  5
3BBE
  8
0
 10
455.21041825332247
 20
913.21954777681651
 30
0.0
  0
VERTEX
  5
3BBF
  8
0
 10
455.21041825332247
 20
621.51974360826785
 30
0.0
  0
VERTEX
  5
3BC0
  8
0
 10
29.09297865758117
 20
621.51974360826785
 30
0.0
  0
SEQEND
  5
3BC1
  8
0
  0
ARC
  5
262D
  8
0
 10
708.78377741961435
 20
826.13393785372148
 30
0.0
 40
75.0
 50
135.2301549669717
 51
51.956699771151101
  0
ARC
  5
262E
  8
0
 10
708.78377741961435
 20
826.13393785372148
 30
0.0
 40
69.0
 50
136.93253883329871
 51
57.032437553354249
  0
ARC
  5
262F
  8
0
 10
708.78377741961435
 20
826.13393785372148
 30
0.0
 40
57.0
 50
141.0019830479587
 51
81.073695395914925
  0
ARC
  5
2630
  8
0
 10
708.78377741961435
 20
826.13393785372148
 30
0.0
 40
54.0
 50
142.21456735328189
 51
82.492816723441649
  0
ARC
  5
2631
  8
0
 10
708.78377741961435
 20
826.13393785372148
 30
0.0
 40
35.0
 50
153.64810153267521
 51
74.458739728682417
  0
LINE
  5
2676
  8
0
 10
588.58099987376397
 20
791.13393785372136
 30
0.0
 11
586.08099987376386
 21
772.13393785372148
 31
0.0
  0
LINE
  5
2677
  8
0
 10
551.58099987376465
 20
791.13393785372136
 30
0.0
 11
554.08099987376465
 21
772.13393785372148
 31
0.0
  0
ARC
  5
2678
  8
0
 10
865.78743942783797
 20
779.23393785372093
 30
0.0
 40
28.099999999999419
 50
239.4606445234071
 51
300.53935547659353
  0
ARC
  5
2679
  8
0
 10
853.28743942783831
 20
758.04644154103869
 30
0.0
 40
3.5
 50
180.0
 51
239.46064452340741
  0
LINE
  5
267A
  8
0
 10
849.78743942783808
 20
779.25180441441921
 30
0.0
 11
847.28743942783854
 21
795.25180441441853
 31
0.0
  0
ARC
  5
267B
  8
0
 10
878.28743942783797
 20
758.04644154103869
 30
0.0
 40
3.5
 50
300.53935547659353
 51
0.0
  0
LINE
  5
267C
  8
0
 10
881.78743942783763
 20
779.25180441441807
 30
0.0
 11
884.28743942783774
 21
795.25180441441853
 31
0.0
  0
LINE
  5
26BD
  8
0
 10
849.78743942783808
 20
873.01607129302329
 30
0.0
 11
847.28743942783854
 21
857.01607129302397
 31
0.0
  0
LINE
  5
26BE
  8
0
 10
881.78743942783763
 20
873.0160712930242
 30
0.0
 11
884.28743942783774
 21
857.01607129302397
 31
0.0
  0
POLYLINE
  5
2782
  8
0
 66
     1
 10
0.0
 20
0.0
 30
0.0
 70
     1
  0
VERTEX
  5
3BC2
  8
0
 10
498.61675285555151
 20
971.84550989677757
 30
0.0
  0
VERTEX
  5
3BC3
  8
0
 10
947.47348915385737
 20
971.84550989677757
 30
0.0
  0
VERTEX
  5
3BC4
  8
0
 10
947.47348915385737
 20
621.51974360826785
 30
0.0
  0
VERTEX
  5
3BC5
  8
0
 10
498.61675285555151
 20
621.51974360826785
 30
0.0
  0
SEQEND
  5
3BC6
  8
0
  0
LINE
  5
34AB
  8
0
  6
CENTER
 10
-237.41687238424279
 20
699.40481240973077
 30
0.0
 11
-237.41687238424279
 21
633.40481240973077
 31
0.0
  0
LINE
  5
3559
  8
0
  6
CENTER
 10
-583.8823090411172
 20
697.17624109317444
 30
0.0
 11
-583.8823090411172
 21
627.17624109317444
 31
0.0
  0
LINE
  5
3569
  8
0
 10
-679.78190275438874
 20
811.16533877413713
 30
0.0
 11
-640.98190275438901
 21
811.16533877413679
 31
0.0
  0
LINE
  5
356A
  8
0
 10
-690.38190275438888
 20
822.1653387741369
 30
0.0
 11
-630.38190275438865
 21
822.1653387741369
 31
0.0
  0
LINE
  5
356B
  8
0
 10
-681.78190275438874
 20
813.16533877413735
 30
0.0
 11
-681.78190275438874
 21
816.1653387741369
 31
0.0
  0
LINE
  5
3744
  8
0
 10
-275.91687238424282
 20
876.23717497529628
 30
0.0
 11
-198.91687238424299
 21
876.23717497529628
 31
0.0
  0
LINE
  5
3745
  8
0
 10
-267.41687238424248
 20
699.90481240973077
 30
0.0
 11
-207.41687238424279
 21
699.90481240973077
 31
0.0
  0
LINE
  5
3746
  8
0
 10
-275.91687238424248
 20
691.40481240973077
 30
0.0
 11
-275.91687238424282
 21
641.40481240973077
 31
0.0
  0
LINE
  5
3747
  8
0
 10
-267.41687238424282
 20
632.90481240973077
 30
0.0
 11
-207.41687238424271
 21
632.90481240973077
 31
0.0
  0
LINE
  5
3748
  8
0
 10
-198.91687238424279
 20
691.40481240973077
 30
0.0
 11
-198.91687238424271
 21
641.40481240973077
 31
0.0
  0
ARC
  5
3749
  8
0
 10
-267.41687238424248
 20
691.40481240973077
 30
0.0
 40
8.5
 50
90.0
 51
180.0
  0
ARC
  5
374A
  8
0
 10
-207.41687238424279
 20
691.40481240973077
 30
0.0
 40
8.5
 50
0.0
 51
90.0
  0
ARC
  5
374B
  8
0
 10
-207.41687238424271
 20
641.40481240973077
 30
0.0
 40
8.5
 50
270.0
 51
0.0
  0
ARC
  5
374C
  8
0
 10
-267.41687238424282
 20
641.40481240973077
 30
0.0
 40
8.5
 50
180.0
 51
270.0
  0
CIRCLE
  5
374D
  8
0
 10
-237.41687238424279
 20
666.40481240973077
 30
0.0
 40
7.5
  0
CIRCLE
  5
374E
  8
0
 10
-237.41687238424279
 20
666.40481240973077
 30
0.0
 40
17.0
  0
CIRCLE
  5
374F
  8
0
 10
-237.41687238424279
 20
666.40481240973077
 30
0.0
 40
27.0
  0
ARC
  5
3750
  8
0
 10
-263.98830095567121
 20
689.15481240973077
 30
0.0
 40
4.25
 50
228.81407483429399
 51
48.81407483429404
  0
ARC
  5
3751
  8
0
 10
-266.84544381281421
 20
691.65481240973088
 30
0.0
 40
4.25
 50
48.81407483429404
 51
228.814074834286
  0
LINE
  5
3752
  8
0
 10
-269.64408839625543
 20
688.45636145722665
 30
0.0
 11
-266.78694553911248
 21
685.95636145722665
 31
0.0
  0
LINE
  5
3753
  8
0
 10
-264.04679922937322
 20
694.853263362235
 30
0.0
 11
-261.18965637223022
 21
692.35326336223488
 31
0.0
  0
LINE
  5
3754
  8
0
  6
CENTER
 10
-261.30121858506448
 20
695.10841675164841
 30
0.0
 11
-269.53252618342111
 21
685.7012080678129
 31
0.0
  0
LINE
  5
3755
  8
0
  6
CENTER
 10
-271.54904815473242
 20
695.77046620890872
 30
0.0
 11
-259.2846966137534
 21
685.03915861055259
 31
0.0
  0
ARC
  5
3756
  8
0
 10
-207.98830095567129
 20
691.65481240973088
 30
0.0
 40
4.25
 50
311.18592516571391
 51
131.1859251657059
  0
LINE
  5
3757
  8
0
  6
CENTER
 10
-213.53252618342111
 20
695.10841675164841
 30
0.0
 11
-205.3012185850645
 21
685.7012080678129
 31
0.0
  0
LINE
  5
3758
  8
0
  6
CENTER
 10
-203.28469661375311
 20
695.77046620890872
 30
0.0
 11
-215.54904815473219
 21
685.03915861055259
 31
0.0
  0
ARC
  5
3759
  8
0
 10
-210.84544381281421
 20
689.15481240973077
 30
0.0
 40
4.25
 50
131.1859251657059
 51
311.1859251657059
  0
LINE
  5
375A
  8
0
 10
-205.1896563722301
 20
688.45636145722665
 30
0.0
 11
-208.04679922937311
 21
685.95636145722665
 31
0.0
  0
LINE
  5
375B
  8
0
 10
-210.78694553911239
 20
694.853263362235
 30
0.0
 11
-213.6440883962554
 21
692.35326336223488
 31
0.0
  0
ARC
  5
375C
  8
0
 10
-207.98830095567129
 20
641.15481240973088
 30
0.0
 40
4.25
 50
228.81407483429399
 51
48.814074834286068
  0
LINE
  5
375D
  8
0
 10
-205.1896563722301
 20
644.353263362235
 30
0.0
 11
-208.04679922937311
 21
646.85326336223488
 31
0.0
  0
ARC
  5
375E
  8
0
 10
-210.84544381281421
 20
643.65481240973077
 30
0.0
 40
4.25
 50
48.81407483429404
 51
228.81407483429399
  0
LINE
  5
375F
  8
0
 10
-203.28469661375311
 20
637.03915861055305
 30
0.0
 11
-215.54904815473219
 21
647.77046620890917
 31
0.0
  0
LINE
  5
3760
  8
0
 10
-213.53252618342111
 20
637.70120806781335
 30
0.0
 11
-205.3012185850645
 21
647.10841675164875
 31
0.0
  0
LINE
  5
3761
  8
0
 10
-210.78694553911239
 20
637.95636145722665
 30
0.0
 11
-213.6440883962554
 21
640.45636145722676
 31
0.0
  0
ARC
  5
3762
  8
0
 10
-266.84544381281421
 20
641.15481240973088
 30
0.0
 40
4.25
 50
131.18592516571391
 51
311.1859251657059
  0
LINE
  5
3763
  8
0
 10
-261.30121858506448
 20
637.70120806781335
 30
0.0
 11
-269.53252618342111
 21
647.10841675164875
 31
0.0
  0
LINE
  5
3764
  8
0
 10
-271.54904815473242
 20
637.03915861055305
 30
0.0
 11
-259.2846966137534
 21
647.77046620890917
 31
0.0
  0
ARC
  5
3765
  8
0
 10
-263.98830095567121
 20
643.65481240973077
 30
0.0
 40
4.25
 50
311.1859251657059
 51
131.1859251657059
  0
LINE
  5
3766
  8
0
 10
-269.64408839625543
 20
644.353263362235
 30
0.0
 11
-266.78694553911248
 21
646.85326336223488
 31
0.0
  0
LINE
  5
3767
  8
0
 10
-264.04679922937322
 20
637.95636145722665
 30
0.0
 11
-261.18965637223022
 21
640.45636145722676
 31
0.0
  0
LINE
  5
3768
  8
0
 10
-275.91687238424282
 20
873.73717497529663
 30
0.0
 11
-275.91687238424271
 21
876.23717497529628
 31
0.0
  0
LINE
  5
3769
  8
0
 10
-275.91687238424282
 20
873.73717497529651
 30
0.0
 11
-198.91687238424291
 21
873.73717497529651
 31
0.0
  0
LINE
  5
376A
  8
0
 10
-198.91687238424291
 20
873.73717497529651
 30
0.0
 11
-198.91687238424299
 21
876.23717497529628
 31
0.0
  0
LINE
  5
376B
  8
0
 10
-263.91687238424299
 20
867.7371749752964
 30
0.0
 11
-210.91687238424279
 21
867.7371749752964
 31
0.0
  0
LINE
  5
376C
  8
0
 10
-267.91687238424288
 20
871.73717497529628
 30
0.0
 11
-267.91687238424282
 21
872.73717497529628
 31
0.0
  0
ARC
  5
376D
  8
0
 10
-268.91687238424282
 20
872.73717497529628
 30
0.0
 40
1.0
 50
0.0
 51
90.0
  0
ARC
  5
376E
  8
0
 10
-205.91687238424279
 20
872.73717497529628
 30
0.0
 40
1.0
 50
90.0
 51
180.0
  0
ARC
  5
376F
  8
0
 10
-263.91687238424299
 20
871.73717497529628
 30
0.0
 40
4.0
 50
180.0
 51
270.0
  0
ARC
  5
3770
  8
0
 10
-210.91687238424279
 20
871.73717497529628
 30
0.0
 40
4.0
 50
270.0
 51
0.0
  0
LINE
  5
3771
  8
0
 10
-206.91687238424279
 20
871.73717497529628
 30
0.0
 11
-206.91687238424279
 21
872.73717497529628
 31
0.0
  0
ARC
  5
3772
  8
0
 10
-261.41687238424282
 20
863.73717497529628
 30
0.0
 40
4.0
 50
90.0
 51
180.0
  0
ARC
  5
3773
  8
0
 10
-213.41687238424279
 20
863.73717497529628
 30
0.0
 40
4.0
 50
0.0
 51
90.0
  0
LINE
  5
3775
  8
0
 10
-265.41687238424282
 20
863.73717497529628
 30
0.0
 11
-265.41687238424282
 21
862.48717497529663
 31
0.0
  0
LINE
  5
3776
  8
0
 10
-209.41687238424271
 20
863.73717497529628
 30
0.0
 11
-209.41687238424271
 21
862.48717497529663
 31
0.0
  0
LINE
  5
3777
  8
0
 10
-366.23712593105182
 20
876.23717497529628
 30
0.0
 11
-299.23712593105182
 21
876.23717497529628
 31
0.0
  0
LINE
  5
3778
  8
0
 10
-366.23712593105182
 20
873.73717497529651
 30
0.0
 11
-299.23712593105182
 21
873.73717497529651
 31
0.0
  0
LINE
  5
3779
  8
0
 10
-359.23712593105199
 20
867.7371749752964
 30
0.0
 11
-306.23712593105188
 21
867.7371749752964
 31
0.0
  0
LINE
  5
377A
  8
0
 10
-363.23712593105199
 20
871.73717497529628
 30
0.0
 11
-363.23712593105182
 21
872.73717497529628
 31
0.0
  0
ARC
  5
377B
  8
0
 10
-364.23712593105182
 20
872.73717497529628
 30
0.0
 40
1.0
 50
0.0
 51
90.0
  0
ARC
  5
377C
  8
0
 10
-359.23712593105199
 20
871.73717497529628
 30
0.0
 40
4.0
 50
180.0
 51
270.0
  0
ARC
  5
377D
  8
0
 10
-306.23712593105188
 20
871.73717497529628
 30
0.0
 40
4.0
 50
270.0
 51
0.0
  0
ARC
  5
377E
  8
0
 10
-301.23712593105182
 20
872.73717497529628
 30
0.0
 40
1.0
 50
90.0
 51
180.0
  0
LINE
  5
377F
  8
0
 10
-302.23712593105182
 20
871.73717497529628
 30
0.0
 11
-302.23712593105182
 21
872.73717497529628
 31
0.0
  0
ARC
  5
3780
  8
0
 10
-308.73712593105182
 20
863.73717497529628
 30
0.0
 40
4.0
 50
0.0
 51
90.0
  0
ARC
  5
3781
  8
0
 10
-356.73712593105182
 20
863.73717497529628
 30
0.0
 40
4.0
 50
90.0
 51
180.0
  0
LINE
  5
3782
  8
0
 10
-360.73712593105182
 20
863.73717497529628
 30
0.0
 11
-360.73712593105182
 21
862.31560210004272
 31
0.0
  0
LINE
  5
3783
  8
0
 10
-299.23712593105182
 20
876.23717497529628
 30
0.0
 11
-299.23712593105182
 21
873.73717497529651
 31
0.0
  0
LINE
  5
3784
  8
0
 10
-366.23712593105182
 20
876.23717497529628
 30
0.0
 11
-366.23712593105182
 21
873.73717497529651
 31
0.0
  0
LINE
  5
3785
  8
0
  6
CENTER
 10
-209.41687238424279
 20
866.87617166814482
 30
0.0
 11
-209.41687238424279
 21
881.2371749752964
 31
0.0
  0
LINE
  5
3786
  8
0
  6
CENTER
 10
-265.41687238424282
 20
866.87617166814482
 30
0.0
 11
-265.41687238424282
 21
881.2371749752964
 31
0.0
  0
LINE
  5
3787
  8
0
  6
CENTER
 10
-308.73712593105182
 20
866.87617166814482
 30
0.0
 11
-308.73712593105182
 21
881.2371749752964
 31
0.0
  0
LINE
  5
3788
  8
0
  6
CENTER
 10
-356.73712593105182
 20
866.87617166814482
 30
0.0
 11
-356.73712593105182
 21
881.2371749752964
 31
0.0
  0
LINE
  5
3798
  8
0
 10
-304.73712593105182
 20
863.73717497529628
 30
0.0
 11
-304.73712593105182
 21
862.31560210004272
 31
0.0
  0
LINE
  5
3874
  8
0
 10
-630.38190275438876
 20
820.1653387741369
 30
0.0
 11
-630.38190275438876
 21
822.1653387741369
 31
0.0
  0
LINE
  5
3875
  8
0
 10
-690.38190275438888
 20
820.1653387741369
 30
0.0
 11
-690.38190275438865
 21
822.1653387741369
 31
0.0
  0
LINE
  5
3876
  8
0
 10
-690.38190275438888
 20
820.1653387741369
 30
0.0
 11
-630.38190275438876
 21
820.1653387741369
 31
0.0
  0
ARC
  5
3877
  8
0
 10
-685.78190275438874
 20
816.1653387741369
 30
0.0
 40
4.0
 50
0.0
 51
90.0
  0
ARC
  5
3878
  8
0
 10
-634.9819027543889
 20
816.1653387741369
 30
0.0
 40
4.0
 50
90.0
 51
180.0
  0
LINE
  5
3879
  8
0
 10
-638.9819027543889
 20
813.16533877413667
 30
0.0
 11
-638.9819027543889
 21
816.1653387741369
 31
0.0
  0
LINE
  5
387E
  8
0
 10
-613.8823090411172
 20
820.1653387741369
 30
0.0
 11
-553.88230904111708
 21
820.1653387741369
 31
0.0
  0
LINE
  5
387F
  8
0
 10
-613.8823090411172
 20
822.1653387741369
 30
0.0
 11
-553.88230904111708
 21
822.1653387741369
 31
0.0
  0
LINE
  5
3880
  8
0
 10
-605.28230904111706
 20
813.1653387741369
 30
0.0
 11
-605.28230904111706
 21
816.1653387741369
 31
0.0
  0
ARC
  5
3881
  8
0
 10
-609.28230904111706
 20
816.1653387741369
 30
0.0
 40
4.0
 50
0.0
 51
90.0
  0
LINE
  5
3882
  8
0
 10
-613.8823090411172
 20
820.1653387741369
 30
0.0
 11
-613.8823090411172
 21
822.1653387741369
 31
0.0
  0
LINE
  5
3883
  8
0
 10
-553.88230904111708
 20
820.1653387741369
 30
0.0
 11
-553.88230904111708
 21
822.1653387741369
 31
0.0
  0
ARC
  5
3884
  8
0
 10
-603.28230904111695
 20
813.1653387741369
 30
0.0
 40
2.0
 50
180.0
 51
270.0
  0
LINE
  5
3885
  8
0
 10
-603.28230904111695
 20
811.16533877413679
 30
0.0
 11
-602.19704396170414
 21
811.16533877413679
 31
0.0
  0
ARC
  5
3887
  8
0
 10
-558.48230904111733
 20
816.1653387741369
 30
0.0
 40
4.0
 50
90.0
 51
180.0
  0
LINE
  5
3888
  8
0
 10
-564.48230904111733
 20
811.16533877413679
 30
0.0
 11
-565.56757412053037
 21
811.16533877413679
 31
0.0
  0
ARC
  5
3889
  8
0
 10
-565.56757412053037
 20
807.1653387741369
 30
0.0
 40
4.0
 50
82.650777572574825
 51
90.0
  0
ARC
  5
388A
  8
0
 10
-564.48230904111733
 20
813.1653387741369
 30
0.0
 40
2.0
 50
270.0
 51
0.0
  0
LINE
  5
388B
  8
0
 10
-562.48230904111733
 20
813.1653387741369
 30
0.0
 11
-562.48230904111733
 21
816.1653387741369
 31
0.0
  0
LINE
  5
388D
  8
0
 10
-602.19704396170414
 20
811.16533877413713
 30
0.0
 11
-565.56757412053037
 21
811.16533877413713
 31
0.0
  0
POLYLINE
  5
389A
  8
0
 66
     1
 10
0.0
 20
0.0
 30
0.0
 70
     1
  0
VERTEX
  5
3C00
  8
0
 10
-607.88230904111708
 20
632.17624109317444
 30
0.0
  0
VERTEX
  5
3C01
  8
0
 10
-559.8823090411172
 20
632.17624109317444
 30
0.0
 42
0.4142135623730951
  0
VERTEX
  5
3C02
  8
0
 10
-553.88230904111708
 20
638.17624109317444
 30
0.0
  0
VERTEX
  5
3C03
  8
0
 10
-553.88230904111708
 20
686.17624109317444
 30
0.0
 42
0.4142135623730951
  0
VERTEX
  5
3C04
  8
0
 10
-559.8823090411172
 20
692.17624109317444
 30
0.0
  0
VERTEX
  5
3C05
  8
0
 10
-607.88230904111708
 20
692.17624109317444
 30
0.0
 42
0.4142135623730951
  0
VERTEX
  5
3C06
  8
0
 10
-613.8823090411172
 20
686.17624109317444
 30
0.0
  0
VERTEX
  5
3C07
  8
0
 10
-613.8823090411172
 20
638.17624109317444
 30
0.0
 42
0.4142135623730951
  0
SEQEND
  5
3C08
  8
0
  0
ARC
  5
389B
  8
0
 10
-560.26098869755765
 20
685.79756143673444
 30
0.0
 40
3.149999999999999
 50
314.99999999999591
 51
135.00000000000341
  0
ARC
  5
389C
  8
0
 10
-564.50362938467674
 20
681.55492074961489
 30
0.0
 40
3.149999999999999
 50
135.00000000000341
 51
314.99999999999591
  0
LINE
  5
389D
  8
0
 10
-566.73101574541442
 20
683.78230711035246
 30
0.0
 11
-562.48837505829545
 21
688.0249477974719
 31
0.0
  0
LINE
  5
389E
  8
0
 10
-562.27624302393974
 20
679.32753438887789
 30
0.0
 11
-558.03360233682042
 21
683.57017507599687
 31
0.0
  0
LINE
  5
389F
  8
0
  6
CENTER
 10
-556.61938877444697
 20
689.43916135984523
 30
0.0
 11
-568.14522930778742
 21
677.9133208265041
 31
0.0
  0
LINE
  5
38A0
  8
0
  6
CENTER
 10
-566.02390896422799
 20
687.31784101628523
 30
0.0
 11
-558.7407091180072
 21
680.03464117006433
 31
0.0
  0
LINE
  5
38A1
  8
0
  6
CENTER
 10
-601.74070911800629
 20
687.31784101628523
 30
0.0
 11
-609.02390896422708
 21
680.03464117006433
 31
0.0
  0
LINE
  5
38A2
  8
0
  6
CENTER
 10
-611.14522930778719
 20
689.43916135984523
 30
0.0
 11
-599.61938877444686
 21
677.9133208265041
 31
0.0
  0
ARC
  5
38A3
  8
0
 10
-603.26098869755765
 20
681.55492074961489
 30
0.0
 40
3.149999999999999
 50
225.00000000000401
 51
44.99999999999654
  0
LINE
  5
38A4
  8
0
 10
-601.03360233681985
 20
683.78230711035246
 30
0.0
 11
-605.27624302393895
 21
688.0249477974719
 31
0.0
  0
ARC
  5
38A5
  8
0
 10
-607.50362938467663
 20
685.79756143673444
 30
0.0
 40
3.149999999999999
 50
44.99999999999654
 51
225.00000000000401
  0
LINE
  5
38A6
  8
0
 10
-605.48837505829465
 20
679.32753438887789
 30
0.0
 11
-609.73101574541386
 21
683.57017507599687
 31
0.0
  0
LINE
  5
38A7
  8
0
 10
-605.48837505829465
 20
645.02494779747121
 30
0.0
 11
-609.73101574541386
 21
640.78230711035235
 31
0.0
  0
ARC
  5
38A8
  8
0
 10
-607.50362938467663
 20
638.55492074961489
 30
0.0
 40
3.149999999999999
 50
134.99999999999591
 51
315.00000000000341
  0
LINE
  5
38A9
  8
0
  6
CENTER
 10
-611.14522930778719
 20
634.91332082650388
 30
0.0
 11
-599.61938877444686
 21
646.439161359845
 31
0.0
  0
LINE
  5
38AA
  8
0
  6
CENTER
 10
-601.74070911800629
 20
637.03464117006376
 30
0.0
 11
-609.02390896422708
 21
644.31784101628477
 31
0.0
  0
LINE
  5
38AB
  8
0
 10
-601.03360233681985
 20
640.57017507599653
 30
0.0
 11
-605.27624302393895
 21
636.32753438887721
 31
0.0
  0
ARC
  5
38AC
  8
0
 10
-603.26098869755765
 20
642.7975614367341
 30
0.0
 40
3.149999999999999
 50
315.00000000000341
 51
134.99999999999591
  0
LINE
  5
38AD
  8
0
  6
CENTER
 10
-566.02390896422799
 20
637.03464117006376
 30
0.0
 11
-558.7407091180072
 21
644.31784101628477
 31
0.0
  0
LINE
  5
38AE
  8
0
  6
CENTER
 10
-556.61938877444697
 20
634.91332082650388
 30
0.0
 11
-568.14522930778742
 21
646.439161359845
 31
0.0
  0
ARC
  5
38AF
  8
0
 10
-564.50362938467674
 20
642.7975614367341
 30
0.0
 40
3.149999999999999
 50
45.000000000004043
 51
224.99999999999639
  0
LINE
  5
38B0
  8
0
 10
-566.73101574541442
 20
640.57017507599653
 30
0.0
 11
-562.48837505829545
 21
636.32753438887721
 31
0.0
  0
ARC
  5
38B1
  8
0
 10
-560.26098869755765
 20
638.55492074961489
 30
0.0
 40
3.149999999999999
 50
224.99999999999639
 51
45.000000000004043
  0
LINE
  5
38B2
  8
0
 10
-562.27624302393974
 20
645.02494779747121
 30
0.0
 11
-558.03360233682042
 21
640.78230711035235
 31
0.0
  0
CIRCLE
  5
38B3
  8
0
 10
-583.8823090411172
 20
662.17624109317444
 30
0.0
 40
5.5
  0
CIRCLE
  5
38B4
  8
0
 10
-583.8823090411172
 20
662.17624109317444
 30
0.0
 40
12.0
  0
CIRCLE
  5
38B5
  8
0
 10
-583.8823090411172
 20
662.17624109317444
 30
0.0
 40
19.5
  0
ARC
  5
38F7
  8
0
 10
-678.78190275438874
 20
807.16533877413724
 30
0.0
 40
4.0
 50
89.999999999999346
 51
180.0
  0
ARC
  5
38F8
  8
0
 10
-641.98190275438913
 20
807.1653387741369
 30
0.0
 40
4.0
 50
359.99999999999329
 51
89.999999999999474
  0
ARC
  5
38F9
  8
0
 10
-640.98190275438901
 20
813.16533877413667
 30
0.0
 40
2.0
 50
269.99999999999937
 51
0.0
  0
ARC
  5
38FA
  8
0
 10
-679.78190275438874
 20
813.16533877413735
 30
0.0
 40
2.0
 50
180.0
 51
269.9999999999992
  0
LINE
  5
38FB
  8
0
 10
-653.38190275438865
 20
809.16533877413701
 30
0.0
 11
-646.38190275438876
 21
809.16533877413701
 31
0.0
  0
ARC
  5
38FC
  8
0
 10
-475.30385722344982
 20
816.1653387741369
 30
0.0
 40
4.0
 50
0.0
 51
90.0
  0
LINE
  5
38FD
  8
0
 10
-479.90385722345002
 20
820.1653387741369
 30
0.0
 11
-419.9038572234499
 21
820.1653387741369
 31
0.0
  0
LINE
  5
38FE
  8
0
 10
-479.90385722345002
 20
822.1653387741369
 30
0.0
 11
-419.90385722344979
 21
822.1653387741369
 31
0.0
  0
LINE
  5
38FF
  8
0
 10
-479.90385722345002
 20
820.1653387741369
 30
0.0
 11
-479.90385722344979
 21
822.1653387741369
 31
0.0
  0
LINE
  5
3900
  8
0
 10
-471.30385722344982
 20
813.16533877413735
 30
0.0
 11
-471.30385722344982
 21
816.1653387741369
 31
0.0
  0
LINE
  5
3901
  8
0
 10
-428.50385722344998
 20
813.16533877413667
 30
0.0
 11
-428.50385722344998
 21
816.1653387741369
 31
0.0
  0
LINE
  5
3903
  8
0
 10
-469.30385722344982
 20
811.16533877413713
 30
0.0
 11
-430.5038572234501
 21
811.16533877413656
 31
0.0
  0
ARC
  5
3905
  8
0
 10
-469.30385722344982
 20
813.16533877413735
 30
0.0
 40
2.0
 50
180.0
 51
269.9999999999992
  0
ARC
  5
390A
  8
0
 10
-430.5038572234501
 20
813.16533877413667
 30
0.0
 40
2.0
 50
269.99999999999937
 51
0.0
  0
ARC
  5
390D
  8
0
 10
-424.50385722344998
 20
816.1653387741369
 30
0.0
 40
4.0
 50
90.0
 51
180.0
  0
LINE
  5
390E
  8
0
 10
-419.9038572234499
 20
820.1653387741369
 30
0.0
 11
-419.9038572234499
 21
822.1653387741369
 31
0.0
  0
ARC
  5
3910
  8
0
 10
-431.5038572234501
 20
807.16533877413667
 30
0.0
 40
4.0
 50
359.99999999999352
 51
89.999999999999318
  0
ARC
  5
3911
  8
0
 10
-468.3038572234496
 20
807.16533877413724
 30
0.0
 40
4.0
 50
89.999999999999105
 51
180.00000000000651
  0
ARC
  5
3913
  8
0
 10
-199.41687238424251
 20
681.25085250235725
 30
0.0
 40
9.7638888888889532
 50
67.396440984844816
 51
87.064650592934896
  0
LINE
  5
3914
  8
0
 10
-198.91687238424271
 20
645.90481240973065
 30
0.0
 11
-126.6522545989361
 21
645.90481240973031
 31
0.0
  0
ARC
  5
3915
  8
0
 10
-199.41687238424251
 20
651.5587723171044
 30
0.0
 40
9.7638888888889532
 50
272.93534940706508
 51
292.60355901515521
  0
LINE
  5
3916
  8
0
 10
-198.91687238424279
 20
641.79488342821548
 30
0.0
 11
-193.78770725964389
 21
641.79488342821526
 31
0.0
  0
LINE
  5
3917
  8
0
 10
-191.9113188847775
 20
645.79488342821594
 30
0.0
 11
-198.91687238424279
 21
645.79488342821571
 31
0.0
  0
LINE
  5
3918
  8
0
 10
-191.9113188847775
 20
645.79488342821526
 30
0.0
 11
-191.9113188847775
 21
642.54488342821526
 31
0.0
  0
LINE
  5
3919
  8
0
 10
-195.66409563451009
 20
645.79488342821548
 30
0.0
 11
-195.66409563451009
 21
642.54488342821526
 31
0.0
  0
ARC
  5
391A
  8
0
 10
-193.7877072596437
 20
644.51710565043766
 30
0.0
 40
2.7222222222221419
 50
226.42642140347641
 51
270.00000000000159
  0
ARC
  5
391B
  8
0
 10
-193.7877072596437
 20
644.51710565043766
 30
0.0
 40
2.7222222222221419
 50
270.0
 51
313.57357859652581
  0
LINE
  5
395D
  8
0
 10
-77.080591738698217
 20
867.73717497529617
 30
0.0
 11
-24.0805917386981
 21
867.73717497529617
 31
0.0
  0
LINE
  5
395E
  8
0
 10
-84.080591738698104
 20
873.73717497529628
 30
0.0
 11
-17.0805917386981
 21
873.73717497529628
 31
0.0
  0
LINE
  5
395F
  8
0
 10
-84.080591738698104
 20
876.23717497529628
 30
0.0
 11
-17.0805917386981
 21
876.23717497529628
 31
0.0
  0
LINE
  5
3961
  8
0
  6
CENTER
 10
-74.580591738698104
 20
866.87617166814459
 30
0.0
 11
-74.580591738698104
 21
881.23717497529617
 31
0.0
  0
ARC
  5
3962
  8
0
 10
-77.080591738698217
 20
871.73717497529628
 30
0.0
 40
4.0
 50
180.0
 51
270.0
  0
ARC
  5
3963
  8
0
 10
-74.580591738698104
 20
863.73717497529628
 30
0.0
 40
4.0
 50
90.0
 51
187.42279240440141
  0
ARC
  5
3967
  8
0
 10
-82.080591738698104
 20
872.73717497529628
 30
0.0
 40
1.0
 50
0.0
 51
90.0
  0
LINE
  5
3968
  8
0
 10
-81.080591738698217
 20
871.73717497529628
 30
0.0
 11
-81.080591738698104
 21
872.73717497529628
 31
0.0
  0
LINE
  5
3969
  8
0
 10
-84.080591738698104
 20
876.23717497529628
 30
0.0
 11
-84.080591738698104
 21
873.73717497529628
 31
0.0
  0
ARC
  5
396A
  8
0
 10
-24.0805917386981
 20
871.73717497529628
 30
0.0
 40
4.0
 50
270.0
 51
0.0
  0
LINE
  5
396B
  8
0
  6
CENTER
 10
-26.5805917386981
 20
866.87617166814459
 30
0.0
 11
-26.5805917386981
 21
881.23717497529617
 31
0.0
  0
ARC
  5
396E
  8
0
 10
-26.5805917386981
 20
863.73717497529628
 30
0.0
 40
4.0
 50
352.5772075955984
 51
90.0
  0
LINE
  5
3970
  8
0
 10
-20.0805917386981
 20
871.73717497529628
 30
0.0
 11
-20.0805917386981
 21
872.73717497529628
 31
0.0
  0
ARC
  5
3971
  8
0
 10
-19.0805917386981
 20
872.73717497529628
 30
0.0
 40
1.0
 50
90.0
 51
180.0
  0
LINE
  5
3972
  8
0
 10
-17.0805917386981
 20
876.23717497529628
 30
0.0
 11
-17.0805917386981
 21
873.73717497529628
 31
0.0
  0
LINE
  5
3973
  8
0
 10
-76.580591738698104
 20
863.73717497529628
 30
0.0
 11
-24.5805917386981
 21
863.73717497529628
 31
0.0
  0
ARC
  5
3974
  8
0
 10
-76.580591738698104
 20
859.73717497529617
 30
0.0
 40
4.0
 50
90.0
 51
179.99999999999989
  0
ARC
  5
3975
  8
0
 10
-24.5805917386981
 20
859.73717497529617
 30
0.0
 40
4.0
 50
0.0000000000001018
 51
90.0
  0
LINE
  5
3976
  8
0
 10
373.41881802239573
 20
880.62179070288141
 30
0.0
 11
425.41881802239573
 21
880.62179070288141
 31
0.0
  0
LINE
  5
3977
  8
0
 10
372.91881802239561
 20
884.62179070288153
 30
0.0
 11
425.91881802239573
 21
884.62179070288153
 31
0.0
  0
LINE
  5
3978
  8
0
 10
365.91881802239573
 20
890.62179070288164
 30
0.0
 11
432.91881802239573
 21
890.62179070288164
 31
0.0
  0
LINE
  5
3979
  8
0
 10
365.91881802239573
 20
893.12179070288141
 30
0.0
 11
432.91881802239573
 21
893.12179070288141
 31
0.0
  0
LINE
  5
397A
  8
0
  6
CENTER
 10
375.41881802239573
 20
883.76078739572995
 30
0.0
 11
375.41881802239573
 21
898.12179070288153
 31
0.0
  0
ARC
  5
397B
  8
0
 10
372.91881802239561
 20
888.62179070288141
 30
0.0
 40
4.0
 50
180.0
 51
270.0
  0
ARC
  5
397C
  8
0
 10
375.41881802239573
 20
880.62179070288141
 30
0.0
 40
4.0
 50
90.0
 51
187.42279240440141
  0
ARC
  5
397D
  8
0
 10
373.41881802239573
 20
876.62179070288153
 30
0.0
 40
4.0
 50
90.0
 51
179.99999999999989
  0
ARC
  5
397E
  8
0
 10
367.91881802239573
 20
889.62179070288141
 30
0.0
 40
1.0
 50
0.0
 51
90.0
  0
LINE
  5
397F
  8
0
 10
368.91881802239561
 20
888.62179070288141
 30
0.0
 11
368.91881802239573
 21
889.62179070288141
 31
0.0
  0
LINE
  5
3980
  8
0
 10
365.91881802239573
 20
893.12179070288141
 30
0.0
 11
365.91881802239573
 21
890.62179070288164
 31
0.0
  0
ARC
  5
3981
  8
0
 10
425.91881802239573
 20
888.62179070288141
 30
0.0
 40
4.0
 50
270.0
 51
0.0
  0
LINE
  5
3982
  8
0
  6
CENTER
 10
423.41881802239573
 20
883.76078739572995
 30
0.0
 11
423.41881802239573
 21
898.12179070288153
 31
0.0
  0
ARC
  5
3983
  8
0
 10
425.41881802239573
 20
876.62179070288153
 30
0.0
 40
4.0
 50
0.0000000000001018
 51
90.0
  0
ARC
  5
3984
  8
0
 10
423.41881802239573
 20
880.62179070288141
 30
0.0
 40
4.0
 50
352.5772075955984
 51
90.0
  0
LINE
  5
3985
  8
0
 10
429.91881802239573
 20
888.62179070288141
 30
0.0
 11
429.91881802239573
 21
889.62179070288141
 31
0.0
  0
ARC
  5
3986
  8
0
 10
430.91881802239573
 20
889.62179070288141
 30
0.0
 40
1.0
 50
90.0
 51
180.0
  0
LINE
  5
3987
  8
0
 10
432.91881802239573
 20
893.12179070288141
 30
0.0
 11
432.91881802239573
 21
890.62179070288164
 31
0.0
  0
LINE
  5
3988
  8
0
 10
54.105775905556811
 20
879.37179070288175
 30
0.0
 11
108.1057759055568
 21
879.37179070288175
 31
0.0
  0
LINE
  5
3989
  8
0
 10
54.60577590555669
 20
884.62179070288153
 30
0.0
 11
107.6057759055568
 21
884.62179070288153
 31
0.0
  0
LINE
  5
398A
  8
0
 10
47.605775905556811
 20
890.62179070288164
 30
0.0
 11
114.6057759055568
 21
890.62179070288164
 31
0.0
  0
LINE
  5
398B
  8
0
 10
47.605775905556811
 20
893.12179070288141
 30
0.0
 11
114.6057759055568
 21
893.12179070288141
 31
0.0
  0
LINE
  5
398C
  8
0
  6
CENTER
 10
57.105775905556811
 20
883.76078739572995
 30
0.0
 11
57.105775905556811
 21
898.12179070288153
 31
0.0
  0
ARC
  5
398D
  8
0
 10
54.60577590555669
 20
888.62179070288141
 30
0.0
 40
4.0
 50
180.0
 51
270.0
  0
ARC
  5
398E
  8
0
 10
57.105775905556811
 20
880.62179070288141
 30
0.0
 40
4.0
 50
90.0
 51
180.0
  0
LINE
  5
398F
  8
0
 10
53.105775905556811
 20
880.62179070288141
 30
0.0
 11
53.105775905556811
 21
879.20021782762785
 31
0.0
  0
ARC
  5
3990
  8
0
 10
49.605775905556811
 20
889.62179070288141
 30
0.0
 40
1.0
 50
0.0
 51
90.0
  0
LINE
  5
3991
  8
0
 10
50.605775905556698
 20
888.62179070288141
 30
0.0
 11
50.605775905556811
 21
889.62179070288141
 31
0.0
  0
LINE
  5
3992
  8
0
 10
47.605775905556811
 20
893.12179070288141
 30
0.0
 11
47.605775905556811
 21
890.62179070288164
 31
0.0
  0
ARC
  5
3993
  8
0
 10
107.6057759055568
 20
888.62179070288141
 30
0.0
 40
4.0
 50
270.0
 51
0.0
  0
LINE
  5
3994
  8
0
  6
CENTER
 10
105.1057759055568
 20
883.76078739572995
 30
0.0
 11
105.1057759055568
 21
898.12179070288153
 31
0.0
  0
LINE
  5
3995
  8
0
 10
109.1057759055568
 20
880.62179070288141
 30
0.0
 11
109.1057759055568
 21
879.20021782762785
 31
0.0
  0
ARC
  5
3996
  8
0
 10
105.1057759055568
 20
880.62179070288141
 30
0.0
 40
4.0
 50
0.0
 51
90.0
  0
LINE
  5
3997
  8
0
 10
111.6057759055568
 20
888.62179070288141
 30
0.0
 11
111.6057759055568
 21
889.62179070288141
 31
0.0
  0
ARC
  5
3998
  8
0
 10
112.6057759055568
 20
889.62179070288141
 30
0.0
 40
1.0
 50
90.0
 51
180.0
  0
LINE
  5
3999
  8
0
 10
114.6057759055568
 20
893.12179070288141
 30
0.0
 11
114.6057759055568
 21
890.62179070288164
 31
0.0
  0
LINE
  5
399B
  8
0
 10
161.12687662323879
 20
879.37179070288153
 30
0.0
 11
217.50455949701191
 21
879.3717907028813
 31
0.0
  0
LINE
  5
399C
  8
0
 10
163.0045594970116
 20
884.62179070288153
 30
0.0
 11
216.00455949701171
 21
884.62179070288153
 31
0.0
  0
LINE
  5
399D
  8
0
 10
151.00455949701171
 20
890.62179070288164
 30
0.0
 11
228.00455949701171
 21
890.62179070288164
 31
0.0
  0
LINE
  5
399E
  8
0
 10
151.00455949701171
 20
893.12179070288141
 30
0.0
 11
228.00455949701151
 21
893.12179070288141
 31
0.0
  0
ARC
  5
399F
  8
0
 10
165.50455949701171
 20
880.62179070288141
 30
0.0
 40
4.0
 50
90.0
 51
180.0
  0
ARC
  5
39A0
  8
0
 10
163.0045594970116
 20
888.62179070288141
 30
0.0
 40
4.0
 50
180.0
 51
270.0
  0
LINE
  5
39A1
  8
0
  6
CENTER
 10
161.50455949701171
 20
883.76078739572995
 30
0.0
 11
161.50455949701171
 21
898.12179070288153
 31
0.0
  0
LINE
  5
39A2
  8
0
 10
161.50455949701171
 20
880.62179070288141
 30
0.0
 11
161.50455949701171
 21
879.37179070288175
 31
0.0
  0
ARC
  5
39A3
  8
0
 10
161.12687662323879
 20
877.87179070288153
 30
0.0
 40
1.5
 50
90.0
 51
178.1438136990557
  0
LINE
  5
39A4
  8
0
 10
159.5045594970118
 20
874.1217907028813
 30
0.0
 11
159.6276637073411
 21
877.92037704670042
 31
0.0
  0
ARC
  5
39A5
  8
0
 10
158.00455949701171
 20
889.62179070288141
 30
0.0
 40
1.0
 50
0.0
 51
90.0
  0
LINE
  5
39A6
  8
0
 10
159.0045594970116
 20
888.62179070288141
 30
0.0
 11
159.00455949701171
 21
889.62179070288141
 31
0.0
  0
LINE
  5
39A7
  8
0
 10
151.00455949701171
 20
890.62179070288175
 30
0.0
 11
151.0045594970118
 21
893.12179070288141
 31
0.0
  0
LINE
  5
39A8
  8
0
  6
CENTER
 10
217.50455949701171
 20
883.76078739572995
 30
0.0
 11
217.50455949701171
 21
898.12179070288153
 31
0.0
  0
ARC
  5
39A9
  8
0
 10
216.00455949701171
 20
888.62179070288141
 30
0.0
 40
4.0
 50
270.0
 51
0.0
  0
LINE
  5
39AA
  8
0
  6
CENTER
 10
189.50455949701191
 20
874.37179070288141
 30
0.0
 11
189.5045594970118
 21
896.12179070288164
 31
0.0
  0
ARC
  5
39AB
  8
0
 10
213.50455949701171
 20
880.62179070288141
 30
0.0
 40
4.0
 50
0.0
 51
90.0
  0
LINE
  5
39AC
  8
0
 10
217.50455949701191
 20
880.62179070288141
 30
0.0
 11
217.50455949701191
 21
879.37179070288175
 31
0.0
  0
LINE
  5
39AD
  8
0
 10
220.00455949701171
 20
888.62179070288141
 30
0.0
 11
220.00455949701171
 21
889.62179070288141
 31
0.0
  0
ARC
  5
39AE
  8
0
 10
221.0045594970118
 20
889.62179070288141
 30
0.0
 40
1.0
 50
90.0
 51
180.0
  0
LINE
  5
39AF
  8
0
 10
228.00455949701171
 20
890.62179070288164
 30
0.0
 11
228.00455949701151
 21
893.12179070288141
 31
0.0
  0
LINE
  5
39B0
  8
0
  6
CENTER
 10
142.2938536818761
 20
700.15508193649373
 30
0.0
 11
154.55820522285521
 21
689.4237743381376
 31
0.0
  0
LINE
  5
39B1
  8
0
  6
CENTER
 10
152.5416832515441
 20
699.49303247923342
 30
0.0
 11
144.31037565318749
 21
690.08582379539791
 31
0.0
  0
LINE
  5
39B2
  8
0
 10
149.79610260723541
 20
699.23787908982001
 30
0.0
 11
152.65324546437839
 21
696.73787908982001
 31
0.0
  0
CIRCLE
  5
39B3
  8
0
 10
176.42602945236581
 20
670.78942813731589
 30
0.0
 40
27.0
  0
LINE
  5
39B4
  8
0
 10
146.42602945236581
 20
637.28942813731589
 30
0.0
 11
206.4260294523659
 21
637.28942813731589
 31
0.0
  0
LINE
  5
39B5
  8
0
 10
149.79610260723541
 20
642.34097718481178
 30
0.0
 11
152.65324546437839
 21
644.84097718481166
 31
0.0
  0
LINE
  5
39B6
  8
0
  6
CENTER
 10
142.2938536818761
 20
641.42377433813795
 30
0.0
 11
154.55820522285521
 21
652.15508193649407
 31
0.0
  0
LINE
  5
39B7
  8
0
  6
CENTER
 10
152.5416832515441
 20
642.08582379539826
 30
0.0
 11
144.31037565318749
 21
651.49303247923376
 31
0.0
  0
ARC
  5
39B8
  8
0
 10
149.85460088093731
 20
648.03942813731578
 30
0.0
 40
4.25
 50
311.1859251657059
 51
131.1859251657059
  0
ARC
  5
39B9
  8
0
 10
149.85460088093731
 20
693.53942813731589
 30
0.0
 40
4.25
 50
228.81407483429399
 51
48.81407483429404
  0
LINE
  5
39BA
  8
0
 10
146.42602945236601
 20
704.28942813731578
 30
0.0
 11
206.42602945236581
 21
704.28942813731578
 31
0.0
  0
LINE
  5
39BB
  8
0
 10
137.92602945236601
 20
695.78942813731589
 30
0.0
 11
137.92602945236581
 21
645.78942813731589
 31
0.0
  0
ARC
  5
39BC
  8
0
 10
146.42602945236581
 20
645.78942813731589
 30
0.0
 40
8.5
 50
180.0
 51
270.0
  0
LINE
  5
39BD
  8
0
 10
144.19881344035321
 20
648.7378790898199
 30
0.0
 11
147.0559562974961
 21
651.23787908982001
 31
0.0
  0
ARC
  5
39BE
  8
0
 10
146.99745802379431
 20
645.53942813731589
 30
0.0
 40
4.25
 50
131.18592516571391
 51
311.1859251657059
  0
ARC
  5
39BF
  8
0
 10
146.42602945236601
 20
695.78942813731589
 30
0.0
 40
8.5
 50
90.0
 51
180.0
  0
LINE
  5
39C0
  8
0
 10
144.19881344035321
 20
692.84097718481178
 30
0.0
 11
147.0559562974961
 21
690.34097718481166
 31
0.0
  0
ARC
  5
39C1
  8
0
 10
146.99745802379431
 20
696.03942813731589
 30
0.0
 40
4.25
 50
48.81407483429404
 51
228.814074834286
  0
LINE
  5
39C2
  8
0
 10
221.93158295183099
 20
650.17949915580095
 30
0.0
 11
214.92602945236581
 21
650.17949915580073
 31
0.0
  0
LINE
  5
39C3
  8
0
 10
214.92602945236581
 20
646.17949915580039
 30
0.0
 11
220.0551945769646
 21
646.17949915580027
 31
0.0
  0
ARC
  5
39C4
  8
0
 10
214.42602945236601
 20
655.94338804468953
 30
0.0
 40
9.7638888888889532
 50
272.93534940706508
 51
292.60355901515521
  0
ARC
  5
39C5
  8
0
 10
214.42602945236601
 20
685.63546822994215
 30
0.0
 40
9.7638888888889532
 50
67.396440984844816
 51
87.064650592934896
  0
LINE
  5
39C6
  8
0
 10
218.42602945236581
 20
697.57949915580036
 30
0.0
 11
214.73540041223879
 21
697.57949915580048
 31
0.0
  0
LINE
  5
39C7
  8
0
 10
214.58308532606191
 20
698.1794991558005
 30
0.0
 11
217.82602945236579
 21
698.17949915580039
 31
0.0
  0
LINE
  5
39C8
  8
0
 10
214.92602945236581
 20
695.39935711883129
 30
0.0
 11
220.0551945769646
 21
695.3993571188314
 31
0.0
  0
LINE
  5
39C9
  8
0
 10
221.93158295183099
 20
691.39935711883084
 30
0.0
 11
214.92602945236581
 21
691.39935711883095
 31
0.0
  0
ARC
  5
39CA
  8
0
 10
206.4260294523659
 20
645.78942813731589
 30
0.0
 40
8.5
 50
270.0
 51
0.0
  0
ARC
  5
39CB
  8
0
 10
206.42602945236581
 20
695.78942813731589
 30
0.0
 40
8.5
 50
0.0
 51
90.0
  0
ARC
  5
39CC
  8
0
 10
202.99745802379431
 20
648.03942813731578
 30
0.0
 40
4.25
 50
48.81407483429404
 51
228.81407483429399
  0
LINE
  5
39CD
  8
0
 10
214.92602945236581
 20
695.78942813731589
 30
0.0
 11
214.9260294523659
 21
645.78942813731589
 31
0.0
  0
LINE
  5
39CE
  8
0
  6
CENTER
 10
176.42602945236581
 20
709.28942813731578
 30
0.0
 11
176.42602945236581
 21
632.28942813731589
 31
0.0
  0
LINE
  5
39CF
  8
0
 10
203.0559562974961
 20
642.34097718481178
 30
0.0
 11
200.19881344035321
 21
644.84097718481166
 31
0.0
  0
LINE
  5
39D0
  8
0
  6
CENTER
 10
210.55820522285541
 20
641.42377433813795
 30
0.0
 11
198.29385368187641
 21
652.15508193649407
 31
0.0
  0
LINE
  5
39D1
  8
0
  6
CENTER
 10
200.31037565318749
 20
642.08582379539826
 30
0.0
 11
208.54168325154399
 21
651.49303247923376
 31
0.0
  0
LINE
  5
39D2
  8
0
 10
208.6532454643785
 20
648.7378790898199
 30
0.0
 11
205.7961026072355
 21
651.23787908982001
 31
0.0
  0
ARC
  5
39D3
  8
0
 10
205.8546008809372
 20
645.53942813731589
 30
0.0
 40
4.25
 50
228.81407483429399
 51
48.814074834286068
  0
CIRCLE
  5
39D4
  8
0
 10
176.42602945236581
 20
670.78942813731589
 30
0.0
 40
17.0
  0
CIRCLE
  5
39D5
  8
0
 10
176.42602945236581
 20
670.78942813731589
 30
0.0
 40
7.5
  0
ARC
  5
39D6
  8
0
 10
202.99745802379431
 20
693.53942813731589
 30
0.0
 40
4.25
 50
131.1859251657059
 51
311.1859251657059
  0
LINE
  5
39D7
  8
0
  6
CENTER
 10
210.55820522285541
 20
700.15508193649373
 30
0.0
 11
198.29385368187641
 21
689.4237743381376
 31
0.0
  0
LINE
  5
39D8
  8
0
 10
203.0559562974961
 20
699.23787908982001
 30
0.0
 11
200.19881344035321
 21
696.73787908982001
 31
0.0
  0
LINE
  5
39D9
  8
0
  6
CENTER
 10
200.31037565318749
 20
699.49303247923342
 30
0.0
 11
208.54168325154399
 21
690.08582379539791
 31
0.0
  0
LINE
  5
39DA
  8
0
 10
208.6532454643785
 20
692.84097718481178
 30
0.0
 11
205.7961026072355
 21
690.34097718481166
 31
0.0
  0
ARC
  5
39DB
  8
0
 10
205.8546008809372
 20
696.03942813731589
 30
0.0
 40
4.25
 50
311.18592516571391
 51
131.1859251657059
  0
ARC
  5
39DC
  8
0
 10
220.05519457696479
 20
648.90172137802256
 30
0.0
 40
2.7222222222221419
 50
270.0
 51
313.57357859652581
  0
ARC
  5
39DD
  8
0
 10
220.05519457696479
 20
648.90172137802256
 30
0.0
 40
2.7222222222221419
 50
226.42642140347641
 51
270.00000000000159
  0
LINE
  5
39DE
  8
0
 10
218.17880620209851
 20
650.17949915580039
 30
0.0
 11
218.17880620209851
 21
646.92949915580039
 31
0.0
  0
LINE
  5
39DF
  8
0
 10
221.93158295183099
 20
650.17949915580027
 30
0.0
 11
221.93158295183099
 21
646.92949915580039
 31
0.0
  0
LINE
  5
39E0
  8
0
 10
221.93158295183099
 20
691.3993571188314
 30
0.0
 11
221.93158295183099
 21
694.64935711883129
 31
0.0
  0
LINE
  5
39E1
  8
0
 10
218.42602945236581
 20
697.57949915580036
 30
0.0
 11
217.82602945236579
 21
698.17949915580039
 31
0.0
  0
LINE
  5
39E2
  8
0
 10
218.42602945236581
 20
697.57949915580036
 30
0.0
 11
218.42602945236581
 21
695.3993571188314
 31
0.0
  0
LINE
  5
39E3
  8
0
 10
217.82602945236499
 20
698.1794991558005
 30
0.0
 11
217.82602945236499
 21
695.39935711883118
 31
0.0
  0
LINE
  5
39E4
  8
0
 10
218.17880620209851
 20
691.39935711883129
 30
0.0
 11
218.17880620209851
 21
694.64935711883129
 31
0.0
  0
ARC
  5
39E5
  8
0
 10
220.05519457696479
 20
692.67713489660912
 30
0.0
 40
2.7222222222221419
 50
89.999999999998366
 51
133.5735785965235
  0
ARC
  5
39E6
  8
0
 10
220.05519457696479
 20
692.67713489660912
 30
0.0
 40
2.7222222222221419
 50
46.42642140347413
 51
90.0
  0
LINE
  5
39EA
  8
0
 10
536.58099987376431
 20
936.13393785372136
 30
0.0
 11
603.58099987376431
 21
936.13393785372136
 31
0.0
  0
LINE
  5
39EB
  8
0
 10
536.58099987376431
 20
933.63393785372136
 30
0.0
 11
603.58099987376431
 21
933.63393785372136
 31
0.0
  0
LINE
  5
39EC
  8
0
 10
543.58099987376409
 20
927.63393785372136
 30
0.0
 11
596.5809998737642
 21
927.63393785372136
 31
0.0
  0
ARC
  5
39ED
  8
0
 10
546.08099987376431
 20
923.63393785372136
 30
0.0
 40
4.0
 50
90.0
 51
199.71429824424169
  0
LINE
  5
39EE
  8
0
  6
CENTER
 10
546.08099987376431
 20
926.7729345465699
 30
0.0
 11
546.08099987376431
 21
941.13393785372148
 31
0.0
  0
LINE
  5
39EF
  8
0
 10
536.58099987376431
 20
936.13393785372136
 30
0.0
 11
536.58099987376431
 21
933.63393785372136
 31
0.0
  0
LINE
  5
39F0
  8
0
 10
539.58099987376409
 20
931.63393785372148
 30
0.0
 11
539.58099987376431
 21
932.63393785372136
 31
0.0
  0
ARC
  5
39F1
  8
0
 10
538.5809998737642
 20
932.63393785372136
 30
0.0
 40
1.0
 50
0.0
 51
90.0
  0
ARC
  5
39F2
  8
0
 10
543.58099987376409
 20
931.63393785372148
 30
0.0
 40
4.0
 50
180.0
 51
270.0
  0
ARC
  5
39F3
  8
0
 10
594.08099987376431
 20
923.63393785372136
 30
0.0
 40
4.0
 50
340.28570175575823
 51
90.0
  0
LINE
  5
39F4
  8
0
  6
CENTER
 10
594.08099987376431
 20
926.7729345465699
 30
0.0
 11
594.08099987376431
 21
941.13393785372148
 31
0.0
  0
ARC
  5
39F5
  8
0
 10
596.5809998737642
 20
931.63393785372148
 30
0.0
 40
4.0
 50
270.0
 51
0.0
  0
LINE
  5
39F6
  8
0
 10
603.58099987376431
 20
936.13393785372136
 30
0.0
 11
603.58099987376431
 21
933.63393785372136
 31
0.0
  0
ARC
  5
39F7
  8
0
 10
601.58099987376431
 20
932.63393785372136
 30
0.0
 40
1.0
 50
90.0
 51
180.0
  0
LINE
  5
39F8
  8
0
 10
600.5809998737642
 20
931.63393785372148
 30
0.0
 11
600.5809998737642
 21
932.63393785372136
 31
0.0
  0
LINE
  5
39F9
  8
0
 10
642.40609454584182
 20
922.38393785372148
 30
0.0
 11
698.78377741961492
 21
922.38393785372125
 31
0.0
  0
LINE
  5
39FA
  8
0
 10
644.28377741961458
 20
927.63393785372136
 30
0.0
 11
697.28377741961469
 21
927.63393785372136
 31
0.0
  0
LINE
  5
39FB
  8
0
 10
632.28377741961469
 20
933.63393785372136
 30
0.0
 11
709.28377741961447
 21
933.63393785372136
 31
0.0
  0
LINE
  5
39FC
  8
0
 10
632.28377741961469
 20
936.13393785372136
 30
0.0
 11
709.28377741961435
 21
936.13393785372136
 31
0.0
  0
LINE
  5
39FD
  8
0
 10
642.40609454584182
 20
922.38393785372148
 30
0.0
 11
698.78377741961492
 21
922.38393785372125
 31
0.0
  0
ARC
  5
39FE
  8
0
 10
646.78377741961469
 20
923.63393785372136
 30
0.0
 40
4.0
 50
90.0
 51
180.0
  0
LINE
  5
39FF
  8
0
 10
642.78377741961469
 20
923.63393785372136
 30
0.0
 11
642.78377741961469
 21
922.3839378537217
 31
0.0
  0
ARC
  5
3A00
  8
0
 10
642.40609454584182
 20
920.88393785372148
 30
0.0
 40
1.5
 50
90.0
 51
178.1438136990557
  0
ARC
  5
3A01
  8
0
 10
642.40609454584182
 20
920.88393785372148
 30
0.0
 40
1.5
 50
90.0
 51
178.1438136990557
  0
LINE
  5
3A02
  8
0
 10
632.28377741961469
 20
933.63393785372159
 30
0.0
 11
632.28377741961469
 21
936.13393785372136
 31
0.0
  0
ARC
  5
3A03
  8
0
 10
639.28377741961469
 20
932.63393785372136
 30
0.0
 40
1.0
 50
0.0
 51
90.0
  0
LINE
  5
3A04
  8
0
 10
640.28377741961458
 20
931.63393785372148
 30
0.0
 11
640.28377741961469
 21
932.63393785372136
 31
0.0
  0
ARC
  5
3A05
  8
0
 10
644.28377741961458
 20
931.63393785372148
 30
0.0
 40
4.0
 50
180.0
 51
270.0
  0
LINE
  5
3A06
  8
0
  6
CENTER
 10
642.78377741961469
 20
926.7729345465699
 30
0.0
 11
642.78377741961469
 21
941.13393785372148
 31
0.0
  0
ARC
  5
3A07
  8
0
 10
694.78377741961469
 20
923.63393785372136
 30
0.0
 40
4.0
 50
0.0
 51
90.0
  0
LINE
  5
3A08
  8
0
 10
698.78377741961469
 20
923.63393785372136
 30
0.0
 11
698.78377741961469
 21
922.3839378537217
 31
0.0
  0
ARC
  5
3A09
  8
0
 10
697.28377741961469
 20
931.63393785372148
 30
0.0
 40
4.0
 50
270.0
 51
0.0
  0
LINE
  5
3A0A
  8
0
  6
CENTER
 10
698.78377741961469
 20
926.7729345465699
 30
0.0
 11
698.78377741961469
 21
941.13393785372148
 31
0.0
  0
LINE
  5
3A0B
  8
0
 10
701.28377741961469
 20
931.63393785372148
 30
0.0
 11
701.28377741961469
 21
932.63393785372136
 31
0.0
  0
ARC
  5
3A0C
  8
0
 10
702.28377741961469
 20
932.63393785372136
 30
0.0
 40
1.0
 50
90.0
 51
180.0
  0
LINE
  5
3A0D
  8
0
 10
709.28377741961447
 20
933.63393785372136
 30
0.0
 11
709.28377741961435
 21
936.13393785372136
 31
0.0
  0
LINE
  5
3A0E
  8
0
 10
832.28743942783808
 20
936.13393785372159
 30
0.0
 11
899.28743942783808
 21
936.13393785372159
 31
0.0
  0
LINE
  5
3A0F
  8
0
 10
832.28743942783808
 20
933.63393785372159
 30
0.0
 11
899.28743942783808
 21
933.63393785372159
 31
0.0
  0
LINE
  5
3A10
  8
0
 10
839.28743942783785
 20
927.63393785372148
 30
0.0
 11
892.28743942783797
 21
927.63393785372148
 31
0.0
  0
LINE
  5
3A11
  8
0
 10
839.78743942783797
 20
923.63393785372159
 30
0.0
 11
891.78743942783808
 21
923.63393785372159
 31
0.0
  0
ARC
  5
3A12
  8
0
 10
839.78743942783797
 20
919.63393785372148
 30
0.0
 40
4.0
 50
90.0
 51
179.99999999999989
  0
ARC
  5
3A13
  8
0
 10
841.78743942783808
 20
923.63393785372159
 30
0.0
 40
4.0
 50
90.0
 51
187.42279240440141
  0
LINE
  5
3A14
  8
0
  6
CENTER
 10
841.78743942783808
 20
926.7729345465699
 30
0.0
 11
841.78743942783808
 21
941.13393785372148
 31
0.0
  0
LINE
  5
3A15
  8
0
 10
832.28743942783808
 20
936.13393785372159
 30
0.0
 11
832.28743942783808
 21
933.63393785372159
 31
0.0
  0
LINE
  5
3A16
  8
0
 10
835.28743942783797
 20
931.63393785372159
 30
0.0
 11
835.28743942783797
 21
932.63393785372159
 31
0.0
  0
ARC
  5
3A17
  8
0
 10
834.28743942783797
 20
932.63393785372159
 30
0.0
 40
1.0
 50
0.0
 51
90.0
  0
ARC
  5
3A18
  8
0
 10
839.28743942783785
 20
931.63393785372159
 30
0.0
 40
4.0
 50
180.0
 51
270.0
  0
ARC
  5
3A19
  8
0
 10
889.78743942783797
 20
923.63393785372159
 30
0.0
 40
4.0
 50
352.5772075955984
 51
90.0
  0
ARC
  5
3A1A
  8
0
 10
891.78743942783808
 20
919.63393785372148
 30
0.0
 40
4.0
 50
0.0000000000001018
 51
90.0
  0
ARC
  5
3A1B
  8
0
 10
892.28743942783797
 20
931.63393785372159
 30
0.0
 40
4.0
 50
270.0
 51
0.0
  0
LINE
  5
3A1C
  8
0
  6
CENTER
 10
889.78743942783797
 20
926.7729345465699
 30
0.0
 11
889.78743942783797
 21
941.13393785372148
 31
0.0
  0
LINE
  5
3A1D
  8
0
 10
899.28743942783808
 20
936.13393785372159
 30
0.0
 11
899.28743942783808
 21
933.63393785372159
 31
0.0
  0
ARC
  5
3A1E
  8
0
 10
897.28743942783808
 20
932.63393785372159
 30
0.0
 40
1.0
 50
90.0
 51
180.0
  0
LINE
  5
3A1F
  8
0
 10
896.28743942783808
 20
931.63393785372159
 30
0.0
 11
896.28743942783808
 21
932.63393785372159
 31
0.0
  0
LINE
  5
3AA0
  8
0
 10
709.28377741961435
 20
696.5443249284848
 30
0.0
 11
709.28377741961435
 21
646.5443249284848
 31
0.0
  0
CIRCLE
  5
3AA1
  8
0
 10
670.78377741961435
 20
671.5443249284848
 30
0.0
 40
7.5
  0
LINE
  5
3AA2
  8
0
  6
CENTER
 10
670.78377741961435
 20
704.54432492848491
 30
0.0
 11
670.78377741961435
 21
638.54432492848468
 31
0.0
  0
LINE
  5
3AA3
  8
0
  6
CENTER
 10
670.78377741961435
 20
710.0443249284848
 30
0.0
 11
670.78377741961435
 21
633.04432492848468
 31
0.0
  0
LINE
  5
3AA4
  8
0
 10
632.28377741961458
 20
696.5443249284848
 30
0.0
 11
632.28377741961435
 21
646.5443249284848
 31
0.0
  0
CIRCLE
  5
3AA5
  8
0
 10
670.78377741961435
 20
671.5443249284848
 30
0.0
 40
17.0
  0
CIRCLE
  5
3AA6
  8
0
 10
670.78377741961435
 20
671.5443249284848
 30
0.0
 40
27.0
  0
LINE
  5
3AA7
  8
0
  6
CENTER
 10
694.66812362043595
 20
642.84072058656716
 30
0.0
 11
702.89943121879264
 21
652.24792927040266
 31
0.0
  0
LINE
  5
3AA8
  8
0
  6
CENTER
 10
704.91595319010401
 20
642.17867112930685
 30
0.0
 11
692.65160164912493
 21
652.90997872766297
 31
0.0
  0
LINE
  5
3AA9
  8
0
 10
697.41370426474475
 20
643.09587397598057
 30
0.0
 11
694.55656140760175
 21
645.59587397598068
 31
0.0
  0
ARC
  5
3AAA
  8
0
 10
697.35520599104291
 20
648.7943249284848
 30
0.0
 40
4.25
 50
48.81407483429404
 51
228.81407483429399
  0
LINE
  5
3AAB
  8
0
 10
640.78377741961435
 20
638.0443249284848
 30
0.0
 11
700.78377741961435
 21
638.0443249284848
 31
0.0
  0
LINE
  5
3AAC
  8
0
  6
CENTER
 10
636.6516016491247
 20
642.17867112930685
 30
0.0
 11
648.91595319010366
 21
652.90997872766297
 31
0.0
  0
ARC
  5
3AAD
  8
0
 10
644.21234884818591
 20
648.7943249284848
 30
0.0
 40
4.25
 50
311.1859251657059
 51
131.1859251657059
  0
LINE
  5
3AAE
  8
0
  6
CENTER
 10
646.89943121879264
 20
642.84072058656716
 30
0.0
 11
638.66812362043595
 21
652.24792927040266
 31
0.0
  0
ARC
  5
3AAF
  8
0
 10
641.35520599104291
 20
646.29432492848468
 30
0.0
 40
4.25
 50
131.18592516571391
 51
311.1859251657059
  0
LINE
  5
3AB0
  8
0
 10
638.55656140760175
 20
649.49277588098892
 30
0.0
 11
641.41370426474464
 21
651.99277588098892
 31
0.0
  0
LINE
  5
3AB1
  8
0
 10
644.15385057448395
 20
643.09587397598057
 30
0.0
 11
647.01099343162684
 21
645.59587397598068
 31
0.0
  0
ARC
  5
3AB2
  8
0
 10
640.78377741961435
 20
646.5443249284848
 30
0.0
 40
8.5
 50
180.0
 51
270.0
  0
ARC
  5
3AB3
  8
0
 10
714.41294254421325
 20
649.65661816919157
 30
0.0
 40
2.7222222222221419
 50
226.42642140347641
 51
270.00000000000159
  0
LINE
  5
3AB4
  8
0
 10
709.28377741961435
 20
646.9343959469694
 30
0.0
 11
714.41294254421325
 21
646.93439594696929
 31
0.0
  0
LINE
  5
3AB5
  8
0
 10
716.28933091907959
 20
650.93439594696974
 30
0.0
 11
709.28377741961435
 21
650.93439594696963
 31
0.0
  0
LINE
  5
3AB6
  8
0
 10
712.53655416934703
 20
650.9343959469694
 30
0.0
 11
712.53655416934703
 21
647.68439594696918
 31
0.0
  0
ARC
  5
3AB7
  8
0
 10
708.78377741961447
 20
656.69828483585843
 30
0.0
 40
9.7638888888889532
 50
272.93534940706508
 51
292.60355901515521
  0
ARC
  5
3AB8
  8
0
 10
700.21234884818568
 20
646.29432492848468
 30
0.0
 40
4.25
 50
228.81407483429399
 51
48.814074834286068
  0
LINE
  5
3AB9
  8
0
 10
703.01099343162696
 20
649.49277588098892
 30
0.0
 11
700.15385057448395
 21
651.99277588098892
 31
0.0
  0
ARC
  5
3ABA
  8
0
 10
700.78377741961435
 20
646.5443249284848
 30
0.0
 40
8.5
 50
270.0
 51
0.0
  0
ARC
  5
3ABB
  8
0
 10
714.41294254421325
 20
649.65661816919157
 30
0.0
 40
2.7222222222221419
 50
270.0
 51
313.57357859652581
  0
LINE
  5
3ABC
  8
0
 10
716.28933091907959
 20
650.93439594696929
 30
0.0
 11
716.28933091907959
 21
647.68439594696918
 31
0.0
  0
LINE
  5
3ABD
  8
0
  6
CENTER
 10
694.66812362043595
 20
700.24792927040232
 30
0.0
 11
702.89943121879264
 21
690.84072058656682
 31
0.0
  0
LINE
  5
3ABE
  8
0
 10
697.41370426474475
 20
699.99277588098892
 30
0.0
 11
694.55656140760175
 21
697.49277588098892
 31
0.0
  0
LINE
  5
3ABF
  8
0
  6
CENTER
 10
704.91595319010401
 20
700.90997872766263
 30
0.0
 11
692.65160164912493
 21
690.17867112930639
 31
0.0
  0
ARC
  5
3AC0
  8
0
 10
697.35520599104291
 20
694.2943249284848
 30
0.0
 40
4.25
 50
131.1859251657059
 51
311.1859251657059
  0
LINE
  5
3AC1
  8
0
 10
640.78377741961458
 20
705.0443249284848
 30
0.0
 11
700.78377741961435
 21
705.0443249284848
 31
0.0
  0
LINE
  5
3AC2
  8
0
  6
CENTER
 10
646.89943121879264
 20
700.24792927040232
 30
0.0
 11
638.66812362043595
 21
690.84072058656682
 31
0.0
  0
ARC
  5
3AC3
  8
0
 10
641.35520599104291
 20
696.79432492848468
 30
0.0
 40
4.25
 50
48.81407483429404
 51
228.814074834286
  0
LINE
  5
3AC4
  8
0
  6
CENTER
 10
636.6516016491247
 20
700.90997872766263
 30
0.0
 11
648.91595319010366
 21
690.17867112930639
 31
0.0
  0
ARC
  5
3AC5
  8
0
 10
644.21234884818591
 20
694.2943249284848
 30
0.0
 40
4.25
 50
228.81407483429399
 51
48.81407483429404
  0
LINE
  5
3AC6
  8
0
 10
638.55656140760175
 20
693.59587397598057
 30
0.0
 11
641.41370426474464
 21
691.09587397598068
 31
0.0
  0
LINE
  5
3AC7
  8
0
 10
644.15385057448395
 20
699.99277588098892
 30
0.0
 11
647.01099343162684
 21
697.49277588098892
 31
0.0
  0
ARC
  5
3AC8
  8
0
 10
640.78377741961458
 20
696.5443249284848
 30
0.0
 40
8.5
 50
90.0
 51
180.0
  0
LINE
  5
3AC9
  8
0
 10
716.28933091907959
 20
692.15425391000031
 30
0.0
 11
716.28933091907959
 21
695.40425391000031
 31
0.0
  0
LINE
  5
3ACA
  8
0
 10
712.53655416934703
 20
692.15425391000019
 30
0.0
 11
712.53655416934703
 21
695.40425391000031
 31
0.0
  0
ARC
  5
3ACB
  8
0
 10
700.21234884818568
 20
696.79432492848468
 30
0.0
 40
4.25
 50
311.18592516571391
 51
131.1859251657059
  0
LINE
  5
3ACC
  8
0
 10
716.28933091907959
 20
692.15425390999974
 30
0.0
 11
709.28377741961435
 21
692.15425390999985
 31
0.0
  0
LINE
  5
3ACD
  8
0
 10
703.01099343162696
 20
693.59587397598057
 30
0.0
 11
700.15385057448395
 21
691.09587397598068
 31
0.0
  0
ARC
  5
3ACE
  8
0
 10
714.41294254421325
 20
693.43203168777802
 30
0.0
 40
2.7222222222221419
 50
89.999999999998366
 51
133.5735785965235
  0
LINE
  5
3ACF
  8
0
 10
712.78377741961435
 20
698.33439594696915
 30
0.0
 11
712.18377741961444
 21
698.93439594696918
 31
0.0
  0
LINE
  5
3AD0
  8
0
 10
709.28377741961435
 20
696.15425391000008
 30
0.0
 11
714.41294254421325
 21
696.15425391000031
 31
0.0
  0
LINE
  5
3AD1
  8
0
 10
712.78377741961435
 20
698.33439594696915
 30
0.0
 11
709.09314837948727
 21
698.33439594696927
 31
0.0
  0
LINE
  5
3AD2
  8
0
 10
712.18377741961365
 20
698.93439594696929
 30
0.0
 11
712.18377741961365
 21
696.15425390999997
 31
0.0
  0
ARC
  5
3AD3
  8
0
 10
708.78377741961447
 20
686.39036502111117
 30
0.0
 40
9.7638888888889532
 50
67.396440984844816
 51
87.064650592934896
  0
ARC
  5
3AD4
  8
0
 10
700.78377741961435
 20
696.5443249284848
 30
0.0
 40
8.5
 50
0.0
 51
90.0
  0
LINE
  5
3AD5
  8
0
 10
708.94083329331045
 20
698.93439594696929
 30
0.0
 11
712.18377741961444
 21
698.93439594696918
 31
0.0
  0
ARC
  5
3AD6
  8
0
 10
714.41294254421325
 20
693.43203168777802
 30
0.0
 40
2.7222222222221419
 50
46.42642140347413
 51
90.0
  0
LINE
  5
3AD7
  8
0
 10
712.78377741961435
 20
698.33439594696915
 30
0.0
 11
712.78377741961435
 21
696.15425391000031
 31
0.0
  0
VIEWPORT
  5
8D
 67
     1
  8
0
 10
143.47825622558591
 20
99.980751991271987
 30
0.0
 40
339.12752973873143
 41
222.1965796813964
 68
     1
 69
     1
1001
ACAD
1000
MVIEW
1002
{
1070
    16
1010
0.0
1020
0.0
1030
0.0
1010
0.0
1020
0.0
1030
1.0
1040
0.0
1040
222.1965796813964
1040
143.47825622558591
1040
99.980751991271987
1040
50.0
1040
0.0
1040
0.0
1070
     0
1070
   100
1070
     1
1070
     1
1070
     0
1070
     0
1070
     0
1070
     0
1040
0.0
1040
0.0
1040
0.0
1040
10.0
1040
10.0
1040
10.0
1040
10.0
1070
     0
1002
{
1002
}
1002
}
  0
VIEWPORT
  5
8F
 67
     1
  8
0
 10
143.37242841720581
 20
99.874916553497314
 30
0.0
 40
229.3958854675293
 41
159.79986648559569
 68
     2
 69
     2
1001
ACAD
1000
MVIEW
1002
{
1070
    16
1010
0.0
1020
0.0
1030
0.0
1010
0.0
1020
0.0
1030
1.0
1040
0.0
1040
300.10452961672468
1040
210.0
1040
148.5
1040
50.0
1040
0.0
1040
0.0
1070
     0
1070
   100
1070
     1
1070
     2
1070
     0
1070
     0
1070
     0
1070
     0
1040
0.0
1040
0.0
1040
0.0
1040
10.0
1040
10.0
1040
10.0
1040
10.0
1070
     0
1002
{
1002
}
1002
}
  0
ENDSEC
  0
EOF
