  0
SECTION
  2
HEADER
  9
$ACADVER
  1
AC1009
  9
$INSBASE
 10
0.0
 20
0.0
 30
0.0
  9
$EXTMIN
 10
-698.93175551979618
 20
621.46429919747334
 30
-0.0000000349181948
  9
$EXTMAX
 10
947.53649365131957
 20
971.87952514844255
 30
0.0000000814935746
  9
$LIMMIN
 10
0.0
 20
0.0
  9
$LIMMAX
 10
420.0
 20
297.0
  9
$ORTHOMODE
 70
     1
  9
$REGENMODE
 70
     1
  9
$FILLMODE
 70
     1
  9
$QTEXTMODE
 70
     0
  9
$MIRRTEXT
 70
     1
  9
$DRAGMODE
 70
     2
  9
$LTSCALE
 40
1.0
  9
$OSMODE
 70
    40
  9
$ATTMODE
 70
     1
  9
$TEXTSIZE
 40
2.5
  9
$TRACEWID
 40
1.0
  9
$TEXTSTYLE
  7
STANDARD
  9
$CLAYER
  8
0
  9
$CELTYPE
  6
BYLAYER
  9
$CECOLOR
 62
   256
  9
$DIMSCALE
 40
1.0
  9
$DIMASZ
 40
2.5
  9
$DIMEXO
 40
0.625
  9
$DIMDLI
 40
3.75
  9
$DIMRND
 40
0.0
  9
$DIMDLE
 40
0.0
  9
$DIMEXE
 40
1.25
  9
$DIMTP
 40
0.0
  9
$DIMTM
 40
0.0
  9
$DIMTXT
 40
2.5
  9
$DIMCEN
 40
2.5
  9
$DIMTSZ
 40
0.0
  9
$DIMTOL
 70
     0
  9
$DIMLIM
 70
     0
  9
$DIMTIH
 70
     1
  9
$DIMTOH
 70
     1
  9
$DIMSE1
 70
     0
  9
$DIMSE2
 70
     0
  9
$DIMTAD
 70
     1
  9
$DIMZIN
 70
     8
  9
$DIMBLK
  1

  9
$DIMASO
 70
     1
  9
$DIMSHO
 70
     1
  9
$DIMPOST
  1

  9
$DIMAPOST
  1

  9
$DIMALT
 70
     0
  9
$DIMALTD
 70
     3
  9
$DIMALTF
 40
0.03937007874016
  9
$DIMLFAC
 40
1.0
  9
$DIMTOFL
 70
     1
  9
$DIMTVP
 40
0.0
  9
$DIMTIX
 70
     0
  9
$DIMSOXD
 70
     0
  9
$DIMSAH
 70
     0
  9
$DIMBLK1
  1

  9
$DIMBLK2
  1

  9
$DIMSTYLE
  2
ISO-25
  9
$DIMCLRD
 70
     0
  9
$DIMCLRE
 70
     0
  9
$DIMCLRT
 70
     0
  9
$DIMTFAC
 40
1.0
  9
$DIMGAP
 40
0.625
  9
$LUNITS
 70
     2
  9
$LUPREC
 70
     4
  9
$SKETCHINC
 40
1.0
  9
$FILLETRAD
 40
5.0
  9
$AUNITS
 70
     0
  9
$AUPREC
 70
     0
  9
$MENU
  1
.
  9
$ELEVATION
 40
0.0
  9
$PELEVATION
 40
0.0
  9
$THICKNESS
 40
0.0
  9
$LIMCHECK
 70
     0
  9
$BLIPMODE
 70
     0
  9
$CHAMFERA
 40
0.6
  9
$CHAMFERB
 40
0.6
  9
$SKPOLY
 70
     0
  9
$TDCREATE
 40
2453692.5231076041
  9
$TDUPDATE
 40
2453693.6636018278
  9
$TDINDWG
 40
0.2747899884
  9
$TDUSRTIMER
 40
0.2747898727
  9
$USRTIMER
 70
     1
  9
$ANGBASE
 50
0.0
  9
$ANGDIR
 70
     0
  9
$PDMODE
 70
     3
  9
$PDSIZE
 40
2.0
  9
$PLINEWID
 40
0.0
  9
$COORDS
 70
     0
  9
$SPLFRAME
 70
     0
  9
$SPLINETYPE
 70
     6
  9
$SPLINESEGS
 70
     8
  9
$ATTDIA
 70
     0
  9
$ATTREQ
 70
     1
  9
$HANDLING
 70
-16383
  9
$HANDSEED
  5
28D4
  9
$SURFTAB1
 70
     6
  9
$SURFTAB2
 70
     6
  9
$SURFTYPE
 70
     6
  9
$SURFU
 70
     6
  9
$SURFV
 70
     6
  9
$UCSNAME
  2

  9
$UCSORG
 10
-375.34634535645881
 20
621.51974360826785
 30
0.0
  9
$UCSXDIR
 10
1.0
 20
0.0
 30
0.0
  9
$UCSYDIR
 10
0.0
 20
1.0
 30
0.0
  9
$PUCSNAME
  2

  9
$PUCSORG
 10
0.0
 20
0.0
 30
0.0
  9
$PUCSXDIR
 10
1.0
 20
0.0
 30
0.0
  9
$PUCSYDIR
 10
0.0
 20
1.0
 30
0.0
  9
$USERI1
 70
     0
  9
$USERI2
 70
     0
  9
$USERI3
 70
     0
  9
$USERI4
 70
     0
  9
$USERI5
 70
     0
  9
$USERR1
 40
0.0
  9
$USERR2
 40
0.0
  9
$USERR3
 40
0.0
  9
$USERR4
 40
0.0
  9
$USERR5
 40
0.0
  9
$WORLDVIEW
 70
     1
  9
$SHADEDGE
 70
     3
  9
$SHADEDIF
 70
    70
  9
$TILEMODE
 70
     1
  9
$MAXACTVP
 70
    48
  9
$PLIMCHECK
 70
     0
  9
$PEXTMIN
 10
28.674485683441159
 20
19.97498331069945
 30
0.0
  9
$PEXTMAX
 10
258.0703711509704
 20
179.77484979629509
 30
0.0
  9
$PLIMMIN
 10
-5.027069091796875
 20
-5.0270833969116211
  9
$PLIMMAX
 10
291.98358154296869
 20
204.98858737945551
  9
$UNITMODE
 70
     0
  9
$VISRETAIN
 70
     1
  9
$PLINEGEN
 70
     0
  9
$PSLTSCALE
 70
     1
  0
ENDSEC
  0
SECTION
  2
TABLES
  0
TABLE
  2
VPORT
 70
    77
  0
VPORT
  2
*ACTIVE
 70
     0
 10
0.0
 20
0.0
 11
1.0
 21
1.0
 12
124.3023690657617
 22
796.67191217295795
 13
0.0
 23
0.0
 14
10.0
 24
10.0
 15
10.0
 25
10.0
 16
0.0
 26
0.0
 36
1.0
 17
0.0
 27
0.0
 37
0.0
 40
1082.7064391062829
 41
1.5281602002503121
 42
50.0
 43
0.0
 44
0.0
 50
0.0
 51
0.0
 71
     0
 72
   100
 73
     1
 74
     2
 75
     0
 76
     0
 77
     0
 78
     0
  0
ENDTAB
  0
TABLE
  2
LTYPE
 70
     2
  0
LTYPE
  2
CONTINUOUS
 70
     0
  3
Solid line
 72
    65
 73
     0
 40
0.0
  0
LTYPE
  2
CENTER
 70
     0
  3
Center (.5x) ___ _ ___ _ ___ _ ___ _ ___ _ ___
 72
    65
 73
     4
 40
28.574999999999989
 49
19.050000000000001
 49
-3.1749999999999989
 49
3.1749999999999989
 49
-3.1749999999999989
  0
ENDTAB
  0
TABLE
  2
LAYER
 70
     2
  0
LAYER
  2
0
 70
     0
 62
     7
  6
CONTINUOUS
  0
ENDTAB
  0
TABLE
  2
STYLE
 70
     1
  0
STYLE
  2
STANDARD
 70
     0
 40
0.0
 41
1.0
 50
0.0
 71
     0
 42
2.5
  3
txt
  4

  0
ENDTAB
  0
TABLE
  2
VIEW
 70
     0
  0
ENDTAB
  0
TABLE
  2
UCS
 70
     0
  0
ENDTAB
  0
TABLE
  2
APPID
 70
     1
  0
APPID
  2
ACAD
 70
     0
  0
ENDTAB
  0
TABLE
  2
DIMSTYLE
 70
     1
  0
DIMSTYLE
  2
ISO-25
 70
     0
  3

  4

  5

  6

  7

 40
1.0
 41
2.5
 42
0.625
 43
3.75
 44
1.25
 45
0.0
 46
0.0
 47
0.0
 48
0.0
140
2.5
141
2.5
142
0.0
143
0.03937007874016
144
1.0
145
0.0
146
1.0
147
0.625
 71
     0
 72
     0
 73
     1
 74
     1
 75
     0
 76
     0
 77
     1
 78
     8
170
     0
171
     3
172
     1
173
     0
174
     0
175
     0
176
     0
177
     0
178
     0
  0
ENDTAB
  0
ENDSEC
  0
SECTION
  2
BLOCKS
  0
BLOCK
  8
0
  2
$MODEL_SPACE
 70
     0
 10
0.0
 20
0.0
 30
0.0
  3
$MODEL_SPACE
  1

  0
ENDBLK
  5
21
  8
0
  0
BLOCK
 67
     1
  8
0
  2
$PAPER_SPACE
 70
     0
 10
0.0
 20
0.0
 30
0.0
  3
$PAPER_SPACE
  1

  0
ENDBLK
  5
53
 67
     1
  8
0
  0
ENDSEC
  0
SECTION
  2
ENTITIES
  0
ARC
  5
159
  8
0
 10
-199.41687238424271
 20
791.23717497529628
 30
0.0
 40
50.0
 50
153.04261096977089
 51
41.148292272197409
  0
POLYLINE
  5
15A
  8
0
 66
     1
 10
0.0
 20
0.0
 30
0.0
 70
     1
  0
VERTEX
  5
2844
  8
0
 10
-203.1696491339753
 20
797.7371749752964
 30
0.0
  0
VERTEX
  5
2845
  8
0
 10
-206.92242588370789
 20
791.23717497529628
 30
0.0
  0
VERTEX
  5
2846
  8
0
 10
-203.1696491339753
 20
784.7371749752964
 30
0.0
  0
VERTEX
  5
2847
  8
0
 10
-195.6640956345102
 20
784.7371749752964
 30
0.0
  0
VERTEX
  5
2848
  8
0
 10
-191.91131888477759
 20
791.23717497529628
 30
0.0
  0
VERTEX
  5
2849
  8
0
 10
-195.6640956345102
 20
797.7371749752964
 30
0.0
  0
SEQEND
  5
284A
  8
0
  0
CIRCLE
  5
15B
  8
0
 10
-199.41687238424271
 20
791.23717497529628
 30
0.0
 40
6.5
  0
ARC
  5
15C
  8
0
 10
-201.32333977799729
 20
790.5061996240895
 30
0.0
 40
13.0
 50
225.6379573356578
 51
349.22731283228251
  0
LINE
  5
15D
  8
0
 10
-256.39628005706362
 20
876.23717497529628
 30
0.0
 11
-218.4374647114218
 21
876.23717497529628
 31
0.0
  0
LINE
  5
15E
  8
0
  6
CENTER
 10
-199.41687238424271
 20
738.23717497529628
 30
0.0
 11
-199.41687238424271
 21
844.23717497529628
 31
0.0
  0
LINE
  5
15F
  8
0
  6
CENTER
 10
-237.41687238424271
 20
857.48717497529628
 30
0.0
 11
-237.41687238424271
 21
879.2371749752964
 31
0.0
  0
LINE
  5
162
  8
0
 10
-267.41687238424282
 20
864.23717497529617
 30
0.0
 11
-207.41687238424271
 21
864.2371749752964
 31
0.0
  0
LINE
  5
163
  8
0
 10
-262.4427323633526
 20
872.76427215396495
 30
0.0
 11
-267.41687238424271
 21
864.2371749752964
 31
0.0
  0
LINE
  5
164
  8
0
 10
-212.39101240513281
 20
872.76427215396495
 30
0.0
 11
-207.41687238424271
 21
864.2371749752964
 31
0.0
  0
ARC
  5
165
  8
0
 10
-256.39628005706362
 20
869.23717497529628
 30
0.0
 40
7.0
 50
90.0
 51
149.7435628364706
  0
ARC
  5
166
  8
0
 10
-218.4374647114218
 20
869.23717497529628
 30
0.0
 40
7.0
 50
30.25643716352938
 51
90.0
  0
LINE
  5
167
  8
0
 10
-265.79455525801581
 20
862.4871749752964
 30
0.0
 11
-209.41687238424271
 21
862.48717497529617
 31
0.0
  0
LINE
  5
168
  8
0
 10
-209.41687238424271
 20
862.48717497529617
 30
0.0
 11
-209.41687238424271
 21
864.2371749752964
 31
0.0
  0
LINE
  5
169
  8
0
 10
-265.41687238424282
 20
862.48717497529617
 30
0.0
 11
-265.41687238424271
 21
864.2371749752964
 31
0.0
  0
LINE
  5
16A
  8
0
 10
-267.41687238424282
 20
857.23717497529617
 30
0.0
 11
-267.29376817391341
 21
861.0357613191153
 31
0.0
  0
LINE
  5
16B
  8
0
 10
-267.41687238424282
 20
857.23717497529617
 30
0.0
 11
-263.98713848766408
 21
846.23717497529617
 31
0.0
  0
ARC
  5
16C
  8
0
 10
-106.9713598242778
 20
921.02018697142034
 30
0.0
 40
173.91507592063991
 50
205.46738840009189
 51
233.50295153760351
  0
ARC
  5
16D
  8
0
 10
-199.41687238424271
 20
791.23717497529628
 30
0.0
 40
38.0
 50
160.90537251866149
 51
57.528417501025253
  0
ARC
  5
16E
  8
0
 10
-199.41687238424271
 20
791.23717497529628
 30
0.0
 40
45.0
 50
155.92557155682951
 51
45.975802393211701
  0
ARC
  5
16F
  8
0
 10
-199.41687238424271
 20
791.23717497529628
 30
0.0
 40
36.0
 50
162.6184048252081
 51
62.978416856713622
  0
ARC
  5
170
  8
0
 10
-478.68288198202589
 20
799.72179773993651
 30
0.0
 40
290.4195980073448
 50
357.84936409849178
 51
3.30838035157984
  0
ARC
  5
171
  8
0
 10
-193.46432806940231
 20
789.01089531921855
 30
0.0
 40
5.0
 50
349.22731283228251
 51
357.84936409849018
  0
LINE
  5
172
  8
0
 10
-213.26328397468109
 20
789.74060084440487
 30
0.0
 11
-213.26328397468109
 21
857.48717497529628
 31
0.0
  0
LINE
  5
173
  8
0
 10
-219.763283974681
 20
795.28123230849485
 30
0.0
 11
-219.763283974681
 21
857.48717497529628
 31
0.0
  0
LINE
  5
174
  8
0
  6
CENTER
 10
-252.41687238424271
 20
791.23717497529628
 30
0.0
 11
-146.41687238424271
 21
791.23717497529628
 31
0.0
  0
LINE
  5
175
  8
0
  6
CENTER
 10
-273.41687238424271
 20
666.40481240973077
 30
0.0
 11
-103.6620266961751
 21
666.40481240973077
 31
0.0
  0
LINE
  5
176
  8
0
  6
CENTER
 10
-237.41687238424279
 20
699.40481240973099
 30
0.0
 11
-237.41687238424279
 21
633.40481240973065
 31
0.0
  0
CIRCLE
  5
177
  8
0
 10
-237.41687238424279
 20
666.40481240973077
 30
0.0
 40
5.6500000000000004
  0
LINE
  5
178
  8
0
 10
-208.0953785614513
 20
686.90481240973099
 30
0.0
 11
-126.6522545989361
 21
686.90481240973145
 31
0.0
  0
LINE
  5
179
  8
0
 10
-208.0953785614511
 20
645.90481240973065
 30
0.0
 11
-126.6522545989361
 21
645.90481240973031
 31
0.0
  0
LINE
  5
17A
  8
0
 10
-191.9113188847775
 20
645.79488342821526
 30
0.0
 11
-191.9113188847775
 21
642.54488342821526
 31
0.0
  0
LINE
  5
17B
  8
0
 10
-206.9224258837078
 20
645.79488342821526
 30
0.0
 11
-206.92242588370769
 21
642.54488342821537
 31
0.0
  0
LINE
  5
17C
  8
0
 10
-203.1696491339753
 20
645.79488342821548
 30
0.0
 11
-203.16964913397521
 21
642.54488342821537
 31
0.0
  0
LINE
  5
17D
  8
0
 10
-195.66409563451009
 20
645.79488342821548
 30
0.0
 11
-195.66409563451009
 21
642.54488342821526
 31
0.0
  0
LINE
  5
17E
  8
0
 10
-205.04603750884161
 20
641.7948834282156
 30
0.0
 11
-193.78770725964389
 21
641.79488342821526
 31
0.0
  0
LINE
  5
17F
  8
0
 10
-191.9113188847775
 20
645.79488342821594
 30
0.0
 11
-206.9224258837078
 21
645.79488342821526
 31
0.0
  0
ARC
  5
180
  8
0
 10
-208.0953785614515
 20
706.90481240973088
 30
0.0
 40
20.0
 50
234.0959314166825
 51
270.0
  0
ARC
  5
181
  8
0
 10
-208.0953785614513
 20
625.90481240973088
 30
0.0
 40
20.0
 50
90.0
 51
125.9040685833174
  0
CIRCLE
  5
182
  8
0
 10
-237.41687238424279
 20
666.40481240973077
 30
0.0
 40
21.0
  0
CIRCLE
  5
183
  8
0
 10
-237.41687238424279
 20
666.40481240973077
 30
0.0
 40
17.5
  0
CIRCLE
  5
184
  8
0
 10
-237.41687238424279
 20
666.40481240973077
 30
0.0
 40
12.5
  0
CIRCLE
  5
185
  8
0
 10
-237.41687238424279
 20
666.40481240973077
 30
0.0
 40
7.0
  0
CIRCLE
  5
186
  8
0
 10
-237.41687238424279
 20
666.40481240973077
 30
0.0
 40
30.00000000000005
  0
ARC
  5
187
  8
0
 10
-205.04603750884149
 20
644.51710565043766
 30
0.0
 40
2.7222222222221419
 50
269.99999999999829
 51
313.57357859652348
  0
ARC
  5
188
  8
0
 10
-199.41687238424251
 20
651.5587723171044
 30
0.0
 40
9.7638888888889532
 50
247.39644098484479
 51
292.60355901515521
  0
ARC
  5
189
  8
0
 10
-205.04603750884149
 20
644.51710565043766
 30
0.0
 40
2.7222222222221419
 50
226.42642140347411
 51
270.0
  0
ARC
  5
18A
  8
0
 10
-193.7877072596437
 20
644.51710565043766
 30
0.0
 40
2.7222222222221419
 50
226.42642140347641
 51
270.00000000000159
  0
ARC
  5
18B
  8
0
 10
-193.7877072596437
 20
644.51710565043766
 30
0.0
 40
2.7222222222221419
 50
270.0
 51
313.57357859652581
  0
ARC
  5
18C
  8
0
 10
-199.41687238424251
 20
681.25085250235725
 30
0.0
 40
9.7638888888889532
 50
67.396440984844816
 51
112.6035590151551
  0
LINE
  5
18D
  8
0
 10
-205.04603750884161
 20
691.01474139124605
 30
0.0
 11
-193.78770725964389
 21
691.01474139124628
 31
0.0
  0
LINE
  5
18E
  8
0
 10
-191.9113188847775
 20
687.01474139124582
 30
0.0
 11
-206.9224258837078
 21
687.01474139124628
 31
0.0
  0
ARC
  5
18F
  8
0
 10
-205.04603750884149
 20
688.29251916902399
 30
0.0
 40
2.7222222222221419
 50
90.0
 51
133.57357859652581
  0
LINE
  5
190
  8
0
 10
-206.9224258837078
 20
687.01474139124628
 30
0.0
 11
-206.92242588370769
 21
690.26474139124616
 31
0.0
  0
ARC
  5
191
  8
0
 10
-205.04603750884149
 20
688.29251916902399
 30
0.0
 40
2.7222222222221419
 50
46.426421403476432
 51
90.000000000001606
  0
LINE
  5
192
  8
0
 10
-203.1696491339753
 20
687.01474139124616
 30
0.0
 11
-203.16964913397521
 21
690.26474139124616
 31
0.0
  0
ARC
  5
193
  8
0
 10
-193.7877072596437
 20
688.29251916902399
 30
0.0
 40
2.7222222222221419
 50
46.42642140347413
 51
90.0
  0
ARC
  5
194
  8
0
 10
-193.7877072596437
 20
688.29251916902399
 30
0.0
 40
2.7222222222221419
 50
89.999999999998366
 51
133.5735785965235
  0
LINE
  5
195
  8
0
 10
-195.66409563451009
 20
687.01474139124616
 30
0.0
 11
-195.66409563451009
 21
690.26474139124639
 31
0.0
  0
LINE
  5
196
  8
0
 10
-191.9113188847775
 20
687.01474139124628
 30
0.0
 11
-191.9113188847775
 21
690.26474139124639
 31
0.0
  0
LINE
  5
197
  8
0
  6
CENTER
 10
-199.41687238424279
 20
698.79488342821537
 30
0.0
 11
-199.4168723842422
 21
634.01474139124639
 31
0.0
  0
ARC
  5
1A2
  8
0
 10
-265.79455525801581
 20
860.98717497529628
 30
0.0
 40
1.5
 50
90.0
 51
178.1438136990557
  0
ARC
  5
1B6
  8
0
 10
-222.2795860870462
 20
644.23020170901134
 30
0.0
 40
218.63566905507449
 50
62.854290978944789
 51
86.627242891047032
  0
ARC
  5
1B7
  8
0
 10
-151.84266164521949
 20
851.30069474211109
 30
0.0
 40
7.9253827851382752
 50
339.54760693866939
 51
155.62784225896269
  0
LINE
  5
1B8
  8
0
 10
-151.54859950832949
 20
852.16517870632072
 30
0.0
 11
-151.87063730338801
 21
851.21845189326768
 31
0.0
  0
ARC
  5
1B9
  8
0
 10
-222.2795860870462
 20
644.23020170901134
 30
0.0
 40
219.6356690550746
 50
71.213793052656314
 51
73.271891566860944
  0
LINE
  5
1BA
  8
0
 10
-123.41687238424269
 20
839.2371749752964
 30
0.0
 11
-125.1996545363825
 21
835.72063230252445
 31
0.0
  0
ARC
  5
1BB
  8
0
 10
-177.68800976134369
 20
973.2902993657832
 30
0.0
 40
150.0
 50
268.32660655622232
 51
288.13203192242202
  0
ARC
  5
1BC
  8
0
 10
-134.118920734304
 20
840.24243398886767
 30
0.0
 40
10.0
 50
288.13203192242042
 51
333.11635242359478
  0
ARC
  5
1BD
  8
0
 10
-182.2581342301504
 20
816.85704215255635
 30
0.0
 40
6.5
 50
88.326606556222359
 51
183.30838035157981
  0
LINE
  5
1BE
  8
0
 10
-122.52494576445061
 20
838.7849948066621
 30
0.0
 11
-123.6564422479626
 21
836.5531148971703
 31
0.0
  0
ARC
  5
1BF
  8
0
 10
-222.2795860870462
 20
644.23020170901134
 30
0.0
 40
216.13566905507449
 50
62.851259742764121
 51
63.11635242359489
  0
LINE
  5
1C0
  8
0
 10
-107.8488530190489
 20
841.01722228379322
 30
0.0
 11
-106.4720673498479
 21
837.04694565723241
 31
0.0
  0
ARC
  5
1C1
  8
0
 10
-222.2795860870462
 20
644.23020170901134
 30
0.0
 40
210.6356690550746
 50
62.029393479289581
 51
63.350524043121538
  0
ARC
  5
1C2
  8
0
 10
-95.883183883174269
 20
780.52717663676617
 30
0.0
 40
62.532068877943601
 50
102.1148011732277
 51
116.3686006411653
  0
ARC
  5
1C3
  8
0
 10
-147.5247729975988
 20
928.9512648455941
 30
0.0
 40
101.5752126236281
 50
283.6885831336275
 51
293.50550664960309
  0
ARC
  5
1C4
  8
0
 10
-108.79365805344381
 20
840.68958918567557
 30
0.0
 40
1.0
 50
19.125176989792621
 51
102.3101096266484
  0
ARC
  5
1C5
  8
0
 10
-107.41687238424269
 20
836.71931255911477
 30
0.0
 40
1.0
 50
293.83306731080779
 51
19.125176989789011
  0
LINE
  5
1C6
  8
0
 10
-125.44519326538649
 20
831.28764060182675
 30
0.0
 11
-123.061453751914
 21
836.84931471221262
 31
0.0
  0
CIRCLE
  5
1C7
  8
0
 10
-193.41687238424271
 20
845.2371749752964
 30
0.0
 40
3.0
  0
ARC
  5
1C8
  8
0
 10
-194.06764653167599
 20
666.40481240973099
 30
0.0
 40
71.54166666667021
 50
344.26031922947811
 51
15.73968077052186
  0
ARC
  5
1C9
  8
0
 10
-126.6522545989361
 20
685.40481240973145
 30
0.0
 40
1.5
 50
15.73968077052186
 51
90.0
  0
ARC
  5
1CA
  8
0
 10
-126.6522545989361
 20
647.4048124097302
 30
0.0
 40
1.5
 50
270.0
 51
344.26031922947811
  0
LINE
  5
1CB
  8
0
 10
-159.06176837085459
 20
676.40481240973065
 30
0.0
 11
-159.06176837085459
 21
656.40481240973077
 31
0.0
  0
LINE
  5
1CC
  8
0
 10
-144.41687238424279
 20
676.40481240973088
 30
0.0
 11
-144.41687238424279
 21
656.40481240973077
 31
0.0
  0
LINE
  5
1CD
  8
0
 10
-126.52597986500579
 20
656.40481240973077
 30
0.0
 11
-126.52597986500579
 21
676.40481240973065
 31
0.0
  0
LINE
  5
1CE
  8
0
 10
-159.06176837085459
 20
676.40481240973065
 30
0.0
 11
-126.52597986500579
 21
676.40481240973065
 31
0.0
  0
LINE
  5
1CF
  8
0
 10
-159.06176837085459
 20
656.40481240973077
 30
0.0
 11
-126.52597986500579
 21
656.40481240973077
 31
0.0
  0
ARC
  5
1D0
  8
0
 10
-194.06764653167599
 20
666.40481240973099
 30
0.0
 40
72.54166666667021
 50
344.26031922947811
 51
15.73968077052186
  0
ARC
  5
1D1
  8
0
 10
-181.5804790320465
 20
666.40481240973099
 30
0.0
 40
72.54166666667021
 50
345.17424270041488
 51
14.82575729958349
  0
ARC
  5
1D2
  8
0
 10
-179.2036933628454
 20
666.40481240973099
 30
0.0
 40
72.54166666667021
 50
345.17424270041488
 51
14.82575729958349
  0
LINE
  5
1D3
  8
0
 10
-124.2459943276904
 20
686.0829801670186
 30
0.0
 11
-110.52711351377179
 21
686.08298016701883
 31
0.0
  0
LINE
  5
1D4
  8
0
 10
-124.2459943276904
 20
646.72664465244304
 30
0.0
 11
-110.52711351377179
 21
646.72664465244293
 31
0.0
  0
ARC
  5
1D5
  8
0
 10
-110.52711351377179
 20
684.58298016701883
 30
0.0
 40
1.5
 50
14.82575729958349
 51
90.0
  0
ARC
  5
1D6
  8
0
 10
-112.90389918297291
 20
684.58298016701883
 30
0.0
 40
1.5
 50
14.82575729958349
 51
90.0
  0
ARC
  5
1D7
  8
0
 10
-112.90389918297291
 20
648.22664465244293
 30
0.0
 40
1.5
 50
270.0
 51
345.17424270041641
  0
ARC
  5
1D8
  8
0
 10
-110.52711351377179
 20
648.22664465244293
 30
0.0
 40
1.5
 50
270.0
 51
345.17424270041641
  0
LINE
  5
1D9
  8
0
 10
-123.22832080475401
 20
676.40481240973065
 30
0.0
 11
-122.2185449174019
 21
676.40481240973088
 31
0.0
  0
LINE
  5
1DA
  8
0
 10
-123.22832080475401
 20
656.40481240973088
 30
0.0
 11
-122.2185449174019
 21
656.40481240973077
 31
0.0
  0
LINE
  5
312
  8
0
 10
-322.73712593105188
 20
859.22607752724934
 30
0.0
 11
-342.73712593105182
 21
859.22607752724923
 31
0.0
  0
LINE
  5
38F
  8
0
 10
-322.73712593105188
 20
841.49611453378816
 30
0.0
 11
-322.73712593105188
 21
859.22607752724934
 31
0.0
  0
LINE
  5
390
  8
0
 10
-322.73712593105188
 20
848.53133630692628
 30
0.0
 11
-342.73712593105182
 21
848.53133630692605
 31
0.0
  0
LINE
  5
3CD
  8
0
 10
-342.73712593105199
 20
841.49611453378816
 30
0.0
 11
-342.73712593105182
 21
859.22607752724934
 31
0.0
  0
LINE
  5
40C
  8
0
 10
-351.71653360387268
 20
876.23717497529628
 30
0.0
 11
-313.75771825823091
 21
876.23717497529628
 31
0.0
  0
ARC
  5
40D
  8
0
 10
-351.71653360387268
 20
869.23717497529628
 30
0.0
 40
7.0
 50
90.0
 51
149.7435628364706
  0
ARC
  5
40E
  8
0
 10
-313.75771825823091
 20
869.23717497529628
 30
0.0
 40
7.0
 50
30.25643716352938
 51
90.0
  0
LINE
  5
40F
  8
0
 10
-304.73712593105171
 20
862.4871749752964
 30
0.0
 11
-304.73712593105182
 21
864.23717497529663
 31
0.0
  0
LINE
  5
410
  8
0
 10
-357.76298591016172
 20
872.76427215396495
 30
0.0
 11
-362.73712593105182
 21
864.23717497529663
 31
0.0
  0
LINE
  5
411
  8
0
 10
-360.73712593105182
 20
862.4871749752964
 30
0.0
 11
-360.73712593105182
 21
864.23717497529663
 31
0.0
  0
LINE
  5
413
  8
0
 10
-362.73712593105188
 20
864.2371749752964
 30
0.0
 11
-302.73712593105171
 21
864.23717497529663
 31
0.0
  0
LINE
  5
414
  8
0
 10
-307.71126595194198
 20
872.76427215396495
 30
0.0
 11
-302.73712593105199
 21
864.23717497529663
 31
0.0
  0
LINE
  5
415
  8
0
 10
-360.73712593105182
 20
862.4871749752964
 30
0.0
 11
-305.73712593105182
 21
862.48717497529663
 31
0.0
  0
LINE
  5
417
  8
0
 10
-352.41529368834023
 20
830.26116474590572
 30
0.0
 11
-352.41529368834
 21
840.01134593908625
 31
0.0
  0
LINE
  5
419
  8
0
 10
-313.05895817376359
 20
830.26116474590572
 30
0.0
 11
-313.05895817376393
 21
840.01134593908625
 31
0.0
  0
LINE
  5
41B
  8
0
  6
CENTER
 10
-332.73712593105182
 20
881.2371749752964
 30
0.0
 11
-332.73712593105182
 21
736.23717497529651
 31
0.0
  0
ARC
  5
421
  8
0
 10
-332.73712593105188
 20
583.16106499636055
 30
0.0
 40
258.52852418931502
 50
85.840768809615724
 51
94.159231190384261
  0
ARC
  5
422
  8
0
 10
-332.73712593105182
 20
578.52606175380777
 30
0.0
 40
258.52852418931502
 50
85.634649935394336
 51
94.365350064605636
  0
ARC
  5
423
  8
0
 10
-351.41529368833989
 20
840.01134593908637
 30
0.0
 40
1.0
 50
94.159231190379685
 51
180.00000000000651
  0
ARC
  5
424
  8
0
 10
-314.05895817376393
 20
840.01134593908637
 30
0.0
 40
1.0
 50
359.99999999999341
 51
85.840768809617074
  0
LINE
  5
425
  8
0
 10
-313.05895817376359
 20
830.26116474590594
 30
0.0
 11
-352.41529368834011
 21
830.26116474590572
 31
0.0
  0
LINE
  5
426
  8
0
 10
-302.73712593105171
 20
809.23717497529628
 30
0.0
 11
-302.73712593105182
 21
859.48717497529663
 31
0.0
  0
ARC
  5
427
  8
0
 10
-305.73712593105182
 20
859.48717497529663
 30
0.0
 40
3.0
 50
0.0
 51
90.0
  0
LINE
  5
428
  8
0
 10
-362.73712593105182
 20
809.23717497529628
 30
0.0
 11
-362.73712593105182
 21
859.48717497529663
 31
0.0
  0
ARC
  5
429
  8
0
 10
-359.73712593105182
 20
859.48717497529663
 30
0.0
 40
3.0
 50
90.0
 51
180.0
  0
LINE
  5
42E
  8
0
 10
-312.23712593105222
 20
777.5061996240895
 30
0.0
 11
-312.2371259310525
 21
859.48717497529663
 31
0.0
  0
ARC
  5
42F
  8
0
 10
-315.2371259310525
 20
859.48717497529663
 30
0.0
 40
3.0
 50
0.000000000000229
 51
90.000000000000185
  0
LINE
  5
430
  8
0
 10
-353.23712593105142
 20
777.5061996240895
 30
0.0
 11
-353.2371259310512
 21
859.48717497529663
 31
0.0
  0
ARC
  5
431
  8
0
 10
-350.23712593105108
 20
859.48717497529663
 30
0.0
 40
3.0
 50
89.999999999999815
 51
179.99999999999969
  0
LINE
  5
432
  8
0
 10
-312.23712593105222
 20
777.50619962408962
 30
0.0
 11
-314.23712593105222
 21
777.50619962408962
 31
0.0
  0
ARC
  5
4AC
  8
0
 10
-324.6301260709082
 20
807.8420734610803
 30
0.0
 40
21.937405574924341
 50
322.45226860584847
 51
322.45234378819481
  0
LINE
  5
4AD
  8
0
 10
-308.23712593105199
 20
797.73717497529651
 30
0.0
 11
-312.23712593105228
 21
797.73717497529651
 31
0.0
  0
LINE
  5
4AE
  8
0
 10
-308.23712593105211
 20
791.23717497529663
 30
0.0
 11
-312.23712593105228
 21
791.2371749752964
 31
0.0
  0
LINE
  5
4AF
  8
0
 10
-308.23712593105211
 20
784.7371749752964
 30
0.0
 11
-312.23712593105222
 21
784.73717497529617
 31
0.0
  0
LINE
  5
4B0
  8
0
 10
-307.23712593105222
 20
787.9871749752964
 30
0.0
 11
-307.23712593105222
 21
794.48717497529663
 31
0.0
  0
ARC
  5
4B8
  8
0
 10
-313.01837593105262
 20
787.9871749752964
 30
0.0
 40
5.7812500000003926
 50
325.79454206189649
 51
34.205457938103777
  0
ARC
  5
4B9
  8
0
 10
-313.01837593105262
 20
794.48717497529663
 30
0.0
 40
5.7812500000003926
 50
325.79454206189621
 51
34.205457938103478
  0
ARC
  5
4BA
  8
0
 10
-352.45587593105108
 20
787.9871749752964
 30
0.0
 40
5.7812500000003926
 50
145.79454206189621
 51
214.20545793810351
  0
LINE
  5
4BB
  8
0
 10
-357.23712593105159
 20
784.7371749752964
 30
0.0
 11
-353.23712593105148
 21
784.73717497529617
 31
0.0
  0
LINE
  5
4BC
  8
0
 10
-358.23712593105148
 20
787.9871749752964
 30
0.0
 11
-358.23712593105148
 21
794.48717497529663
 31
0.0
  0
LINE
  5
4BD
  8
0
 10
-357.23712593105159
 20
791.23717497529663
 30
0.0
 11
-353.23712593105142
 21
791.2371749752964
 31
0.0
  0
LINE
  5
4BE
  8
0
 10
-357.23712593105171
 20
797.73717497529651
 30
0.0
 11
-353.23712593105131
 21
797.73717497529651
 31
0.0
  0
ARC
  5
4BF
  8
0
 10
-352.45587593105108
 20
794.48717497529663
 30
0.0
 40
5.7812500000003926
 50
145.79454206189649
 51
214.20545793810371
  0
LINE
  5
4FD
  8
0
 10
-304.45698389408278
 20
794.63717497529615
 30
0.0
 11
-304.4569838940829
 21
787.83717497529653
 31
0.0
  0
LINE
  5
504
  8
0
 10
-305.0569838940828
 20
795.23717497529617
 30
0.0
 11
-307.23712593105188
 21
795.2371749752964
 31
0.0
  0
LINE
  5
50C
  8
0
 10
-305.05698389408298
 20
787.23717497529651
 30
0.0
 11
-307.23712593105188
 21
787.23717497529651
 31
0.0
  0
ARC
  5
510
  8
0
 10
-324.6301260709082
 20
807.8420734610803
 30
0.0
 40
21.937405574924341
 50
324.92944350753669
 51
3.6461652505647368
  0
LINE
  5
511
  8
0
 10
-305.0569838940828
 20
795.23717497529617
 30
0.0
 11
-304.45698389408278
 21
794.63717497529615
 31
0.0
  0
LINE
  5
512
  8
0
 10
-305.05698389408298
 20
787.23717497529651
 30
0.0
 11
-304.4569838940829
 21
787.83717497529653
 31
0.0
  0
LINE
  5
513
  8
0
 10
-305.05698389408298
 20
787.23717497529651
 30
0.0
 11
-305.0569838940828
 21
795.23717497529617
 31
0.0
  0
LINE
  5
514
  8
0
 10
-304.45698389408278
 20
794.63717497529615
 30
0.0
 11
-307.23712593105222
 21
794.63717497529615
 31
0.0
  0
LINE
  5
515
  8
0
 10
-304.45698389408278
 20
787.83717497529733
 30
0.0
 11
-307.23712593105222
 21
787.83717497529733
 31
0.0
  0
LINE
  5
516
  8
0
 10
-196.0168723842435
 20
693.79488342821537
 30
0.0
 11
-196.0168723842435
 21
691.01474139124605
 31
0.0
  0
LINE
  5
517
  8
0
 10
-202.81687238424229
 20
693.79488342821537
 30
0.0
 11
-202.81687238424229
 21
691.01474139124605
 31
0.0
  0
LINE
  5
518
  8
0
 10
-195.41687238424271
 20
693.19488342821535
 30
0.0
 11
-195.41687238424271
 21
691.01474139124628
 31
0.0
  0
LINE
  5
519
  8
0
 10
-203.41687238424231
 20
693.19488342821535
 30
0.0
 11
-203.41687238424271
 21
691.01474139124628
 31
0.0
  0
LINE
  5
51D
  8
0
 10
-195.41687238424271
 20
693.19488342821535
 30
0.0
 11
-203.41687238424231
 21
693.19488342821535
 31
0.0
  0
LINE
  5
51E
  8
0
 10
-202.81687238424229
 20
693.79488342821537
 30
0.0
 11
-196.0168723842427
 21
693.79488342821537
 31
0.0
  0
LINE
  5
51F
  8
0
 10
-195.41687238424271
 20
693.19488342821535
 30
0.0
 11
-196.0168723842427
 21
693.79488342821537
 31
0.0
  0
LINE
  5
520
  8
0
 10
-203.41687238424231
 20
693.19488342821535
 30
0.0
 11
-202.81687238424229
 21
693.79488342821537
 31
0.0
  0
LINE
  5
521
  8
0
 10
-316.73712593105199
 20
748.14967866261372
 30
0.0
 11
-316.73712593105239
 21
830.26116474590594
 31
0.0
  0
LINE
  5
523
  8
0
 10
-348.73712593105171
 20
748.14967866261361
 30
0.0
 11
-348.73712593105131
 21
830.26116474590594
 31
0.0
  0
LINE
  5
524
  8
0
 10
-353.23712593105148
 20
777.50619962408962
 30
0.0
 11
-351.23712593105148
 21
777.50619962408962
 31
0.0
  0
ARC
  5
561
  8
0
 10
-340.84412579119549
 20
807.8420734610803
 30
0.0
 40
21.937405574924341
 50
176.35383474943521
 51
217.54765621180599
  0
ARC
  5
568
  8
0
 10
-199.41687238424271
 20
791.23717497529628
 30
0.0
 40
20.0
 50
188.90252983656049
 51
56.502600822106182
  0
LINE
  5
56C
  8
0
 10
-314.23712593105222
 20
830.26116474590606
 30
0.0
 11
-314.23712593105222
 21
771.23717497529651
 31
0.0
  0
LINE
  5
56D
  8
0
 10
-316.73712593105211
 20
755.2371749752964
 30
0.0
 11
-314.23712593105222
 21
771.23717497529628
 31
0.0
  0
ARC
  5
629
  8
0
 10
-332.73712593105188
 20
769.33717497529585
 30
0.0
 40
28.099999999999419
 50
239.4606445234071
 51
300.53935547659353
  0
ARC
  5
62A
  8
0
 10
-345.23712593105159
 20
748.14967866261361
 30
0.0
 40
3.5
 50
180.0
 51
239.46064452340741
  0
ARC
  5
62B
  8
0
 10
-320.23712593105199
 20
748.14967866261372
 30
0.0
 40
3.5
 50
300.53935547659353
 51
0.0
  0
LINE
  5
62C
  8
0
 10
-351.23712593105148
 20
830.26116474590606
 30
0.0
 11
-351.23712593105142
 21
771.23717497529651
 31
0.0
  0
LINE
  5
62D
  8
0
 10
-348.73712593105159
 20
755.2371749752964
 30
0.0
 11
-351.23712593105148
 21
771.23717497529628
 31
0.0
  0
LINE
  5
6A6
  8
0
 10
-20.58059173869804
 20
817.60602438318676
 30
0.0
 11
-20.5805917386981
 21
859.48717497529663
 31
0.0
  0
LINE
  5
6AA
  8
0
 10
-71.080591738697706
 20
777.5061996240895
 30
0.0
 11
-71.080591738697663
 21
789.23717497529617
 31
0.0
  0
LINE
  5
6AB
  8
0
 10
-30.080591738698441
 20
777.5061996240895
 30
0.0
 11
-30.080591738698502
 21
789.2371749752964
 31
0.0
  0
LINE
  5
6AC
  8
0
  6
CENTER
 10
-50.580591738698111
 20
881.2371749752964
 30
0.0
 11
-50.580591738698111
 21
736.23717497529651
 31
0.0
  0
ARC
  5
6AD
  8
0
 10
-70.299341738697365
 20
787.9871749752964
 30
0.0
 40
5.7812500000003926
 50
145.79454206189621
 51
214.20545793810351
  0
ARC
  5
6AE
  8
0
 10
-30.861841738698839
 20
787.9871749752964
 30
0.0
 40
5.7812500000003926
 50
325.79454206189649
 51
34.205457938103777
  0
LINE
  5
6AF
  8
0
 10
-32.080591738698431
 20
847.05181343044615
 30
0.0
 11
-32.080591738698502
 21
771.23717497529651
 31
0.0
  0
LINE
  5
6B0
  8
0
 10
-66.580591738697933
 20
748.14967866261361
 30
0.0
 11
-66.580591738697521
 21
834.32467128797907
 31
0.0
  0
LINE
  5
6B1
  8
0
 10
-34.580591738698267
 20
748.14967866261372
 30
0.0
 11
-34.580591738698701
 21
834.32467128797907
 31
0.0
  0
LINE
  5
6B2
  8
0
 10
-69.080591738697791
 20
847.05181343044615
 30
0.0
 11
-69.080591738697706
 21
771.23717497529651
 31
0.0
  0
ARC
  5
6B3
  8
0
 10
-50.58059173869816
 20
769.33717497529585
 30
0.0
 40
28.099999999999419
 50
239.4606445234071
 51
300.53935547659353
  0
ARC
  5
6B4
  8
0
 10
-63.080591738697869
 20
748.14967866261361
 30
0.0
 40
3.5
 50
180.0
 51
239.46064452340741
  0
LINE
  5
6B5
  8
0
 10
-66.580591738697876
 20
755.2371749752964
 30
0.0
 11
-69.080591738697763
 21
771.23717497529628
 31
0.0
  0
LINE
  5
6B6
  8
0
 10
-26.080591738698381
 20
784.7371749752964
 30
0.0
 11
-30.080591738698441
 21
784.73717497529617
 31
0.0
  0
LINE
  5
6B7
  8
0
 10
-71.080591738697763
 20
777.50619962408962
 30
0.0
 11
-69.080591738697763
 21
777.50619962408962
 31
0.0
  0
ARC
  5
6B8
  8
0
 10
-38.08059173869821
 20
748.14967866261372
 30
0.0
 40
3.5
 50
300.53935547659353
 51
0.0
  0
LINE
  5
6B9
  8
0
 10
-75.080591738697805
 20
784.7371749752964
 30
0.0
 11
-71.080591738697763
 21
784.73717497529617
 31
0.0
  0
LINE
  5
6BA
  8
0
 10
-34.580591738698331
 20
755.2371749752964
 30
0.0
 11
-32.080591738698438
 21
771.23717497529628
 31
0.0
  0
LINE
  5
6BB
  8
0
 10
-30.080591738698441
 20
777.50619962408962
 30
0.0
 11
-32.080591738698438
 21
777.50619962408962
 31
0.0
  0
ARC
  5
6C1
  8
0
 10
-30.861841738698839
 20
794.48717497529663
 30
0.0
 40
5.7812500000003926
 50
325.79454206189621
 51
23.808131242915799
  0
LINE
  5
6C2
  8
0
 10
-25.080591738698441
 20
787.9871749752964
 30
0.0
 11
-25.080591738698441
 21
794.48717497529663
 31
0.0
  0
LINE
  5
6C3
  8
0
 10
-26.080591738698381
 20
791.23717497529663
 30
0.0
 11
-28.713010176870441
 21
791.23717497529663
 31
0.0
  0
LINE
  5
6C8
  8
0
 10
-75.080591738697805
 20
791.23717497529663
 30
0.0
 11
-72.448173300525767
 21
791.23717497529663
 31
0.0
  0
LINE
  5
6CA
  8
0
 10
-78.26073377566712
 20
795.23717497529617
 30
0.0
 11
-76.080591738698047
 21
795.2371749752964
 31
0.0
  0
LINE
  5
6CB
  8
0
 10
-78.260733775667006
 20
787.23717497529651
 30
0.0
 11
-76.080591738698047
 21
787.23717497529651
 31
0.0
  0
LINE
  5
6CC
  8
0
 10
-78.860733775667143
 20
794.63717497529615
 30
0.0
 11
-76.080591738697763
 21
794.63717497529615
 31
0.0
  0
LINE
  5
6CD
  8
0
 10
-78.860733775667143
 20
787.83717497529733
 30
0.0
 11
-76.080591738697763
 21
787.83717497529733
 31
0.0
  0
ARC
  5
6CE
  8
0
 10
-70.299341738697365
 20
794.48717497529663
 30
0.0
 40
5.7812500000003926
 50
156.19186875708411
 51
214.20545793810371
  0
LINE
  5
6CF
  8
0
 10
-76.080591738697763
 20
787.9871749752964
 30
0.0
 11
-76.080591738697763
 21
794.48717497529663
 31
0.0
  0
ARC
  5
6D0
  8
0
 10
-58.68759159884177
 20
807.8420734610803
 30
0.0
 40
21.937405574924341
 50
217.5476562118051
 51
217.5477313941515
  0
LINE
  5
6D1
  8
0
 10
-78.26073377566712
 20
795.23717497529617
 30
0.0
 11
-78.860733775667143
 21
794.63717497529615
 31
0.0
  0
LINE
  5
6D2
  8
0
 10
-78.260733775667006
 20
787.23717497529651
 30
0.0
 11
-78.860733775667015
 21
787.83717497529653
 31
0.0
  0
LINE
  5
6D3
  8
0
 10
-78.860733775667143
 20
794.63717497529615
 30
0.0
 11
-78.860733775667015
 21
787.83717497529653
 31
0.0
  0
LINE
  5
6D4
  8
0
 10
-78.260733775667006
 20
787.23717497529651
 30
0.0
 11
-78.26073377566712
 21
795.23717497529617
 31
0.0
  0
LINE
  5
6D8
  8
0
 10
-69.559999411519016
 20
876.23717497529628
 30
0.0
 11
-31.601184065877192
 21
876.23717497529628
 31
0.0
  0
LINE
  5
6D9
  8
0
 10
-80.580591738698203
 20
864.2371749752964
 30
0.0
 11
-20.58059173869799
 21
864.23717497529663
 31
0.0
  0
LINE
  5
6DA
  8
0
 10
-78.580591738698104
 20
862.4871749752964
 30
0.0
 11
-23.5805917386981
 21
862.48717497529663
 31
0.0
  0
LINE
  5
6DB
  8
0
 10
-75.606451717808
 20
872.76427215396495
 30
0.0
 11
-80.580591738698104
 21
864.23717497529663
 31
0.0
  0
ARC
  5
6DC
  8
0
 10
-77.580591738698104
 20
859.48717497529663
 30
0.0
 40
3.0
 50
90.0
 51
180.0
  0
LINE
  5
6DD
  8
0
 10
-78.580591738698104
 20
862.4871749752964
 30
0.0
 11
-78.580591738698104
 21
864.23717497529663
 31
0.0
  0
ARC
  5
6DF
  8
0
 10
-69.559999411519016
 20
869.23717497529628
 30
0.0
 40
7.0
 50
90.0
 51
149.7435628364706
  0
ARC
  5
6E0
  8
0
 10
-31.601184065877192
 20
869.23717497529628
 30
0.0
 40
7.0
 50
30.25643716352938
 51
90.0
  0
LINE
  5
6E2
  8
0
 10
-25.554731759588321
 20
872.76427215396495
 30
0.0
 11
-20.58059173869821
 21
864.23717497529663
 31
0.0
  0
ARC
  5
6E3
  8
0
 10
-23.5805917386981
 20
859.48717497529663
 30
0.0
 40
3.0
 50
0.0
 51
90.0
  0
LINE
  5
6E4
  8
0
 10
-22.58059173869799
 20
862.4871749752964
 30
0.0
 11
-22.5805917386981
 21
864.23717497529663
 31
0.0
  0
ARC
  5
820
  8
0
 10
-71.086135638387844
 20
818.74395769232945
 30
0.0
 40
50.518361580909882
 50
324.26195194257548
 51
358.70929522161578
  0
LINE
  5
821
  8
0
 10
-80.58059173869816
 20
817.60602438318676
 30
0.0
 11
-80.580591738698104
 21
859.48717497529663
 31
0.0
  0
ARC
  5
822
  8
0
 10
-30.075047839008359
 20
818.74395769232945
 30
0.0
 40
50.518361580909882
 50
181.29070477838411
 51
215.73804805742441
  0
ARC
  5
8A0
  8
0
 10
-50.58059173869816
 20
813.13717497529683
 30
0.0
 40
28.099999999999419
 50
59.460644523406501
 51
120.5393554765928
  0
ARC
  5
8A1
  8
0
 10
-63.080591738697869
 20
834.32467128797907
 30
0.0
 40
3.5
 50
120.5393554765926
 51
180.0
  0
LINE
  5
8A2
  8
0
 10
-66.580591738697876
 20
827.23717497529628
 30
0.0
 11
-69.080591738697763
 21
811.23717497529628
 31
0.0
  0
ARC
  5
8A3
  8
0
 10
-38.08059173869821
 20
834.32467128797907
 30
0.0
 40
3.5
 50
0.0
 51
59.460644523406501
  0
LINE
  5
8A4
  8
0
 10
-34.580591738698331
 20
827.23717497529628
 30
0.0
 11
-32.080591738698438
 21
811.23717497529628
 31
0.0
  0
ARC
  5
8A7
  8
0
 10
-51.15935375166206
 20
824.00202565519044
 30
0.0
 40
31.240510855569649
 50
11.81394033012648
 51
88.938477094972825
  0
ARC
  5
8A8
  8
0
 10
-50.001829725734162
 20
824.00202565519044
 30
0.0
 40
31.240510855569649
 50
91.061522905027175
 51
168.18605966987349
  0
LINE
  5
8A9
  8
0
 10
-78.58059173869816
 20
817.60602438318676
 30
0.0
 11
-78.580591738698132
 21
829.12715826681665
 31
0.0
  0
ARC
  5
8AA
  8
0
 10
-30.075047839008359
 20
818.74395769232945
 30
0.0
 40
48.518361580909868
 50
181.29070477838411
 51
216.49260192679449
  0
ARC
  5
8AB
  8
0
 10
-48.211114148408157
 20
824.18103835871477
 30
0.0
 40
30.961386391331541
 50
94.320377176735363
 51
166.35158156184829
  0
ARC
  5
8AD
  8
0
 10
-68.580591738698132
 20
829.12715826681665
 30
0.0
 40
10.0
 50
166.35158156184849
 51
180.0
  0
ARC
  5
8AE
  8
0
 10
-52.95006932898805
 20
824.18103835871477
 30
0.0
 40
30.961386391331541
 50
13.64841843815163
 51
85.679622823264637
  0
LINE
  5
8AF
  8
0
 10
-22.58059173869804
 20
817.60602438318676
 30
0.0
 11
-22.580591738698072
 21
829.12715826681665
 31
0.0
  0
ARC
  5
8B0
  8
0
 10
-32.580591738698068
 20
829.12715826681665
 30
0.0
 40
10.0
 50
0.0
 51
13.6484184381515
  0
ARC
  5
8B1
  8
0
 10
-71.086135638387844
 20
818.74395769232945
 30
0.0
 40
48.518361580909868
 50
323.50739807320542
 51
358.70929522161578
  0
LINE
  5
8EE
  8
0
 10
-69.080591738697763
 20
830.26116474590572
 30
0.0
 11
-66.580591738697535
 21
830.26116474590572
 31
0.0
  0
LINE
  5
8EF
  8
0
 10
-34.580591738698672
 20
830.26116474590572
 30
0.0
 11
-32.080591738698438
 21
830.26116474590572
 31
0.0
  0
LINE
  5
92C
  8
0
 10
-43.080591738698097
 20
853.52726229584346
 30
0.0
 11
-43.080591738698097
 21
846.23717497529617
 31
0.0
  0
LINE
  5
969
  8
0
 10
-42.080591738698097
 20
853.17175936022704
 30
0.0
 11
-42.080591738698097
 21
846.23717497529617
 31
0.0
  0
LINE
  5
96A
  8
0
 10
-69.080591738697791
 20
846.2371749752964
 30
0.0
 11
-58.080591738698111
 21
846.2371749752964
 31
0.0
  0
LINE
  5
96B
  8
0
 10
-58.080591738698111
 20
853.52726229584346
 30
0.0
 11
-58.080591738698111
 21
846.23717497529617
 31
0.0
  0
LINE
  5
96C
  8
0
 10
-59.080591738698097
 20
853.17175936022704
 30
0.0
 11
-59.080591738698097
 21
846.23717497529617
 31
0.0
  0
LINE
  5
96D
  8
0
 10
-43.080591738698097
 20
846.23717497529617
 30
0.0
 11
-32.080591738698431
 21
846.23717497529617
 31
0.0
  0
POLYLINE
  5
A9A
  8
0
 66
     1
 10
0.0
 20
0.0
 30
0.0
 70
     1
  0
VERTEX
  5
284B
  8
0
 10
-375.34634535645881
 20
896.24194630513705
 30
0.0
  0
VERTEX
  5
284C
  8
0
 10
-7.622829279127699
 20
896.24194630513705
 30
0.0
  0
VERTEX
  5
284D
  8
0
 10
-7.622829279127699
 20
621.51974360826785
 30
0.0
  0
VERTEX
  5
284E
  8
0
 10
-375.34634535645881
 20
621.51974360826785
 30
0.0
  0
SEQEND
  5
284F
  8
0
  0
ARC
  5
180A
  8
0
 10
-559.8823090411172
 20
759.6653387741369
 30
0.0
 40
37.5
 50
154.53824300268059
 51
46.109601942456109
  0
ARC
  5
180B
  8
0
 10
-559.8823090411172
 20
759.6653387741369
 30
0.0
 40
34.0
 50
157.185094031456
 51
54.3863219263622
  0
LINE
  5
180C
  8
0
  6
CENTER
 10
-559.8823090411172
 20
717.16533877413679
 30
0.0
 11
-559.8823090411172
 21
802.16533877413679
 31
0.0
  0
LINE
  5
180D
  8
0
  6
CENTER
 10
-602.3823090411172
 20
759.6653387741369
 30
0.0
 11
-517.3823090411172
 21
759.6653387741369
 31
0.0
  0
ARC
  5
180E
  8
0
 10
-559.8823090411172
 20
759.6653387741369
 30
0.0
 40
25.0
 50
164.81613696512699
 51
76.628670376155981
  0
LINE
  5
180F
  8
0
  6
CENTER
 10
-583.8823090411172
 20
804.16533877413656
 30
0.0
 11
-583.8823090411172
 21
827.16533877413724
 31
0.0
  0
LINE
  5
1810
  8
0
 10
-597.28230904111695
 20
822.1653387741369
 30
0.0
 11
-570.48230904111711
 21
822.1653387741369
 31
0.0
  0
LINE
  5
1811
  8
0
 10
-605.28230904111706
 20
811.16533877413679
 30
0.0
 11
-562.48230904111711
 21
811.16533877413679
 31
0.0
  0
LINE
  5
1812
  8
0
 10
-605.28230904111706
 20
811.16533877413679
 30
0.0
 11
-605.28230904111706
 21
814.1653387741369
 31
0.0
  0
ARC
  5
1813
  8
0
 10
-597.28230904111695
 20
814.1653387741369
 30
0.0
 40
8.0
 50
90.0
 51
180.0
  0
ARC
  5
1814
  8
0
 10
-570.48230904111711
 20
814.1653387741369
 30
0.0
 40
8.0
 50
0.0
 51
90.0
  0
LINE
  5
1815
  8
0
 10
-562.48230904111711
 20
811.16533877413679
 30
0.0
 11
-562.48230904111711
 21
814.1653387741369
 31
0.0
  0
LINE
  5
1816
  8
0
 10
-605.28230904111706
 20
809.16533877413679
 30
0.0
 11
-604.93877502797932
 21
809.16533877413679
 31
0.0
  0
ARC
  5
1817
  8
0
 10
-548.66334333125258
 20
811.87023390382001
 30
0.0
 40
57.740051557214699
 50
183.74269256920351
 51
239.85307095107481
  0
LINE
  5
1818
  8
0
 10
-563.92513322227626
 20
753.95083331519857
 30
0.0
 11
-577.66150498532136
 21
761.94008094476794
 31
0.0
  0
LINE
  5
181B
  8
0
 10
-603.88230904111708
 20
810.16533877413679
 30
0.0
 11
-603.88230904111708
 21
811.16533877413656
 31
0.0
  0
ARC
  5
181C
  8
0
 10
-604.93069733999948
 20
810.21486516223194
 30
0.0
 40
1.049557472628901
 50
269.5590312959165
 51
357.29532946855761
  0
ARC
  5
181D
  8
0
 10
-605.28230904111706
 20
808.16533877413679
 30
0.0
 40
1.0
 50
90.0
 51
183.6772786709661
  0
ARC
  5
181E
  8
0
 10
-561.9106836688245
 20
810.1340297544757
 30
0.0
 40
1.97187394713252
 50
179.0902308575958
 51
235.18227202275111
  0
LINE
  5
1820
  8
0
 10
-563.8823090411172
 20
810.16533877413679
 30
0.0
 11
-563.8823090411172
 21
811.16533877413656
 31
0.0
  0
ARC
  5
1822
  8
0
 10
-559.8823090411172
 20
759.6653387741369
 30
0.0
 40
7.0
 50
234.72185232190219
 51
344.8895574480822
  0
ARC
  5
1823
  8
0
 10
-614.57860256874449
 20
768.17618875207097
 30
0.0
 40
62.317350222446677
 50
350.45312202739888
 51
13.655742164419291
  0
ARC
  5
1824
  8
0
 10
-559.8823090411172
 20
759.6653387741369
 30
0.0
 40
7.0
 50
359.6365764435925
 51
0.0
  0
ARC
  5
1825
  8
0
 10
-559.8823090411172
 20
759.6653387741369
 30
0.0
 40
26.0
 50
163.8794279233712
 51
76.718098067895738
  0
POLYLINE
  5
1826
  8
0
 66
     1
 10
0.0
 20
0.0
 30
0.0
 70
     1
  0
VERTEX
  5
28B0
  8
0
 10
-562.76906038706534
 20
764.6653387741369
 30
0.0
  0
VERTEX
  5
28B1
  8
0
 10
-565.65581173301337
 20
759.6653387741369
 30
0.0
  0
VERTEX
  5
28B2
  8
0
 10
-562.76906038706534
 20
754.66533877413679
 30
0.0
  0
VERTEX
  5
28B3
  8
0
 10
-556.99555769516905
 20
754.66533877413679
 30
0.0
  0
VERTEX
  5
28B4
  8
0
 10
-554.10880634922091
 20
759.6653387741369
 30
0.0
  0
VERTEX
  5
28B5
  8
0
 10
-556.99555769516905
 20
764.6653387741369
 30
0.0
  0
SEQEND
  5
28B6
  8
0
  0
LINE
  5
1827
  8
0
  6
CENTER
 10
-583.8823090411172
 20
688.5762410931743
 30
0.0
 11
-583.8823090411172
 21
635.77624109317446
 31
0.0
  0
CIRCLE
  5
1828
  8
0
 10
-583.8823090411172
 20
662.17624109317444
 30
0.0
 40
21.39999999999986
  0
CIRCLE
  5
1829
  8
0
 10
-583.8823090411172
 20
662.17624109317444
 30
0.0
 40
5.5
  0
CIRCLE
  5
182A
  8
0
 10
-583.8823090411172
 20
662.17624109317444
 30
0.0
 40
12.0
  0
LINE
  5
182B
  8
0
  6
CENTER
 10
-610.28230904111695
 20
662.17624109317444
 30
0.0
 11
-517.3823090411172
 21
662.17624109317444
 31
0.0
  0
LINE
  5
182D
  8
0
 10
-566.27662813977327
 20
678.17624109317455
 30
0.0
 11
-520.88230904111708
 21
678.17624109317421
 31
0.0
  0
ARC
  5
182E
  8
0
 10
-566.27662813977304
 20
688.17624109317455
 30
0.0
 40
10.0
 50
235.89643788164341
 51
269.99999999999932
  0
ARC
  5
182F
  8
0
 10
-566.27662813977304
 20
636.17624109317433
 30
0.0
 40
10.0
 50
90.000000000000625
 51
124.10356211835651
  0
LINE
  5
1830
  8
0
 10
-566.27662813977327
 20
646.17624109317433
 30
0.0
 11
-520.88230904111697
 21
646.17624109317455
 31
0.0
  0
CIRCLE
  5
1835
  8
0
 10
-559.8823090411172
 20
759.6653387741369
 30
0.0
 40
5.0
  0
LINE
  5
1836
  8
0
 10
-562.76906038706534
 20
646.17624109317433
 30
0.0
 11
-562.76906038706534
 21
643.17624109317444
 31
0.0
  0
LINE
  5
1837
  8
0
 10
-565.65581173301337
 20
646.17624109317444
 30
0.0
 11
-565.65581173301337
 21
643.17624109317444
 31
0.0
  0
LINE
  5
1838
  8
0
  6
CENTER
 10
-559.8823090411172
 20
690.17624109317433
 30
0.0
 11
-559.8823090411172
 21
634.17624109317455
 31
0.0
  0
LINE
  5
1839
  8
0
 10
-556.99555769516883
 20
646.17624109317444
 30
0.0
 11
-556.99555769516905
 21
643.17624109317444
 31
0.0
  0
LINE
  5
183A
  8
0
 10
-554.10880634922114
 20
646.17624109317444
 30
0.0
 11
-554.10880634922091
 21
643.1762410931741
 31
0.0
  0
LINE
  5
183B
  8
0
 10
-564.21243606003929
 20
642.17624109317444
 30
0.0
 11
-555.55218202219487
 21
642.17624109317455
 31
0.0
  0
ARC
  5
183C
  8
0
 10
-564.21243606003929
 20
643.71790775984095
 30
0.0
 40
1.541666666666659
 50
200.56999209210349
 51
339.43000790789642
  0
ARC
  5
183D
  8
0
 10
-559.8823090411172
 20
646.84290775984073
 30
0.0
 40
4.6666666666663756
 50
231.78678929825961
 51
308.21321070174281
  0
ARC
  5
183E
  8
0
 10
-555.55218202219487
 20
643.71790775984095
 30
0.0
 40
1.541666666666659
 50
200.56999209210349
 51
339.43000790789642
  0
LINE
  5
183F
  8
0
 10
-564.21243606003929
 20
682.17624109317444
 30
0.0
 11
-555.55218202219487
 21
682.17624109317433
 31
0.0
  0
ARC
  5
1840
  8
0
 10
-559.8823090411172
 20
677.50957442650815
 30
0.0
 40
4.6666666666663756
 50
51.786789298257133
 51
128.21321070174019
  0
LINE
  5
1841
  8
0
 10
-562.76906038706534
 20
678.17624109317455
 30
0.0
 11
-562.76906038706534
 21
681.17624109317444
 31
0.0
  0
LINE
  5
1842
  8
0
 10
-565.65581173301337
 20
678.17624109317444
 30
0.0
 11
-565.65581173301337
 21
681.17624109317444
 31
0.0
  0
ARC
  5
1843
  8
0
 10
-564.21243606003929
 20
680.63457442650781
 30
0.0
 40
1.541666666666659
 50
20.569992092103561
 51
159.4300079078964
  0
LINE
  5
1844
  8
0
 10
-554.10880634922114
 20
678.17624109317444
 30
0.0
 11
-554.10880634922091
 21
681.17624109317467
 31
0.0
  0
LINE
  5
1845
  8
0
 10
-556.99555769516883
 20
678.17624109317444
 30
0.0
 11
-556.99555769516905
 21
681.17624109317444
 31
0.0
  0
ARC
  5
1846
  8
0
 10
-555.55218202219487
 20
680.63457442650781
 30
0.0
 40
1.541666666666659
 50
20.569992092103561
 51
159.4300079078964
  0
LINE
  5
1847
  8
0
 10
-556.88230904111708
 20
684.6762410931741
 30
0.0
 11
-556.88230904111708
 21
682.17624109317444
 31
0.0
  0
LINE
  5
1848
  8
0
 10
-557.38230904111708
 20
685.17624109317399
 30
0.0
 11
-557.38230904111697
 21
682.17624109317433
 31
0.0
  0
LINE
  5
1849
  8
0
 10
-562.38230904111686
 20
685.17624109317433
 30
0.0
 11
-557.38230904111708
 21
685.1762410931741
 31
0.0
  0
LINE
  5
184A
  8
0
 10
-556.88230904111708
 20
684.6762410931741
 30
0.0
 11
-557.38230904111708
 21
685.1762410931741
 31
0.0
  0
LINE
  5
184B
  8
0
 10
-562.8823090411172
 20
684.6762410931741
 30
0.0
 11
-562.38230904111708
 21
685.1762410931741
 31
0.0
  0
LINE
  5
184C
  8
0
 10
-562.8823090411172
 20
684.6762410931741
 30
0.0
 11
-562.8823090411172
 21
682.17624109317444
 31
0.0
  0
LINE
  5
184D
  8
0
 10
-562.38230904111708
 20
685.17624109317399
 30
0.0
 11
-562.38230904111708
 21
682.17624109317433
 31
0.0
  0
LINE
  5
184E
  8
0
 10
-562.8823090411172
 20
684.6762410931741
 30
0.0
 11
-562.38230904111708
 21
685.1762410931741
 31
0.0
  0
LINE
  5
184F
  8
0
 10
-562.8823090411172
 20
684.6762410931741
 30
0.0
 11
-556.88230904111708
 21
684.6762410931741
 31
0.0
  0
ARC
  5
1857
  8
0
 10
-646.98190275438878
 20
814.1653387741369
 30
0.0
 40
8.0
 50
0.0
 51
90.0
  0
LINE
  5
1858
  8
0
 10
-681.78190275438874
 20
811.16533877413679
 30
0.0
 11
-638.98190275438878
 21
811.16533877413679
 31
0.0
  0
LINE
  5
1859
  8
0
 10
-673.78190275438874
 20
822.1653387741369
 30
0.0
 11
-646.98190275438878
 21
822.1653387741369
 31
0.0
  0
ARC
  5
185A
  8
0
 10
-673.78190275438874
 20
814.1653387741369
 30
0.0
 40
8.0
 50
90.0
 51
180.0
  0
LINE
  5
185B
  8
0
 10
-680.38190275438876
 20
810.16533877413679
 30
0.0
 11
-680.38190275438876
 21
811.16533877413656
 31
0.0
  0
ARC
  5
185C
  8
0
 10
-681.78190275438874
 20
808.16533877413679
 30
0.0
 40
1.0
 50
90.0
 51
180.00000000000651
  0
LINE
  5
185D
  8
0
 10
-681.78190275438874
 20
809.16533877413679
 30
0.0
 11
-681.438368741251
 21
809.16533877413679
 31
0.0
  0
LINE
  5
185E
  8
0
 10
-681.78190275438874
 20
811.16533877413679
 30
0.0
 11
-681.78190275438874
 21
814.1653387741369
 31
0.0
  0
ARC
  5
185F
  8
0
 10
-681.43029105327116
 20
810.21486516223194
 30
0.0
 40
1.049557472628901
 50
269.5590312959165
 51
357.29532946855761
  0
LINE
  5
1860
  8
0
  6
CENTER
 10
-660.38190275438876
 20
804.16533877413656
 30
0.0
 11
-660.38190275438876
 21
827.16533877413724
 31
0.0
  0
LINE
  5
1861
  8
0
 10
-638.98190275438878
 20
811.16533877413679
 30
0.0
 11
-638.98190275438878
 21
814.1653387741369
 31
0.0
  0
LINE
  5
1862
  8
0
 10
-682.78190275438874
 20
808.16533877413679
 30
0.0
 11
-682.78190275438874
 21
807.16533877413667
 31
0.0
  0
ARC
  5
1863
  8
0
 10
-638.9819027543889
 20
808.16533877413679
 30
0.0
 40
1.0
 50
359.99999999999341
 51
90.0
  0
LINE
  5
1864
  8
0
 10
-637.98190275438901
 20
808.16533877413679
 30
0.0
 11
-637.98190275439424
 21
763.36714155168602
 31
0.0
  0
ARC
  5
1865
  8
0
 10
-639.33351445550647
 20
810.21486516223194
 30
0.0
 40
1.049557472628901
 50
182.7046705314423
 51
270.44096870408339
  0
LINE
  5
1866
  8
0
 10
-638.9819027543889
 20
809.16533877413679
 30
0.0
 11
-639.32543676752687
 21
809.16533877413679
 31
0.0
  0
LINE
  5
1867
  8
0
 10
-640.38190275438888
 20
810.16533877413679
 30
0.0
 11
-640.38190275438888
 21
811.16533877413656
 31
0.0
  0
LINE
  5
1868
  8
0
 10
-573.88230904111708
 20
763.36714155168602
 30
0.0
 11
-573.88230904111708
 21
805.52455576926934
 31
0.0
  0
LINE
  5
1869
  8
0
 10
-570.88230904111708
 20
761.23854022819876
 30
0.0
 11
-570.88230904111708
 21
805.52455576926934
 31
0.0
  0
LINE
  5
186C
  8
0
 10
-644.38190275438876
 20
752.6653387741369
 30
0.0
 11
-644.38190275438876
 21
807.16533877413701
 31
0.0
  0
LINE
  5
186D
  8
0
 10
-674.38190275438888
 20
777.6653387741369
 30
0.0
 11
-672.88190275438876
 21
784.6653387741369
 31
0.0
  0
LINE
  5
186E
  8
0
 10
-646.38190275438876
 20
777.6653387741369
 30
0.0
 11
-647.88190275438876
 21
784.6653387741369
 31
0.0
  0
ARC
  5
1870
  8
0
 10
-653.88190275438899
 20
789.95589497948629
 30
0.0
 40
6.0
 50
0.0
 51
34.988070393197283
  0
ARC
  5
1871
  8
0
 10
-666.88190275438899
 20
789.95589497948629
 30
0.0
 40
6.0
 50
145.01192960680271
 51
180.0
  0
LINE
  5
1872
  8
0
 10
-672.8819027543891
 20
729.3747825687874
 30
0.0
 11
-672.88190275438876
 21
789.95589497948629
 31
0.0
  0
LINE
  5
1873
  8
0
 10
-647.88190275438876
 20
729.3747825687874
 30
0.0
 11
-647.88190275438876
 21
789.95589497948629
 31
0.0
  0
LINE
  5
1874
  8
0
  6
CENTER
 10
-660.38190275438876
 20
717.16533877413667
 30
0.0
 11
-660.38190275438876
 21
802.16533877413679
 31
0.0
  0
LINE
  5
1875
  8
0
 10
-646.38190275438933
 20
741.66533877413406
 30
0.0
 11
-646.38190275438876
 21
791.39633018461279
 31
0.0
  0
ARC
  5
1876
  8
0
 10
-660.3819027543891
 20
746.23676734556557
 30
0.0
 40
24.071428571428751
 50
248.91922196572011
 51
291.08077803427972
  0
LINE
  5
1877
  8
0
 10
-674.38190275438888
 20
741.66533877413679
 30
0.0
 11
-672.88190275438876
 21
734.6653387741369
 31
0.0
  0
ARC
  5
1878
  8
0
 10
-666.88190275438899
 20
729.3747825687874
 30
0.0
 40
6.0
 50
180.0
 51
248.91922196572
  0
LINE
  5
1879
  8
0
 10
-646.38190275438876
 20
741.66533877413679
 30
0.0
 11
-647.88190275438876
 21
734.6653387741369
 31
0.0
  0
ARC
  5
187A
  8
0
 10
-653.88190275438899
 20
729.3747825687874
 30
0.0
 40
6.0
 50
291.08077803427989
 51
0.0
  0
LINE
  5
187B
  8
0
 10
-639.3415921435419
 20
809.16533877413724
 30
0.0
 11
-653.38190275438865
 21
809.16533877413724
 31
0.0
  0
LINE
  5
187C
  8
0
 10
-644.38190275438876
 20
752.6653387741369
 30
0.0
 11
-646.3819027543891
 21
752.6653387741369
 31
0.0
  0
ARC
  5
187D
  8
0
 10
-646.38190275438876
 20
807.16533877413701
 30
0.0
 40
2.0
 50
0.0
 51
90.000000000000099
  0
ARC
  5
187F
  8
0
 10
-649.6982212921348
 20
764.68947498538489
 30
0.0
 40
11.790703362721059
 50
296.80084495473642
 51
301.76952247703082
  0
LINE
  5
1880
  8
0
 10
-674.38190275438842
 20
741.66533877413406
 30
0.0
 11
-674.38190275438922
 21
791.39633018461279
 31
0.0
  0
LINE
  5
1881
  8
0
 10
-676.38190275438876
 20
752.6653387741369
 30
0.0
 11
-676.3819027543891
 21
807.16533877413701
 31
0.0
  0
ARC
  5
1882
  8
0
 10
-674.38190275438899
 20
807.16533877413701
 30
0.0
 40
2.0
 50
89.999999999999915
 51
180.0
  0
LINE
  5
1884
  8
0
 10
-682.78190275438874
 20
808.16533877413679
 30
0.0
 11
-682.78190275438374
 21
763.36714155168602
 31
0.0
  0
ARC
  5
1885
  8
0
 10
-681.78190275438874
 20
808.16533877413679
 30
0.0
 40
1.0
 50
90.0
 51
180.00000000000651
  0
ARC
  5
1886
  8
0
 10
-671.06558421664306
 20
764.68947498538489
 30
0.0
 40
11.790703362721059
 50
186.43929813161179
 51
217.88897956692779
  0
LINE
  5
1887
  8
0
 10
-676.38190275438876
 20
752.6653387741369
 30
0.0
 11
-674.38190275438865
 21
752.6653387741369
 31
0.0
  0
LINE
  5
1888
  8
0
 10
-641.38190275438888
 20
764.6653387741369
 30
0.0
 11
-644.38190275438876
 21
764.6653387741369
 31
0.0
  0
LINE
  5
1889
  8
0
 10
-641.38190275438888
 20
759.66533877413656
 30
0.0
 11
-644.38190275438876
 21
759.66533877413656
 31
0.0
  0
LINE
  5
188A
  8
0
 10
-641.38190275438888
 20
754.66533877413679
 30
0.0
 11
-644.38190275438876
 21
754.66533877413679
 31
0.0
  0
ARC
  5
188B
  8
0
 10
-644.00690275438888
 20
757.1653387741369
 30
0.0
 40
3.624999999999917
 50
316.39718102729393
 51
43.60281897270599
  0
ARC
  5
188C
  8
0
 10
-644.00690275438888
 20
762.1653387741369
 30
0.0
 40
3.624999999999917
 50
316.39718102729393
 51
43.60281897270599
  0
LINE
  5
188D
  8
0
 10
-640.38190275438888
 20
757.1653387741369
 30
0.0
 11
-640.38190275438888
 21
762.1653387741369
 31
0.0
  0
ARC
  5
188E
  8
0
 10
-649.6982212921348
 20
764.68947498538489
 30
0.0
 40
11.790703362721059
 50
322.1110204330721
 51
322.198693222381
  0
ARC
  5
188F
  8
0
 10
-676.7569027543891
 20
762.1653387741369
 30
0.0
 40
3.624999999999917
 50
136.39718102729401
 51
223.6028189727059
  0
LINE
  5
1890
  8
0
 10
-679.38190275438899
 20
759.66533877413656
 30
0.0
 11
-676.3819027543891
 21
759.66533877413656
 31
0.0
  0
LINE
  5
1891
  8
0
 10
-679.38190275438876
 20
764.6653387741369
 30
0.0
 11
-676.38190275438876
 21
764.6653387741369
 31
0.0
  0
LINE
  5
1892
  8
0
 10
-680.38190275438876
 20
757.1653387741369
 30
0.0
 11
-680.38190275438876
 21
762.1653387741369
 31
0.0
  0
ARC
  5
1893
  8
0
 10
-676.7569027543891
 20
757.1653387741369
 30
0.0
 40
3.624999999999917
 50
136.39718102729401
 51
223.6028189727059
  0
LINE
  5
1894
  8
0
 10
-679.38190275438876
 20
754.66533877413679
 30
0.0
 11
-676.38190275438876
 21
754.66533877413679
 31
0.0
  0
ARC
  5
1895
  8
0
 10
-671.06558421664306
 20
764.68947498538489
 30
0.0
 40
11.790703362721059
 50
238.23047752296901
 51
243.1991550452635
  0
LINE
  5
1896
  8
0
 10
-637.38190275438899
 20
762.16533877413667
 30
0.0
 11
-637.38190275438899
 21
757.1653387741369
 31
0.0
  0
LINE
  5
1897
  8
0
 10
-637.88190275438899
 20
762.66533877413679
 30
0.0
 11
-637.88190275438899
 21
756.6653387741369
 31
0.0
  0
LINE
  5
1898
  8
0
 10
-637.88190275438899
 20
762.66533877413679
 30
0.0
 11
-637.38190275438899
 21
762.1653387741369
 31
0.0
  0
LINE
  5
1899
  8
0
 10
-637.88190275438899
 20
762.66533877413679
 30
0.0
 11
-640.38190275438888
 21
762.66533877413679
 31
0.0
  0
LINE
  5
189A
  8
0
 10
-637.38190275438933
 20
762.1653387741369
 30
0.0
 11
-640.3819027543891
 21
762.16533877413713
 31
0.0
  0
LINE
  5
189B
  8
0
 10
-637.88190275438899
 20
762.66533877413679
 30
0.0
 11
-637.38190275438899
 21
762.1653387741369
 31
0.0
  0
LINE
  5
189C
  8
0
 10
-637.88190275438899
 20
756.6653387741369
 30
0.0
 11
-637.38190275438899
 21
757.1653387741369
 31
0.0
  0
LINE
  5
189D
  8
0
 10
-637.38190275438933
 20
757.1653387741369
 30
0.0
 11
-640.3819027543891
 21
757.16533877413656
 31
0.0
  0
LINE
  5
189E
  8
0
 10
-637.88190275438899
 20
756.6653387741369
 30
0.0
 11
-640.38190275438888
 21
756.6653387741369
 31
0.0
  0
ARC
  5
189F
  8
0
 10
-649.6982212921348
 20
764.68947498538489
 30
0.0
 40
11.790703362721059
 50
350.1149403433933
 51
353.56070186838809
  0
LINE
  5
18A0
  8
0
 10
-472.30385722344982
 20
808.16533877413679
 30
0.0
 11
-472.30385722344562
 21
772.16533877413576
 31
0.0
  0
LINE
  5
18A1
  8
0
 10
-463.90385722344951
 20
741.66533877413406
 30
0.0
 11
-463.90385722345007
 21
797.03500263731985
 31
0.0
  0
LINE
  5
18A2
  8
0
 10
-435.90385722345042
 20
741.66533877413406
 30
0.0
 11
-435.90385722344968
 21
797.03500263731985
 31
0.0
  0
LINE
  5
18A3
  8
0
 10
-462.40385722345007
 20
729.3747825687874
 30
0.0
 11
-462.4038572234499
 21
789.95589497948629
 31
0.0
  0
LINE
  5
18A4
  8
0
 10
-437.4038572234499
 20
729.3747825687874
 30
0.0
 11
-437.4038572234499
 21
789.95589497948629
 31
0.0
  0
LINE
  5
18A5
  8
0
  6
CENTER
 10
-449.9038572234499
 20
709.26533877413704
 30
0.0
 11
-449.9038572234499
 21
804.42320364105353
 31
0.0
  0
LINE
  5
18A6
  8
0
 10
-427.5038572234501
 20
808.16533877413679
 30
0.0
 11
-427.50385722345408
 21
772.16533877414122
 31
0.0
  0
ARC
  5
18A7
  8
0
 10
-449.90385722345007
 20
746.23676734556557
 30
0.0
 40
24.071428571428751
 50
248.91922196572011
 51
291.08077803427972
  0
ARC
  5
18A8
  8
0
 10
-456.40385722345002
 20
729.3747825687874
 30
0.0
 40
6.0
 50
180.0
 51
248.91922196572
  0
LINE
  5
18A9
  8
0
 10
-465.9038572234499
 20
752.6653387741369
 30
0.0
 11
-463.90385722344968
 21
752.6653387741369
 31
0.0
  0
LINE
  5
18AA
  8
0
 10
-468.9038572234499
 20
754.66533877413679
 30
0.0
 11
-465.9038572234499
 21
754.66533877413679
 31
0.0
  0
ARC
  5
18AB
  8
0
 10
-466.27885722345002
 20
757.1653387741369
 30
0.0
 40
3.624999999999917
 50
136.39718102729401
 51
223.6028189727059
  0
LINE
  5
18AC
  8
0
 10
-469.9038572234499
 20
757.1653387741369
 30
0.0
 11
-469.9038572234499
 21
762.1653387741369
 31
0.0
  0
LINE
  5
18AD
  8
0
 10
-468.90385722345002
 20
759.66533877413656
 30
0.0
 11
-465.90385722345002
 21
759.66533877413656
 31
0.0
  0
ARC
  5
18AE
  8
0
 10
-466.27885722345002
 20
762.1653387741369
 30
0.0
 40
3.624999999999917
 50
163.54437984768199
 51
223.6028189727059
  0
LINE
  5
18AF
  8
0
 10
-463.90385722345002
 20
741.66533877413679
 30
0.0
 11
-462.4038572234499
 21
734.6653387741369
 31
0.0
  0
ARC
  5
18B0
  8
0
 10
-443.40385722345002
 20
729.3747825687874
 30
0.0
 40
6.0
 50
291.08077803427989
 51
0.0
  0
LINE
  5
18B1
  8
0
 10
-435.90385722344979
 20
741.66533877413679
 30
0.0
 11
-437.4038572234499
 21
734.6653387741369
 31
0.0
  0
ARC
  5
18B2
  8
0
 10
-433.52885722344979
 20
762.1653387741369
 30
0.0
 40
3.624999999999917
 50
316.39718102729393
 51
16.45562015231793
  0
ARC
  5
18B3
  8
0
 10
-433.52885722344979
 20
757.1653387741369
 30
0.0
 40
3.624999999999917
 50
316.39718102729393
 51
43.60281897270599
  0
LINE
  5
18B4
  8
0
 10
-430.90385722344979
 20
759.66533877413656
 30
0.0
 11
-433.90385722344979
 21
759.66533877413656
 31
0.0
  0
LINE
  5
18B5
  8
0
 10
-430.9038572234499
 20
754.66533877413679
 30
0.0
 11
-433.9038572234499
 21
754.66533877413679
 31
0.0
  0
LINE
  5
18B6
  8
0
 10
-433.9038572234499
 20
752.6653387741369
 30
0.0
 11
-435.90385722345019
 21
752.6653387741369
 31
0.0
  0
ARC
  5
18B7
  8
0
 10
-439.22017576119578
 20
764.68947498538489
 30
0.0
 40
11.790703362721059
 50
322.1110204330721
 51
322.198693222381
  0
LINE
  5
18B8
  8
0
 10
-427.40385722345007
 20
762.66533877413679
 30
0.0
 11
-429.90385722345002
 21
762.66533877413679
 31
0.0
  0
LINE
  5
18B9
  8
0
 10
-427.40385722345007
 20
762.66533877413679
 30
0.0
 11
-426.90385722345007
 21
762.1653387741369
 31
0.0
  0
LINE
  5
18BA
  8
0
 10
-426.9038572234503
 20
762.1653387741369
 30
0.0
 11
-429.90385722345007
 21
762.16533877413713
 31
0.0
  0
LINE
  5
18BB
  8
0
 10
-427.40385722345007
 20
762.66533877413679
 30
0.0
 11
-426.90385722345007
 21
762.1653387741369
 31
0.0
  0
LINE
  5
18BC
  8
0
 10
-427.40385722345007
 20
756.6653387741369
 30
0.0
 11
-429.90385722345002
 21
756.6653387741369
 31
0.0
  0
LINE
  5
18BD
  8
0
 10
-426.9038572234503
 20
757.1653387741369
 30
0.0
 11
-429.90385722345007
 21
757.16533877413656
 31
0.0
  0
LINE
  5
18BE
  8
0
 10
-427.40385722345007
 20
756.6653387741369
 30
0.0
 11
-426.90385722345007
 21
757.1653387741369
 31
0.0
  0
LINE
  5
18BF
  8
0
 10
-427.40385722345007
 20
762.66533877413679
 30
0.0
 11
-427.40385722345007
 21
756.6653387741369
 31
0.0
  0
LINE
  5
18C0
  8
0
 10
-426.90385722345002
 20
762.16533877413667
 30
0.0
 11
-426.90385722345007
 21
757.1653387741369
 31
0.0
  0
LINE
  5
18C1
  8
0
 10
-429.90385722345002
 20
757.1653387741369
 30
0.0
 11
-429.90385722345002
 21
762.1653387741369
 31
0.0
  0
ARC
  5
18C2
  8
0
 10
-449.90385722345007
 20
773.09391020270823
 30
0.0
 40
24.071428571428751
 50
68.919221965720212
 51
111.0807780342797
  0
LINE
  5
18C3
  8
0
 10
-463.30385722344971
 20
822.1653387741369
 30
0.0
 11
-436.50385722344993
 21
822.1653387741369
 31
0.0
  0
LINE
  5
18C4
  8
0
 10
-471.30385722344982
 20
811.16533877413679
 30
0.0
 11
-428.50385722344993
 21
811.16533877413679
 31
0.0
  0
LINE
  5
18C5
  8
0
 10
-463.90385722345002
 20
777.6653387741369
 30
0.0
 11
-462.4038572234499
 21
784.6653387741369
 31
0.0
  0
ARC
  5
18C6
  8
0
 10
-456.40385722345002
 20
789.95589497948629
 30
0.0
 40
6.0
 50
111.0807780342799
 51
180.0
  0
ARC
  5
18C7
  8
0
 10
-463.30385722344971
 20
814.1653387741369
 30
0.0
 40
8.0
 50
90.0
 51
180.0
  0
ARC
  5
18C8
  8
0
 10
-471.30385722344982
 20
808.16533877413679
 30
0.0
 40
1.0
 50
90.0
 51
180.00000000000651
  0
ARC
  5
18C9
  8
0
 10
-471.30385722344982
 20
808.16533877413679
 30
0.0
 40
1.0
 50
90.0
 51
180.00000000000651
  0
LINE
  5
18CA
  8
0
 10
-472.30385722344982
 20
808.16533877413679
 30
0.0
 11
-472.3038572234496
 21
807.16533877413667
 31
0.0
  0
ARC
  5
18CB
  8
0
 10
-470.9522455223323
 20
810.21486516223194
 30
0.0
 40
1.049557472628901
 50
269.5590312959165
 51
357.29532946855761
  0
LINE
  5
18CC
  8
0
 10
-471.30385722344982
 20
811.16533877413679
 30
0.0
 11
-471.30385722344982
 21
814.1653387741369
 31
0.0
  0
LINE
  5
18CD
  8
0
 10
-471.30385722344982
 20
809.16533877413679
 30
0.0
 11
-470.96032321031191
 21
809.16533877413679
 31
0.0
  0
LINE
  5
18CE
  8
0
 10
-469.9038572234499
 20
810.16533877413679
 30
0.0
 11
-469.9038572234499
 21
811.16533877413656
 31
0.0
  0
LINE
  5
18CF
  8
0
  6
CENTER
 10
-449.9038572234499
 20
806.42320364105331
 30
0.0
 11
-449.9038572234499
 21
827.16533877413724
 31
0.0
  0
LINE
  5
18D0
  8
0
 10
-435.90385722344979
 20
777.6653387741369
 30
0.0
 11
-437.4038572234499
 21
784.6653387741369
 31
0.0
  0
ARC
  5
18D1
  8
0
 10
-443.40385722345002
 20
789.95589497948629
 30
0.0
 40
6.0
 50
0.0
 51
68.919221965720027
  0
ARC
  5
18D2
  8
0
 10
-436.50385722344993
 20
814.1653387741369
 30
0.0
 40
8.0
 50
0.0
 51
90.0
  0
LINE
  5
18D3
  8
0
 10
-429.90385722345002
 20
810.16533877413679
 30
0.0
 11
-429.90385722345002
 21
811.16533877413656
 31
0.0
  0
LINE
  5
18D4
  8
0
 10
-428.50385722344998
 20
809.16533877413679
 30
0.0
 11
-428.8473912365879
 21
809.16533877413679
 31
0.0
  0
ARC
  5
18D5
  8
0
 10
-428.85546892456762
 20
810.21486516223194
 30
0.0
 40
1.049557472628901
 50
182.7046705314423
 51
270.44096870408339
  0
ARC
  5
18D6
  8
0
 10
-428.50385722344998
 20
808.16533877413679
 30
0.0
 40
1.0
 50
359.99999999999341
 51
90.0
  0
LINE
  5
18D7
  8
0
 10
-428.50385722344993
 20
811.16533877413679
 30
0.0
 11
-428.50385722344993
 21
814.1653387741369
 31
0.0
  0
LINE
  5
18D8
  8
0
  6
CENTER
 10
-688.38190275438865
 20
759.6653387741369
 30
0.0
 11
-632.3819027543891
 21
759.66533877413576
 31
0.0
  0
LINE
  5
18DA
  8
0
  6
CENTER
 10
-477.90385722344962
 20
759.6653387741369
 30
0.0
 11
-421.90385722345007
 21
759.66533877413576
 31
0.0
  0
LINE
  5
18DB
  8
0
 10
-433.9038572234499
 20
752.6653387741369
 30
0.0
 11
-433.90385722345002
 21
758.66533877413679
 31
0.0
  0
ARC
  5
18DC
  8
0
 10
-445.49048266972773
 20
772.42529454125543
 30
0.0
 40
17.98850388290791
 50
310.09918815483161
 51
0.8280225458805043
  0
ARC
  5
18DD
  8
0
 10
-467.90095288592272
 20
773.1878896508324
 30
0.0
 40
40.400222577001308
 50
359.28713620547171
 51
46.866469546497939
  0
ARC
  5
18DE
  8
0
 10
-431.90676156097697
 20
773.1878896508324
 30
0.0
 40
40.400222577001443
 50
133.13353045350189
 51
180.7128637945282
  0
ARC
  5
18DF
  8
0
 10
-454.3172317771722
 20
772.42529454125543
 30
0.0
 40
17.98850388290791
 50
179.17197745411951
 51
229.90081184516831
  0
LINE
  5
18E0
  8
0
 10
-465.9038572234499
 20
752.6653387741369
 30
0.0
 11
-465.9038572234499
 21
758.66533877413679
 31
0.0
  0
ARC
  5
18E1
  8
0
 10
-449.9038572234499
 20
791.1653387741369
 30
0.0
 40
15.0
 50
50.085903885863459
 51
129.9140961141365
  0
ARC
  5
18E2
  8
0
 10
-434.0361541279334
 20
776.17205200732894
 30
0.0
 40
36.432710538626857
 50
136.5861208304562
 51
185.45260133934181
  0
ARC
  5
18E3
  8
0
 10
-454.3172317771722
 20
772.42529454125543
 30
0.0
 40
15.98850388290791
 50
179.17197745411951
 51
232.94625643995289
  0
ARC
  5
18E4
  8
0
 10
-449.23385084600278
 20
790.92136957530852
 30
0.0
 40
15.258686230493369
 50
92.516657318788731
 51
137.5970211095684
  0
ARC
  5
18E5
  8
0
 10
-450.57386360089691
 20
790.92136957530852
 30
0.0
 40
15.258686230493369
 50
42.40297889043152
 51
87.483342681211255
  0
ARC
  5
18E6
  8
0
 10
-465.77156031896641
 20
776.17205200732894
 30
0.0
 40
36.432710538626857
 50
354.54739866065819
 51
43.413879169543812
  0
ARC
  5
18E7
  8
0
 10
-445.49048266972773
 20
772.42529454125543
 30
0.0
 40
15.98850388290791
 50
307.053743560047
 51
0.8280225458805043
  0
LINE
  5
1ABF
  8
0
 10
-470.9603232103151
 20
809.16533877413679
 30
0.0
 11
-428.50385722344998
 21
809.16533877413679
 31
0.0
  0
ARC
  5
1C1D
  8
0
 10
-578.79746081834378
 20
654.58160899885206
 30
0.0
 40
154.738323744767
 50
67.620439515439003
 51
84.153989540255878
  0
ARC
  5
1C1F
  8
0
 10
-550.18233980301829
 20
654.10275252988924
 30
0.0
 40
133.58555868179931
 50
82.541330420183925
 51
89.755046170589424
  0
ARC
  5
1C20
  8
0
 10
-550.10985977825965
 20
783.71829106125506
 30
0.0
 40
4.0
 50
82.83902262003572
 51
191.9721990205494
  0
LINE
  5
1C21
  8
0
 10
-519.88230904111708
 20
797.6653387741369
 30
0.0
 11
-520.87473713002646
 21
794.63727900917331
 31
0.0
  0
ARC
  5
1C22
  8
0
 10
-531.51813255071784
 20
797.49992019706997
 30
0.0
 40
11.02164146812204
 50
263.10403142916709
 51
344.94601058133281
  0
LINE
  5
1C66
  8
0
 10
-545.76395038215026
 20
807.34092413205178
 30
0.0
 11
-545.98627138352595
 21
806.31282861748423
 31
0.0
  0
ARC
  5
1C67
  8
0
 10
-578.79746081834378
 20
654.58160899885206
 30
0.0
 40
155.238323744767
 50
75.222288755020216
 51
77.797929829096802
  0
LINE
  5
1C6C
  8
0
 10
-536.01318584285946
 20
805.2323654370233
 30
0.0
 11
-536.40922817918306
 21
803.40091745400105
 31
0.0
  0
ARC
  5
1C6D
  8
0
 10
-540.96152342102982
 20
805.94927213420806
 30
0.0
 40
5.0
 50
351.7564426411393
 51
163.83941701697429
  0
LINE
  5
1C6E
  8
0
 10
-539.20087862138905
 20
804.68506611228725
 30
0.0
 11
-539.30666589267435
 21
804.1958661787047
 31
0.0
  0
LINE
  5
1CF1
  8
0
 10
-519.88230904111708
 20
797.66533877413667
 30
0.0
 11
-506.56954504096842
 21
802.33767464188236
 31
0.0
  0
LINE
  5
1CF2
  8
0
 10
-521.62810288044921
 20
790.66565529810111
 30
0.0
 11
-504.54486184114688
 21
796.68960789826451
 31
0.0
  0
LINE
  5
1CF3
  8
0
 10
-503.94096458384752
 20
797.96839955550433
 30
0.0
 11
-505.2907533837286
 21
801.73377738458294
 31
0.0
  0
LINE
  5
1CF5
  8
0
 10
-518.68987443969559
 20
798.0927951789522
 30
0.0
 11
-519.92447244078812
 21
794.32583556264331
 31
0.0
  0
ARC
  5
1CF6
  8
0
 10
-531.51813255071784
 20
797.49992019706997
 30
0.0
 40
12.02164146812204
 50
325.3545294487401
 51
344.94601058133281
  0
LINE
  5
1CF7
  8
0
 10
-521.62810288044932
 20
790.66565529810089
 30
0.0
 11
-522.57138762949671
 21
791.06312472366596
 31
0.0
  0
ARC
  5
1D38
  8
0
 10
-506.23209784099822
 20
801.39633018461268
 30
0.0
 40
1.0
 50
19.72141980495223
 51
109.72141980495201
  0
ARC
  5
1D39
  8
0
 10
-504.8823090411172
 20
797.63095235553396
 30
0.0
 40
1.0
 50
289.72141980495292
 51
19.72141980495276
  0
LINE
  5
1D3F
  8
0
 10
-545.98627138352595
 20
669.17624109317444
 30
0.0
 11
-545.98627138352595
 21
655.17624109317455
 31
0.0
  0
LINE
  5
1D40
  8
0
 10
-545.98627138352595
 20
669.17624109317444
 30
0.0
 11
-522.88230904111708
 21
669.17624109317444
 31
0.0
  0
LINE
  5
1D41
  8
0
 10
-535.98627138352595
 20
669.17624109317444
 30
0.0
 11
-535.98627138352595
 21
655.17624109317455
 31
0.0
  0
LINE
  5
1D42
  8
0
 10
-522.88230904111708
 20
669.17624109317444
 30
0.0
 11
-522.88230904111708
 21
655.17624109317444
 31
0.0
  0
LINE
  5
1D43
  8
0
 10
-545.98627138352595
 20
655.17624109317444
 30
0.0
 11
-522.88230904111708
 21
655.17624109317444
 31
0.0
  0
ARC
  5
1D47
  8
0
 10
-648.38230904112083
 20
662.17624109317376
 30
0.0
 40
128.50000000000361
 50
352.84733125000582
 51
7.1526687499946551
  0
ARC
  5
1DCB
  8
0
 10
-648.38230904112083
 20
662.17624109317376
 30
0.0
 40
129.50000000000361
 50
352.90284957133213
 51
7.0971504286682592
  0
ARC
  5
1DCC
  8
0
 10
-647.38230904112083
 20
662.17624109317376
 30
0.0
 40
143.50000000000361
 50
353.95767158094628
 51
6.0423284190539732
  0
LINE
  5
1DCF
  8
0
 10
-520.07311217666802
 20
669.17624109317444
 30
0.0
 11
-519.07163662773905
 21
669.17624109317444
 31
0.0
  0
LINE
  5
1DD0
  8
0
 10
-520.07311217666779
 20
655.17624109317444
 30
0.0
 11
-519.07163662773905
 21
655.17624109317444
 31
0.0
  0
LINE
  5
1DD1
  8
0
 10
-519.87452717558165
 20
646.17624109317455
 30
0.0
 11
-505.67398183343312
 21
646.17624109317467
 31
0.0
  0
LINE
  5
1DD2
  8
0
 10
-519.87452717558199
 20
678.17624109317399
 30
0.0
 11
-505.67398183343317
 21
678.17624109317387
 31
0.0
  0
ARC
  5
1DD3
  8
0
 10
-505.67398183343317
 20
677.17624109317399
 30
0.0
 40
1.0
 50
6.0423284190513904
 51
90.0
  0
ARC
  5
1DD4
  8
0
 10
-505.67398183343312
 20
647.17624109317455
 30
0.0
 40
1.0
 50
270.0
 51
353.95767158094242
  0
LINE
  5
1ED5
  8
0
 10
-604.93877502800171
 20
809.16533877413701
 30
0.0
 11
-563.62821813659809
 21
809.16533877413701
 31
0.0
  0
LINE
  5
1F9C
  8
0
 10
-653.38190275438888
 20
810.94927213420817
 30
0.0
 11
-667.38190275438888
 21
810.94927213420817
 31
0.0
  0
LINE
  5
1F9D
  8
0
 10
-653.38190275438865
 20
802.30070258531941
 30
0.0
 11
-653.38190275438865
 21
810.94927213420817
 31
0.0
  0
ARC
  5
1FA0
  8
0
 10
-660.38190275438785
 20
546.14633018463564
 30
0.0
 40
256.24999999997692
 50
86.420178783507765
 51
93.579821216492704
  0
ARC
  5
1FA1
  8
0
 10
-660.38190275438785
 20
546.14633018463564
 30
0.0
 40
251.24999999997689
 50
86.348842918297635
 51
93.651157081702834
  0
LINE
  5
1FA2
  8
0
 10
-667.38190275438888
 20
802.30070258531941
 30
0.0
 11
-667.38190275438888
 21
810.94927213420817
 31
0.0
  0
LINE
  5
1FA3
  8
0
 10
-667.38190275438888
 20
809.16533877413701
 30
0.0
 11
-681.42221336527984
 21
809.16533877413679
 31
0.0
  0
LINE
  5
1FA4
  8
0
 10
-653.38190275438888
 20
803.40091745400105
 30
0.0
 11
-667.38190275438888
 21
803.40091745400105
 31
0.0
  0
LINE
  5
1FE5
  8
0
 10
-673.38190275438899
 20
791.39633018461257
 30
0.0
 11
-673.38190275438876
 21
797.05978638017007
 31
0.0
  0
LINE
  5
1FE7
  8
0
 10
-673.38190275438899
 20
791.39633018461257
 30
0.0
 11
-676.38190275438888
 21
791.39633018461257
 31
0.0
  0
LINE
  5
1FE8
  8
0
 10
-647.38190275438865
 20
791.39633018461257
 30
0.0
 11
-647.38190275438876
 21
797.05978638017007
 31
0.0
  0
LINE
  5
1FE9
  8
0
 10
-647.38190275438865
 20
791.39633018461257
 30
0.0
 11
-644.38190275438865
 21
791.39633018461257
 31
0.0
  0
LINE
  5
1FEA
  8
0
 10
-673.38190275438899
 20
793.39633018461268
 30
0.0
 11
-647.38190275438865
 21
793.39633018461268
 31
0.0
  0
ARC
  5
1FEF
  8
0
 10
-449.90385722344882
 20
546.14633018463564
 30
0.0
 40
251.24999999997689
 50
86.800931656024787
 51
93.199068343975739
  0
LINE
  5
1FF1
  8
0
 10
-462.9038572234499
 20
791.39633018461257
 30
0.0
 11
-462.90385722344979
 21
797.05978638017007
 31
0.0
  0
LINE
  5
1FF7
  8
0
 10
-436.90385722344962
 20
791.39633018461257
 30
0.0
 11
-436.90385722344968
 21
797.05978638017007
 31
0.0
  0
LINE
  5
1FFF
  8
0
 10
-462.9038572234499
 20
791.39633018461257
 30
0.0
 11
-462.22838694007379
 21
791.39633018461257
 31
0.0
  0
LINE
  5
2000
  8
0
 10
-437.5793275068263
 20
791.39633018461257
 30
0.0
 11
-436.90385722344962
 21
791.39633018461257
 31
0.0
  0
LINE
  5
2001
  8
0
 10
-459.49246615721529
 20
802.21686944814314
 30
0.0
 11
-440.31524828968469
 21
802.21686944814326
 31
0.0
  0
POLYLINE
  5
2002
  8
0
 66
     1
 10
0.0
 20
0.0
 30
0.0
 70
     1
  0
VERTEX
  5
28B7
  8
0
 10
-698.82362636206278
 20
847.01096107045009
 30
0.0
  0
VERTEX
  5
28B8
  8
0
 10
-400.46440917744479
 20
847.01096107045009
 30
0.0
  0
VERTEX
  5
28B9
  8
0
 10
-400.46440917744479
 20
621.51974360826785
 30
0.0
  0
VERTEX
  5
28BA
  8
0
 10
-698.82362636206278
 20
621.51974360826785
 30
0.0
  0
SEQEND
  5
28BB
  8
0
  0
LINE
  5
2003
  8
0
 10
208.392895369591
 20
638.91274998891265
 30
0.0
 11
208.392895369591
 21
635.66274998891265
 31
0.0
  0
LINE
  5
2004
  8
0
 10
204.6401186198585
 20
638.91274998891276
 30
0.0
 11
204.6401186198585
 21
635.66274998891265
 31
0.0
  0
LINE
  5
2005
  8
0
 10
197.13456512039321
 20
638.91274998891276
 30
0.0
 11
197.13456512039329
 21
635.66274998891276
 31
0.0
  0
LINE
  5
2006
  8
0
 10
193.3817883706607
 20
638.91274998891265
 30
0.0
 11
193.38178837066079
 21
635.66274998891276
 31
0.0
  0
ARC
  5
2007
  8
0
 10
192.20883569291721
 20
619.02267897042827
 30
0.0
 40
20.0
 50
90.0
 51
125.9040685833174
  0
LINE
  5
2008
  8
0
  6
CENTER
 10
200.88734187012571
 20
691.91274998891276
 30
0.0
 11
200.88734187012631
 21
627.13260795194378
 31
0.0
  0
LINE
  5
2009
  8
0
  6
CENTER
 10
162.88734187012571
 20
692.52267897042827
 30
0.0
 11
162.88734187012571
 21
626.52267897042805
 31
0.0
  0
CIRCLE
  5
200A
  8
0
 10
162.88734187012571
 20
659.52267897042816
 30
0.0
 40
30.00000000000005
  0
ARC
  5
200C
  8
0
 10
200.88734187012599
 20
644.67663887780179
 30
0.0
 40
9.7638888888889532
 50
247.39644098484479
 51
292.60355901515521
  0
LINE
  5
200D
  8
0
 10
195.25817674552701
 20
634.91274998891299
 30
0.0
 11
206.51650699472469
 21
634.91274998891265
 31
0.0
  0
ARC
  5
200E
  8
0
 10
195.25817674552701
 20
637.63497221113505
 30
0.0
 40
2.7222222222221419
 50
226.42642140347411
 51
270.0
  0
ARC
  5
200F
  8
0
 10
195.25817674552701
 20
637.63497221113505
 30
0.0
 40
2.7222222222221419
 50
269.99999999999829
 51
313.57357859652348
  0
ARC
  5
2010
  8
0
 10
206.51650699472481
 20
637.63497221113505
 30
0.0
 40
2.7222222222221419
 50
226.42642140347641
 51
270.00000000000159
  0
ARC
  5
2011
  8
0
 10
206.51650699472481
 20
637.63497221113505
 30
0.0
 40
2.7222222222221419
 50
270.0
 51
313.57357859652581
  0
LINE
  5
2012
  8
0
 10
200.99173189388171
 20
878.38213871466246
 30
0.0
 11
205.96587191477181
 21
869.85504153599391
 31
0.0
  0
LINE
  5
2013
  8
0
 10
147.58818904099871
 20
868.10504153599391
 30
0.0
 11
203.96587191477181
 21
868.10504153599368
 31
0.0
  0
LINE
  5
2014
  8
0
 10
145.9658719147717
 20
869.85504153599368
 30
0.0
 11
205.96587191477181
 21
869.85504153599391
 31
0.0
  0
ARC
  5
2015
  8
0
 10
192.20883569291701
 20
700.02267897042827
 30
0.0
 40
20.0
 50
234.0959314166825
 51
270.0
  0
ARC
  5
2016
  8
0
 10
350.37772055351309
 20
933.47119238021457
 30
0.0
 40
216.92165987945609
 50
202.10141375584939
 51
227.1919902859799
  0
ARC
  5
2017
  8
0
 10
213.96587191477181
 20
784.35504153599368
 30
0.0
 40
20.0
 50
183.5077296259285
 51
59.005790258456649
  0
LINE
  5
201C
  8
0
  6
CENTER
 10
146.46587191477181
 20
784.35504153599379
 30
0.0
 11
281.46587191477181
 21
784.35504153599379
 31
0.0
  0
LINE
  5
201D
  8
0
  6
CENTER
 10
126.88734187012579
 20
659.52267897042816
 30
0.0
 11
296.64218755819343
 21
659.52267897042816
 31
0.0
  0
LINE
  5
201E
  8
0
 10
200.1194603243334
 20
782.85846740510226
 30
0.0
 11
200.1194603243334
 21
863.10504153599379
 31
0.0
  0
LINE
  5
201F
  8
0
 10
97.567088323316852
 20
802.35504153599356
 30
0.0
 11
97.567088323316753
 21
865.10504153599413
 31
0.0
  0
LINE
  5
2020
  8
0
 10
77.567088323316739
 20
847.11398109448578
 30
0.0
 11
77.567088323316625
 21
864.84394408794685
 31
0.0
  0
LINE
  5
2021
  8
0
 10
57.567088323316618
 20
847.11398109448578
 30
0.0
 11
57.567088323316739
 21
864.84394408794685
 31
0.0
  0
LINE
  5
2022
  8
0
 10
193.6194603243334
 20
788.39909886919224
 30
0.0
 11
193.61946032433349
 21
863.10504153599379
 31
0.0
  0
LINE
  5
2023
  8
0
 10
88.067088323316398
 20
770.6240661847869
 30
0.0
 11
88.067088323316057
 21
865.10504153599413
 31
0.0
  0
LINE
  5
2024
  8
0
  6
CENTER
 10
67.567088323316739
 20
886.85504153599391
 30
0.0
 11
67.567088323316739
 21
716.85504153599379
 31
0.0
  0
LINE
  5
2025
  8
0
 10
37.567088323316732
 20
802.35504153599356
 30
0.0
 11
37.567088323316732
 21
865.10504153599413
 31
0.0
  0
LINE
  5
2026
  8
0
 10
47.06708832331713
 20
770.6240661847869
 30
0.0
 11
47.067088323317421
 21
865.10504153599413
 31
0.0
  0
ARC
  5
2027
  8
0
 10
67.567088323316682
 20
588.77893155705794
 30
0.0
 40
258.52852418931502
 50
85.840768809615724
 51
94.159231190384261
  0
LINE
  5
2028
  8
0
 10
87.245256080604975
 20
835.87903130660345
 30
0.0
 11
47.888920566028439
 21
835.87903130660345
 31
0.0
  0
ARC
  5
2029
  8
0
 10
67.567088323316796
 20
584.14392831450539
 30
0.0
 40
258.52852418931502
 50
85.634649935394336
 51
94.365350064605636
  0
ARC
  5
202A
  8
0
 10
67.567088323316682
 20
749.95504153599313
 30
0.0
 40
28.099999999999419
 50
239.4606445234071
 51
300.53935547659353
  0
LINE
  5
202B
  8
0
 10
51.567088323316909
 20
728.76754522331078
 30
0.0
 11
51.5670883233173
 21
835.87903130660345
 31
0.0
  0
LINE
  5
202C
  8
0
 10
49.06708832331708
 20
835.87903130660357
 30
0.0
 11
49.06708832331713
 21
760.35504153599356
 31
0.0
  0
LINE
  5
202D
  8
0
 10
42.06708832331708
 20
781.10504153599379
 30
0.0
 11
42.06708832331708
 21
787.60504153599402
 31
0.0
  0
ARC
  5
202E
  8
0
 10
47.848338323317478
 20
787.60504153599402
 30
0.0
 40
5.7812500000003926
 50
145.79454206189649
 51
214.20545793810371
  0
LINE
  5
202F
  8
0
 10
43.067088323317023
 20
784.35504153599402
 30
0.0
 11
47.067088323317193
 21
784.35504153599379
 31
0.0
  0
LINE
  5
2030
  8
0
 10
43.067088323317023
 20
777.85504153599379
 30
0.0
 11
47.06708832331708
 21
777.85504153599356
 31
0.0
  0
ARC
  5
2031
  8
0
 10
47.848338323317478
 20
781.10504153599379
 30
0.0
 40
5.7812500000003926
 50
145.79454206189621
 51
214.20545793810351
  0
LINE
  5
2032
  8
0
 10
51.567088323316959
 20
744.35504153599345
 30
0.0
 11
49.06708832331708
 21
760.35504153599345
 31
0.0
  0
ARC
  5
2033
  8
0
 10
55.067088323316959
 20
728.76754522331078
 30
0.0
 40
3.5
 50
180.0
 51
239.46064452340741
  0
LINE
  5
2034
  8
0
 10
47.06708832331708
 20
770.62406618478701
 30
0.0
 11
49.06708832331708
 21
770.62406618478701
 31
0.0
  0
LINE
  5
2035
  8
0
 10
43.067088323316909
 20
790.85504153599391
 30
0.0
 11
47.06708832331725
 21
790.85504153599391
 31
0.0
  0
ARC
  5
2036
  8
0
 10
59.460088463173058
 20
800.95994002177758
 30
0.0
 40
21.937405574924341
 50
176.35383474943521
 51
217.54765621180599
  0
LINE
  5
2037
  8
0
 10
47.888920566028389
 20
835.87903130660345
 30
0.0
 11
47.888920566028609
 21
845.62921249978365
 31
0.0
  0
ARC
  5
2038
  8
0
 10
48.888920566028673
 20
845.62921249978388
 30
0.0
 40
1.0
 50
94.159231190379685
 51
180.00000000000651
  0
CIRCLE
  5
2039
  8
0
 10
162.88734187012571
 20
659.52267897042816
 30
0.0
 40
5.6500000000000004
  0
CIRCLE
  5
203A
  8
0
 10
162.88734187012571
 20
659.52267897042816
 30
0.0
 40
7.0
  0
CIRCLE
  5
203B
  8
0
 10
162.88734187012571
 20
659.52267897042816
 30
0.0
 40
12.5
  0
CIRCLE
  5
203C
  8
0
 10
162.88734187012571
 20
659.52267897042816
 30
0.0
 40
17.5
  0
CIRCLE
  5
203D
  8
0
 10
162.88734187012571
 20
659.52267897042816
 30
0.0
 40
21.0
  0
LINE
  5
203E
  8
0
 10
93.067088323316398
 20
781.10504153599379
 30
0.0
 11
93.067088323316398
 21
787.60504153599402
 31
0.0
  0
LINE
  5
203F
  8
0
 10
95.847230360285764
 20
787.75504153599354
 30
0.0
 11
95.847230360285664
 21
780.95504153599393
 31
0.0
  0
LINE
  5
2040
  8
0
 10
95.247230360285641
 20
780.35504153599379
 30
0.0
 11
95.247230360285755
 21
788.35504153599345
 31
0.0
  0
ARC
  5
2041
  8
0
 10
87.285838323315986
 20
787.60504153599402
 30
0.0
 40
5.7812500000003926
 50
325.79454206189621
 51
34.205457938103478
  0
LINE
  5
2042
  8
0
 10
86.067088323316383
 20
835.87903130660357
 30
0.0
 11
86.067088323316341
 21
760.35504153599356
 31
0.0
  0
LINE
  5
2043
  8
0
 10
83.567088323316568
 20
728.76754522331089
 30
0.0
 11
83.567088323316185
 21
835.87903130660345
 31
0.0
  0
LINE
  5
2044
  8
0
 10
83.567088323316511
 20
744.35504153599345
 30
0.0
 11
86.067088323316383
 21
760.35504153599345
 31
0.0
  0
ARC
  5
2045
  8
0
 10
80.067088323316625
 20
728.76754522331089
 30
0.0
 40
3.5
 50
300.53935547659353
 51
0.0
  0
LINE
  5
2046
  8
0
 10
88.067088323316398
 20
770.62406618478701
 30
0.0
 11
86.067088323316383
 21
770.62406618478701
 31
0.0
  0
LINE
  5
2047
  8
0
 10
95.247230360285641
 20
780.35504153599379
 30
0.0
 11
93.067088323316682
 21
780.35504153599379
 31
0.0
  0
ARC
  5
2048
  8
0
 10
87.285838323315986
 20
781.10504153599379
 30
0.0
 40
5.7812500000003926
 50
325.79454206189649
 51
34.205457938103777
  0
LINE
  5
2049
  8
0
 10
92.067088323316455
 20
784.35504153599402
 30
0.0
 11
88.067088323316284
 21
784.35504153599379
 31
0.0
  0
LINE
  5
204A
  8
0
 10
92.067088323316455
 20
777.85504153599379
 30
0.0
 11
88.067088323316398
 21
777.85504153599356
 31
0.0
  0
LINE
  5
204B
  8
0
 10
95.847230360285764
 20
780.95504153599472
 30
0.0
 11
93.067088323316398
 21
780.95504153599472
 31
0.0
  0
LINE
  5
204C
  8
0
 10
95.247230360285641
 20
780.35504153599379
 30
0.0
 11
95.847230360285664
 21
780.95504153599393
 31
0.0
  0
LINE
  5
204D
  8
0
 10
95.247230360285755
 20
788.35504153599345
 30
0.0
 11
93.067088323316682
 21
788.35504153599379
 31
0.0
  0
ARC
  5
204E
  8
0
 10
75.674088183460412
 20
800.95994002177758
 30
0.0
 40
21.937405574924341
 50
322.45226860584847
 51
322.45234378819481
  0
LINE
  5
204F
  8
0
 10
92.067088323316554
 20
790.85504153599391
 30
0.0
 11
88.067088323316213
 21
790.85504153599391
 31
0.0
  0
LINE
  5
2050
  8
0
 10
95.847230360285764
 20
787.75504153599354
 30
0.0
 11
93.067088323316398
 21
787.75504153599354
 31
0.0
  0
LINE
  5
2051
  8
0
 10
95.247230360285755
 20
788.35504153599345
 30
0.0
 11
95.847230360285764
 21
787.75504153599354
 31
0.0
  0
ARC
  5
2052
  8
0
 10
75.674088183460412
 20
800.95994002177758
 30
0.0
 40
21.937405574924341
 50
324.92944350753669
 51
3.6461652505647368
  0
ARC
  5
2053
  8
0
 10
86.24525608060469
 20
845.62921249978388
 30
0.0
 40
1.0
 50
359.99999999999341
 51
85.840768809617074
  0
LINE
  5
2054
  8
0
 10
87.245256080604975
 20
835.87903130660345
 30
0.0
 11
87.24525608060469
 21
845.62921249978365
 31
0.0
  0
LINE
  5
2055
  8
0
 10
77.567088323316625
 20
864.84394408794685
 30
0.0
 11
57.567088323316788
 21
864.84394408794685
 31
0.0
  0
LINE
  5
2056
  8
0
 10
77.567088323316682
 20
854.14920286762379
 30
0.0
 11
57.567088323316739
 21
854.14920286762356
 31
0.0
  0
LINE
  5
2057
  8
0
 10
48.587680650495827
 20
881.85504153599379
 30
0.0
 11
86.546495996137651
 21
881.85504153599379
 31
0.0
  0
LINE
  5
2058
  8
0
 10
39.567088323316739
 20
868.10504153599391
 30
0.0
 11
94.567088323316739
 21
868.10504153599413
 31
0.0
  0
LINE
  5
2059
  8
0
 10
37.567088323316618
 20
869.85504153599391
 30
0.0
 11
97.567088323316852
 21
869.85504153599413
 31
0.0
  0
ARC
  5
205A
  8
0
 10
48.587680650495827
 20
874.85504153599402
 30
0.0
 40
7.0
 50
90.0
 51
149.7435628364706
  0
LINE
  5
205B
  8
0
 10
42.541228344206843
 20
878.38213871466246
 30
0.0
 11
37.567088323316732
 21
869.85504153599413
 31
0.0
  0
LINE
  5
205C
  8
0
 10
39.567088323316739
 20
868.10504153599391
 30
0.0
 11
39.567088323316739
 21
869.85504153599413
 31
0.0
  0
ARC
  5
205D
  8
0
 10
40.567088323316739
 20
865.10504153599413
 30
0.0
 40
3.0
 50
90.0
 51
180.0
  0
ARC
  5
205E
  8
0
 10
50.067088323317421
 20
865.10504153599413
 30
0.0
 40
3.0
 50
89.999999999999815
 51
179.99999999999969
  0
LINE
  5
205F
  8
0
 10
92.592948302426521
 20
878.38213871466246
 30
0.0
 11
97.567088323316625
 21
869.85504153599413
 31
0.0
  0
ARC
  5
2060
  8
0
 10
85.067088323316057
 20
865.10504153599413
 30
0.0
 40
3.0
 50
0.000000000000229
 51
90.000000000000185
  0
LINE
  5
2061
  8
0
 10
95.567088323316838
 20
868.10504153599391
 30
0.0
 11
95.567088323316739
 21
869.85504153599413
 31
0.0
  0
ARC
  5
2062
  8
0
 10
94.567088323316739
 20
865.10504153599413
 30
0.0
 40
3.0
 50
0.0
 51
90.0
  0
ARC
  5
2063
  8
0
 10
86.546495996137651
 20
874.85504153599402
 30
0.0
 40
7.0
 50
30.25643716352938
 51
90.0
  0
LINE
  5
2064
  8
0
 10
156.9864642419509
 20
881.85504153599379
 30
0.0
 11
194.94527958759269
 21
881.85504153599379
 31
0.0
  0
LINE
  5
2065
  8
0
 10
150.94001193566189
 20
878.38213871466246
 30
0.0
 11
145.96587191477181
 21
869.85504153599391
 31
0.0
  0
LINE
  5
2066
  8
0
 10
147.9658719147717
 20
868.10504153599368
 30
0.0
 11
147.96587191477181
 21
869.85504153599391
 31
0.0
  0
LINE
  5
2067
  8
0
 10
145.9658719147717
 20
862.85504153599368
 30
0.0
 11
146.08897612510111
 21
866.65362787981303
 31
0.0
  0
ARC
  5
2068
  8
0
 10
147.58818904099871
 20
866.60504153599379
 30
0.0
 40
1.5
 50
90.0
 51
178.1438136990557
  0
LINE
  5
2069
  8
0
 10
145.9658719147717
 20
862.85504153599368
 30
0.0
 11
149.39560581135041
 21
851.85504153599368
 31
0.0
  0
ARC
  5
206A
  8
0
 10
156.9864642419509
 20
874.85504153599379
 30
0.0
 40
7.0
 50
90.0
 51
149.7435628364706
  0
LINE
  5
206B
  8
0
  6
CENTER
 10
175.96587191477181
 20
863.10504153599379
 30
0.0
 11
175.96587191477181
 21
884.85504153599391
 31
0.0
  0
ARC
  5
206C
  8
0
 10
194.94527958759269
 20
874.85504153599379
 30
0.0
 40
7.0
 50
30.25643716352938
 51
90.0
  0
LINE
  5
206D
  8
0
 10
415.8801304401556
 20
810.72389094388404
 30
0.0
 11
415.8801304401556
 21
865.10504153599413
 31
0.0
  0
LINE
  5
206E
  8
0
 10
355.88013044015548
 20
810.72389094388404
 30
0.0
 11
355.8801304401556
 21
865.10504153599413
 31
0.0
  0
ARC
  5
206F
  8
0
 10
399.40588783135371
 20
819.87534581048419
 30
0.0
 40
41.513642741861631
 50
112.0474616778672
 51
173.45855430953989
  0
ARC
  5
2071
  8
0
 10
370.71999610409142
 20
817.95341945031282
 30
0.0
 40
45.501415919398731
 50
7.0218803637322829
 51
53.524281678076221
  0
LINE
  5
2072
  8
0
 10
404.3801304401552
 20
846.28998942381133
 30
0.0
 11
404.38013044015531
 21
760.35504153599288
 31
0.0
  0
LINE
  5
2073
  8
0
 10
367.38013044015599
 20
846.28998942381111
 30
0.0
 11
367.38013044015599
 21
760.35504153599322
 31
0.0
  0
LINE
  5
2074
  8
0
  6
CENTER
 10
385.8801304401556
 20
886.85504153599391
 30
0.0
 11
385.8801304401556
 21
716.85504153599368
 31
0.0
  0
ARC
  5
2075
  8
0
 10
401.04026477621977
 20
817.95341945031282
 30
0.0
 40
45.501415919398752
 50
126.47571832192369
 51
172.97811963626771
  0
CIRCLE
  5
2076
  8
0
 10
219.96587191477181
 20
850.85504153599391
 30
0.0
 40
3.0
  0
LINE
  5
2077
  8
0
  6
CENTER
 10
213.96587191477181
 20
716.85504153599368
 30
0.0
 11
213.96587191477181
 21
851.85504153599356
 31
0.0
  0
ARC
  5
2078
  8
0
 10
191.10315821196821
 20
649.84806826970885
 30
0.0
 40
218.63566905507449
 50
62.854290978944789
 51
86.627242891047032
  0
LINE
  5
2079
  8
0
 10
241.24244588351391
 20
669.52267897042805
 30
0.0
 11
273.77823438936269
 21
669.52267897042805
 31
0.0
  0
LINE
  5
207A
  8
0
 10
241.24244588351391
 20
649.52267897042827
 30
0.0
 11
273.77823438936269
 21
649.52267897042816
 31
0.0
  0
LINE
  5
207B
  8
0
 10
192.2088356929174
 20
639.02267897042805
 30
0.0
 11
273.65195965543239
 21
639.02267897042771
 31
0.0
  0
LINE
  5
207C
  8
0
 10
192.20883569291721
 20
680.02267897042827
 30
0.0
 11
273.65195965543239
 21
680.02267897042884
 31
0.0
  0
LINE
  5
207D
  8
0
 10
204.88734187012579
 20
686.31274998891274
 30
0.0
 11
204.2873418701258
 21
686.91274998891276
 31
0.0
  0
LINE
  5
207E
  8
0
 10
204.287341870125
 20
686.91274998891276
 30
0.0
 11
204.287341870125
 21
684.13260795194356
 31
0.0
  0
LINE
  5
207F
  8
0
 10
196.88734187012619
 20
686.31274998891286
 30
0.0
 11
197.48734187012619
 21
686.91274998891276
 31
0.0
  0
LINE
  5
2080
  8
0
 10
197.48734187012619
 20
686.91274998891276
 30
0.0
 11
197.48734187012619
 21
684.13260795194356
 31
0.0
  0
LINE
  5
2081
  8
0
 10
208.392895369591
 20
638.91274998891333
 30
0.0
 11
193.3817883706607
 21
638.91274998891265
 31
0.0
  0
LINE
  5
2082
  8
0
 10
204.88734187012579
 20
686.31274998891274
 30
0.0
 11
196.88734187012619
 21
686.31274998891286
 31
0.0
  0
ARC
  5
2083
  8
0
 10
200.88734187012599
 20
674.36871906305464
 30
0.0
 40
9.7638888888889532
 50
67.396440984844816
 51
112.6035590151551
  0
LINE
  5
2084
  8
0
 10
195.25817674552701
 20
684.13260795194356
 30
0.0
 11
206.51650699472469
 21
684.13260795194367
 31
0.0
  0
LINE
  5
2085
  8
0
 10
208.392895369591
 20
680.13260795194321
 30
0.0
 11
193.3817883706607
 21
680.13260795194367
 31
0.0
  0
LINE
  5
2086
  8
0
 10
196.88734187012619
 20
686.31274998891286
 30
0.0
 11
196.88734187012579
 21
684.13260795194367
 31
0.0
  0
LINE
  5
2087
  8
0
 10
197.13456512039321
 20
680.13260795194356
 30
0.0
 11
197.13456512039329
 21
683.38260795194356
 31
0.0
  0
LINE
  5
2088
  8
0
 10
193.3817883706607
 20
680.13260795194367
 30
0.0
 11
193.38178837066079
 21
683.38260795194356
 31
0.0
  0
ARC
  5
2089
  8
0
 10
195.25817674552701
 20
681.41038572972138
 30
0.0
 40
2.7222222222221419
 50
90.0
 51
133.57357859652581
  0
ARC
  5
208A
  8
0
 10
195.25817674552701
 20
681.41038572972138
 30
0.0
 40
2.7222222222221419
 50
46.426421403476432
 51
90.000000000001606
  0
LINE
  5
208B
  8
0
 10
204.88734187012579
 20
686.31274998891274
 30
0.0
 11
204.88734187012579
 21
684.13260795194367
 31
0.0
  0
ARC
  5
208C
  8
0
 10
206.51650699472481
 20
681.41038572972138
 30
0.0
 40
2.7222222222221419
 50
89.999999999998366
 51
133.5735785965235
  0
ARC
  5
208D
  8
0
 10
206.51650699472481
 20
681.41038572972138
 30
0.0
 40
2.7222222222221419
 50
46.42642140347413
 51
90.0
  0
LINE
  5
208E
  8
0
 10
208.392895369591
 20
680.13260795194367
 30
0.0
 11
208.392895369591
 21
683.38260795194378
 31
0.0
  0
LINE
  5
208F
  8
0
 10
204.6401186198585
 20
680.13260795194356
 30
0.0
 11
204.6401186198585
 21
683.38260795194378
 31
0.0
  0
LINE
  5
2090
  8
0
 10
241.24244588351391
 20
669.52267897042805
 30
0.0
 11
241.24244588351391
 21
649.52267897042827
 31
0.0
  0
LINE
  5
2091
  8
0
 10
197.48734187012619
 20
686.91274998891276
 30
0.0
 11
204.2873418701258
 21
686.91274998891276
 31
0.0
  0
ARC
  5
2092
  8
0
 10
206.23656772269251
 20
659.52267897042839
 30
0.0
 40
71.54166666667021
 50
344.26031922947811
 51
15.73968077052186
  0
LINE
  5
2093
  8
0
 10
273.77823438936269
 20
649.52267897042827
 30
0.0
 11
273.77823438936269
 21
669.52267897042805
 31
0.0
  0
LINE
  5
2094
  8
0
 10
255.88734187012571
 20
669.52267897042827
 30
0.0
 11
255.88734187012571
 21
649.52267897042827
 31
0.0
  0
ARC
  5
2095
  8
0
 10
273.65195965543239
 20
640.52267897042759
 30
0.0
 40
1.5
 50
270.0
 51
344.26031922947811
  0
ARC
  5
2096
  8
0
 10
273.65195965543239
 20
678.52267897042884
 30
0.0
 40
1.5
 50
15.73968077052186
 51
90.0
  0
ARC
  5
2097
  8
0
 10
221.10052089152319
 20
659.52267897042839
 30
0.0
 40
72.54166666667021
 50
345.17424270041488
 51
14.82575729958349
  0
ARC
  5
2098
  8
0
 10
218.72373522232201
 20
659.52267897042839
 30
0.0
 40
72.54166666667021
 50
345.17424270041488
 51
14.82575729958349
  0
ARC
  5
2099
  8
0
 10
206.23656772269251
 20
659.52267897042839
 30
0.0
 40
72.54166666667021
 50
344.26031922947811
 51
15.73968077052186
  0
ARC
  5
209A
  8
0
 10
289.77710074059672
 20
641.34451121314032
 30
0.0
 40
1.5
 50
270.0
 51
345.17424270041641
  0
ARC
  5
209B
  8
0
 10
287.4003150713956
 20
641.34451121314032
 30
0.0
 40
1.5
 50
270.0
 51
345.17424270041641
  0
LINE
  5
209C
  8
0
 10
277.07589344961451
 20
649.52267897042827
 30
0.0
 11
278.0856693369667
 21
649.52267897042827
 31
0.0
  0
LINE
  5
209D
  8
0
 10
276.05821992667819
 20
639.84451121314044
 30
0.0
 11
289.77710074059672
 21
639.84451121314032
 31
0.0
  0
ARC
  5
209E
  8
0
 10
289.77710074059672
 20
677.70084672771623
 30
0.0
 40
1.5
 50
14.82575729958349
 51
90.0
  0
ARC
  5
209F
  8
0
 10
287.4003150713956
 20
677.70084672771623
 30
0.0
 40
1.5
 50
14.82575729958349
 51
90.0
  0
LINE
  5
20A0
  8
0
 10
277.07589344961451
 20
669.52267897042805
 30
0.0
 11
278.0856693369667
 21
669.52267897042827
 31
0.0
  0
LINE
  5
20A1
  8
0
 10
276.05821992667819
 20
679.20084672771611
 30
0.0
 11
289.77710074059672
 21
679.20084672771623
 31
0.0
  0
ARC
  5
20A2
  8
0
 10
235.6947345376708
 20
978.90816592648071
 30
0.0
 40
150.0
 50
266.37008794380392
 51
288.13203192242202
  0
CIRCLE
  5
20A4
  8
0
 10
213.96587191477181
 20
784.35504153599379
 30
0.0
 40
6.5
  0
POLYLINE
  5
20A5
  8
0
 66
     1
 10
0.0
 20
0.0
 30
0.0
 70
     1
  0
VERTEX
  5
28BC
  8
0
 10
210.21309516503919
 20
790.85504153599379
 30
0.0
  0
VERTEX
  5
28BD
  8
0
 10
206.4603184153066
 20
784.35504153599379
 30
0.0
  0
VERTEX
  5
28BE
  8
0
 10
210.21309516503919
 20
777.85504153599379
 30
0.0
  0
VERTEX
  5
28BF
  8
0
 10
217.71864866450429
 20
777.85504153599379
 30
0.0
  0
VERTEX
  5
28C0
  8
0
 10
221.4714254142369
 20
784.35504153599379
 30
0.0
  0
VERTEX
  5
28C1
  8
0
 10
217.71864866450429
 20
790.85504153599379
 30
0.0
  0
SEQEND
  5
28C2
  8
0
  0
ARC
  5
20A6
  8
0
 10
212.0594045210172
 20
783.6240661847869
 30
0.0
 40
13.0
 50
225.6379573356578
 51
349.22731283228251
  0
ARC
  5
20A7
  8
0
 10
219.91841622961221
 20
782.12876187991594
 30
0.0
 40
5.0
 50
349.22731283228251
 51
357.84936409849018
  0
LINE
  5
20A9
  8
0
 10
289.96587191477181
 20
844.85504153599391
 30
0.0
 11
288.18308976263188
 21
841.33849886322196
 31
0.0
  0
LINE
  5
20AA
  8
0
 10
287.93755103362793
 20
836.90550716252426
 30
0.0
 11
290.32129054710038
 21
842.46718127291012
 31
0.0
  0
ARC
  5
20AB
  8
0
 10
279.26382356471049
 20
845.86030054956518
 30
0.0
 40
10.0
 50
288.13203192242042
 51
333.11635242359478
  0
ARC
  5
20AC
  8
0
 10
191.10315821196821
 20
649.84806826970885
 30
0.0
 40
210.6356690550746
 50
62.029393479289581
 51
63.350524043121538
  0
ARC
  5
20AD
  8
0
 10
317.49956041584022
 20
786.14504319746368
 30
0.0
 40
62.532068877943601
 50
102.1148011732277
 51
116.3686006411653
  0
ARC
  5
20AE
  8
0
 10
265.85797130141572
 20
934.5691314062916
 30
0.0
 40
101.5752126236281
 50
283.6885831336275
 51
293.50550664960309
  0
ARC
  5
20AF
  8
0
 10
191.10315821196821
 20
649.84806826970885
 30
0.0
 40
216.13566905507449
 50
62.851259742764121
 51
63.11635242359489
  0
LINE
  5
20B0
  8
0
 10
290.85779853456393
 20
844.40286136735961
 30
0.0
 11
289.7263020510519
 21
842.17098145786781
 31
0.0
  0
ARC
  5
20B1
  8
0
 10
305.96587191477181
 20
842.33717911981228
 30
0.0
 40
1.0
 50
293.83306731080779
 51
19.125176989789011
  0
ARC
  5
20B2
  8
0
 10
304.58908624557063
 20
846.30745574637297
 30
0.0
 40
1.0
 50
19.125176989792621
 51
102.3101096266484
  0
LINE
  5
20B3
  8
0
 10
305.53389127996547
 20
846.63508884449072
 30
0.0
 11
306.9106769491666
 21
842.66481221792992
 31
0.0
  0
LINE
  5
20B6
  8
0
 10
369.88013044015571
 20
728.76754522331078
 30
0.0
 11
369.88013044015628
 21
839.94253784867658
 31
0.0
  0
LINE
  5
20B7
  8
0
 10
360.38013044015599
 20
781.10504153599379
 30
0.0
 11
360.38013044015599
 21
787.60504153599402
 31
0.0
  0
LINE
  5
20B8
  8
0
 10
358.19998840318669
 20
780.35504153599379
 30
0.0
 11
358.19998840318658
 21
788.35504153599345
 31
0.0
  0
LINE
  5
20B9
  8
0
 10
357.59998840318661
 20
787.75504153599354
 30
0.0
 11
357.59998840318673
 21
780.95504153599393
 31
0.0
  0
ARC
  5
20BA
  8
0
 10
366.16138044015639
 20
787.60504153599402
 30
0.0
 40
5.7812500000003926
 50
156.19186875708411
 51
214.20545793810371
  0
ARC
  5
20BB
  8
0
 10
406.38567433984542
 20
811.86182425302695
 30
0.0
 40
50.518361580909882
 50
181.29070477838411
 51
215.73804805742441
  0
ARC
  5
20BC
  8
0
 10
406.38567433984542
 20
811.86182425302695
 30
0.0
 40
48.518361580909868
 50
181.29070477838411
 51
216.49260192679449
  0
LINE
  5
20BF
  8
0
 10
365.38013044015599
 20
770.6240661847869
 30
0.0
 11
365.38013044015611
 21
782.35504153599356
 31
0.0
  0
LINE
  5
20C0
  8
0
 10
365.38013044015599
 20
770.62406618478701
 30
0.0
 11
367.38013044015599
 21
770.62406618478701
 31
0.0
  0
ARC
  5
20C1
  8
0
 10
366.16138044015639
 20
781.10504153599379
 30
0.0
 40
5.7812500000003926
 50
145.79454206189621
 51
214.20545793810351
  0
LINE
  5
20C2
  8
0
 10
358.19998840318669
 20
780.35504153599379
 30
0.0
 11
357.59998840318673
 21
780.95504153599393
 31
0.0
  0
LINE
  5
20C3
  8
0
 10
358.19998840318669
 20
780.35504153599379
 30
0.0
 11
360.38013044015571
 21
780.35504153599379
 31
0.0
  0
LINE
  5
20C4
  8
0
 10
357.59998840318661
 20
780.95504153599472
 30
0.0
 11
360.38013044015599
 21
780.95504153599472
 31
0.0
  0
LINE
  5
20C5
  8
0
 10
361.38013044015588
 20
784.35504153599402
 30
0.0
 11
364.01254887832789
 21
784.35504153599402
 31
0.0
  0
LINE
  5
20C6
  8
0
 10
361.38013044015588
 20
777.85504153599379
 30
0.0
 11
365.38013044015599
 21
777.85504153599356
 31
0.0
  0
LINE
  5
20C7
  8
0
 10
367.38013044015599
 20
832.93857065330008
 30
0.0
 11
369.88013044015622
 21
832.93857065330008
 31
0.0
  0
LINE
  5
20CA
  8
0
 10
357.88013044015548
 20
810.72389094388404
 30
0.0
 11
357.8801304401556
 21
822.24502482751404
 31
0.0
  0
ARC
  5
20CB
  8
0
 10
377.77313058001198
 20
800.95994002177758
 30
0.0
 40
21.937405574924341
 50
217.5476562118051
 51
217.5477313941515
  0
LINE
  5
20CC
  8
0
 10
358.19998840318658
 20
788.35504153599345
 30
0.0
 11
357.59998840318661
 21
787.75504153599354
 31
0.0
  0
LINE
  5
20CD
  8
0
 10
358.19998840318658
 20
788.35504153599345
 30
0.0
 11
360.38013044015571
 21
788.35504153599379
 31
0.0
  0
LINE
  5
20CE
  8
0
 10
357.59998840318661
 20
787.75504153599354
 30
0.0
 11
360.38013044015599
 21
787.75504153599354
 31
0.0
  0
ARC
  5
20CF
  8
0
 10
367.8801304401556
 20
822.24502482751404
 30
0.0
 40
10.0
 50
166.35158156184849
 51
180.0
  0
LINE
  5
20D0
  8
0
 10
411.38013044015531
 20
781.10504153599379
 30
0.0
 11
411.38013044015531
 21
787.60504153599402
 31
0.0
  0
ARC
  5
20D1
  8
0
 10
405.59888044015491
 20
787.60504153599402
 30
0.0
 40
5.7812500000003926
 50
325.79454206189621
 51
23.808131242915799
  0
ARC
  5
20D2
  8
0
 10
365.37458654046583
 20
811.86182425302695
 30
0.0
 40
50.518361580909882
 50
324.26195194257548
 51
358.70929522161578
  0
LINE
  5
20D3
  8
0
 10
401.8801304401556
 20
728.76754522331089
 30
0.0
 11
401.88013044015503
 21
839.94253784867658
 31
0.0
  0
ARC
  5
20D4
  8
0
 10
365.37458654046583
 20
811.86182425302695
 30
0.0
 40
48.518361580909868
 50
323.50739807320542
 51
358.70929522161578
  0
ARC
  5
20D7
  8
0
 10
405.59888044015491
 20
781.10504153599379
 30
0.0
 40
5.7812500000003926
 50
325.79454206189649
 51
34.205457938103777
  0
LINE
  5
20D8
  8
0
 10
406.38013044015531
 20
770.6240661847869
 30
0.0
 11
406.3801304401552
 21
782.35504153599379
 31
0.0
  0
LINE
  5
20D9
  8
0
 10
410.38013044015531
 20
784.35504153599402
 30
0.0
 11
407.7477120019833
 21
784.35504153599402
 31
0.0
  0
LINE
  5
20DA
  8
0
 10
410.38013044015531
 20
777.85504153599379
 30
0.0
 11
406.38013044015531
 21
777.85504153599356
 31
0.0
  0
LINE
  5
20DB
  8
0
 10
406.38013044015531
 20
770.62406618478701
 30
0.0
 11
404.38013044015531
 21
770.62406618478701
 31
0.0
  0
LINE
  5
20DC
  8
0
 10
413.88013044015571
 20
810.72389094388404
 30
0.0
 11
413.8801304401556
 21
822.24502482751404
 31
0.0
  0
LINE
  5
20DF
  8
0
 10
401.88013044015503
 20
832.93857065330008
 30
0.0
 11
404.38013044015531
 21
832.93857065330008
 31
0.0
  0
ARC
  5
20E0
  8
0
 10
403.8801304401556
 20
822.24502482751404
 30
0.0
 40
10.0
 50
0.0
 51
13.6484184381515
  0
ARC
  5
20E2
  8
0
 10
261.54008265379503
 20
856.9185613028086
 30
0.0
 40
7.9253827851382752
 50
339.54760693866939
 51
155.62784225896269
  0
LINE
  5
20E3
  8
0
 10
203.96587191477181
 20
868.10504153599368
 30
0.0
 11
203.96587191477181
 21
869.85504153599391
 31
0.0
  0
LINE
  5
20E5
  8
0
 10
393.3801304401556
 20
851.85504153599368
 30
0.0
 11
398.8247639603656
 21
851.85504153599356
 31
0.0
  0
LINE
  5
20E6
  8
0
 10
366.90072276733468
 20
881.85504153599379
 30
0.0
 11
404.85953811297651
 21
881.85504153599379
 31
0.0
  0
LINE
  5
20E7
  8
0
 10
357.8801304401556
 20
868.10504153599391
 30
0.0
 11
412.8801304401556
 21
868.10504153599413
 31
0.0
  0
LINE
  5
20E8
  8
0
 10
355.88013044015548
 20
869.85504153599391
 30
0.0
 11
415.88013044015571
 21
869.85504153599413
 31
0.0
  0
LINE
  5
20E9
  8
0
 10
372.93549691994571
 20
851.85504153599368
 30
0.0
 11
378.3801304401556
 21
851.85504153599391
 31
0.0
  0
LINE
  5
20EA
  8
0
 10
360.8542704610457
 20
878.38213871466246
 30
0.0
 11
355.8801304401556
 21
869.85504153599413
 31
0.0
  0
LINE
  5
20EB
  8
0
 10
357.8801304401556
 20
868.10504153599391
 30
0.0
 11
357.8801304401556
 21
869.85504153599413
 31
0.0
  0
ARC
  5
20EC
  8
0
 10
358.8801304401556
 20
865.10504153599413
 30
0.0
 40
3.0
 50
90.0
 51
180.0
  0
ARC
  5
20ED
  8
0
 10
366.90072276733468
 20
874.85504153599402
 30
0.0
 40
7.0
 50
90.0
 51
149.7435628364706
  0
LINE
  5
20EE
  8
0
 10
377.3801304401556
 20
855.06410175670965
 30
0.0
 11
377.3801304401556
 21
851.85504153599368
 31
0.0
  0
LINE
  5
20EF
  8
0
 10
378.3801304401556
 20
855.67059772781818
 30
0.0
 11
378.3801304401556
 21
851.85504153599368
 31
0.0
  0
LINE
  5
20F0
  8
0
 10
393.3801304401556
 20
855.67059772781818
 30
0.0
 11
393.3801304401556
 21
851.85504153599368
 31
0.0
  0
LINE
  5
20F1
  8
0
 10
394.3801304401556
 20
855.06410175670965
 30
0.0
 11
394.3801304401556
 21
851.85504153599368
 31
0.0
  0
LINE
  5
20F2
  8
0
 10
410.90599041926538
 20
878.38213871466246
 30
0.0
 11
415.88013044015548
 21
869.85504153599413
 31
0.0
  0
ARC
  5
20F3
  8
0
 10
412.8801304401556
 20
865.10504153599413
 30
0.0
 40
3.0
 50
0.0
 51
90.0
  0
LINE
  5
20F4
  8
0
 10
413.88013044015582
 20
868.10504153599391
 30
0.0
 11
413.8801304401556
 21
869.85504153599413
 31
0.0
  0
ARC
  5
20F5
  8
0
 10
404.85953811297651
 20
874.85504153599402
 30
0.0
 40
7.0
 50
30.25643716352938
 51
90.0
  0
ARC
  5
20F6
  8
0
 10
213.96587191477181
 20
784.35504153599368
 30
0.0
 40
56.5
 50
145.1440493970878
 51
52.898640002814943
  0
ARC
  5
20F7
  8
0
 10
213.96587191477181
 20
784.35504153599368
 30
0.0
 40
62.5
 50
142.78259805577031
 51
47.358796901857829
  0
ARC
  5
20F8
  8
0
 10
213.96587191477181
 20
784.35504153599368
 30
0.0
 40
40.0
 50
154.11884299622821
 51
80.011902750621516
  0
ARC
  5
20F9
  8
0
 10
213.96587191477181
 20
784.35504153599368
 30
0.0
 40
42.5
 50
152.40558710369771
 51
80.065225798725137
  0
ARC
  5
20FA
  8
0
 10
213.96587191477181
 20
784.35504153599368
 30
0.0
 40
25.0
 50
171.10821188839421
 51
67.219858374405391
  0
ARC
  5
20FD
  8
0
 10
225.8814451182038
 20
824.21912510338393
 30
0.0
 40
5.0
 50
86.370087943804037
 51
187.43454665430511
  0
LINE
  5
213F
  8
0
 10
254.32097592816001
 20
860.18906437953206
 30
0.0
 11
261.51210699562648
 21
856.83631845396519
 31
0.0
  0
ARC
  5
2180
  8
0
 10
45.852244484841492
 20
785.78017587117131
 30
0.0
 40
179.10379912182219
 50
358.7717842187966
 51
12.181314712848719
  0
ARC
  5
224A
  8
0
 10
385.8801304401556
 20
838.45933422646078
 30
0.0
 40
20.0
 50
53.52428167807625
 51
126.47571832192369
  0
ARC
  5
224C
  8
0
 10
372.3543730489576
 20
819.87534581048419
 30
0.0
 40
41.513642741861631
 50
6.541445690460046
 51
67.952538322132753
  0
ARC
  5
224D
  8
0
 10
385.8801304401556
 20
749.95504153599313
 30
0.0
 40
28.099999999999419
 50
239.4606445234071
 51
300.53935547659353
  0
LINE
  5
2250
  8
0
 10
369.88013044015571
 20
744.35504153599413
 30
0.0
 11
367.38013044015599
 21
760.35504153599345
 31
0.0
  0
ARC
  5
2251
  8
0
 10
373.38013044015582
 20
728.76754522331078
 30
0.0
 40
3.5
 50
180.0
 51
239.46064452340741
  0
LINE
  5
2253
  8
0
 10
401.88013044015531
 20
744.35504153599311
 30
0.0
 11
404.38013044015531
 21
760.35504153599345
 31
0.0
  0
ARC
  5
2254
  8
0
 10
398.38013044015548
 20
728.76754522331089
 30
0.0
 40
3.5
 50
300.53935547659353
 51
0.0
  0
LINE
  5
2297
  8
0
 10
369.88013044015571
 20
824.35504153599334
 30
0.0
 11
367.38013044015599
 21
808.35504153599402
 31
0.0
  0
LINE
  5
2298
  8
0
 10
401.88013044015531
 20
824.35504153599436
 30
0.0
 11
404.38013044015531
 21
808.35504153599402
 31
0.0
  0
ARC
  5
2299
  8
0
 10
385.8801304401556
 20
818.75504153599445
 30
0.0
 40
28.099999999999419
 50
59.460644523406501
 51
120.5393554765928
  0
ARC
  5
229A
  8
0
 10
373.38013044015582
 20
839.94253784867658
 30
0.0
 40
3.5
 50
120.5393554765926
 51
180.0
  0
ARC
  5
229B
  8
0
 10
398.38013044015548
 20
839.94253784867658
 30
0.0
 40
3.5
 50
0.0
 51
59.460644523406501
  0
LINE
  5
239D
  8
0
  6
CENTER
 10
353.49005942167111
 20
784.35504153599322
 30
0.0
 11
418.2702014586402
 21
784.35504153599379
 31
0.0
  0
LINE
  5
239E
  8
0
  6
CENTER
 10
35.177017304832241
 20
784.35504153599322
 30
0.0
 11
99.957159341801344
 21
784.35504153599379
 31
0.0
  0
LINE
  5
23A0
  8
0
  6
CENTER
 10
537.69092885527982
 20
826.13393785372102
 30
0.0
 11
602.47107089224892
 21
826.13393785372148
 31
0.0
  0
ARC
  5
23A1
  8
0
 10
570.08099987376431
 20
779.23393785372093
 30
0.0
 40
28.099999999999419
 50
239.4606445234071
 51
300.53935547659353
  0
ARC
  5
23A2
  8
0
 10
570.08099987376431
 20
643.05782787478574
 30
0.0
 40
258.52852418931502
 50
85.840768809615724
 51
94.159231190384261
  0
LINE
  5
23A3
  8
0
 10
589.75916763105261
 20
890.15792762433102
 30
0.0
 11
550.40283211647602
 21
890.15792762433102
 31
0.0
  0
ARC
  5
23A4
  8
0
 10
570.08099987376431
 20
638.42282463223296
 30
0.0
 40
258.52852418931502
 50
85.634649935394336
 51
94.365350064605636
  0
LINE
  5
23A5
  8
0
 10
551.10159220094329
 20
936.13393785372159
 30
0.0
 11
589.06040754658511
 21
936.13393785372159
 31
0.0
  0
LINE
  5
23A6
  8
0
 10
542.08099987376431
 20
922.38393785372148
 30
0.0
 11
597.0809998737642
 21
922.38393785372193
 31
0.0
  0
LINE
  5
23A7
  8
0
 10
540.08099987376409
 20
924.13393785372148
 30
0.0
 11
600.08099987376431
 21
924.1339378537217
 31
0.0
  0
LINE
  5
23A8
  8
0
  6
CENTER
 10
570.08099987376431
 20
941.13393785372148
 30
0.0
 11
570.08099987376431
 21
746.13393785372159
 31
0.0
  0
ARC
  5
23A9
  8
0
 10
551.10159220094329
 20
929.13393785372159
 30
0.0
 40
7.0
 50
90.0
 51
149.7435628364706
  0
LINE
  5
23AA
  8
0
 10
554.08099987376454
 20
758.04644154103869
 30
0.0
 11
554.08099987376488
 21
890.15792762433102
 31
0.0
  0
LINE
  5
23AB
  8
0
 10
551.58099987376465
 20
890.15792762433125
 30
0.0
 11
551.58099987376477
 21
791.13393785372125
 31
0.0
  0
LINE
  5
23AC
  8
0
 10
549.58099987376465
 20
812.40296250251458
 30
0.0
 11
549.58099987376499
 21
919.38393785372182
 31
0.0
  0
LINE
  5
23AE
  8
0
 10
549.58099987376465
 20
812.40296250251458
 30
0.0
 11
551.58099987376465
 21
812.40296250251458
 31
0.0
  0
ARC
  5
23AF
  8
0
 10
557.58099987376454
 20
758.04644154103869
 30
0.0
 40
3.5
 50
180.0
 51
239.46064452340741
  0
LINE
  5
23B0
  8
0
 10
540.08099987376431
 20
844.13393785372125
 30
0.0
 11
540.08099987376431
 21
919.38393785372182
 31
0.0
  0
ARC
  5
23B1
  8
0
 10
561.97400001362064
 20
842.73883633950527
 30
0.0
 40
21.937405574924341
 50
176.35383474943521
 51
217.54765621180599
  0
LINE
  5
23B2
  8
0
 10
545.58099987376454
 20
832.63393785372159
 30
0.0
 11
549.58099987376465
 21
832.63393785372159
 31
0.0
  0
ARC
  5
23B3
  8
0
 10
550.36224987376499
 20
822.88393785372136
 30
0.0
 40
5.7812500000003926
 50
145.79454206189621
 51
214.20545793810351
  0
LINE
  5
23B4
  8
0
 10
545.58099987376454
 20
819.63393785372136
 30
0.0
 11
549.58099987376465
 21
819.63393785372136
 31
0.0
  0
LINE
  5
23B5
  8
0
 10
545.58099987376454
 20
826.1339378537217
 30
0.0
 11
549.58099987376465
 21
826.13393785372148
 31
0.0
  0
ARC
  5
23B6
  8
0
 10
550.36224987376499
 20
829.3839378537217
 30
0.0
 40
5.7812500000003926
 50
145.79454206189649
 51
214.20545793810371
  0
LINE
  5
23B7
  8
0
 10
544.58099987376465
 20
822.88393785372136
 30
0.0
 11
544.58099987376465
 21
829.3839378537217
 31
0.0
  0
ARC
  5
23B8
  8
0
 10
551.40283211647625
 20
899.90810881751145
 30
0.0
 40
1.0
 50
94.159231190379685
 51
180.00000000000651
  0
LINE
  5
23B9
  8
0
 10
550.40283211647602
 20
890.15792762433102
 30
0.0
 11
550.40283211647625
 21
899.90810881751145
 31
0.0
  0
LINE
  5
23BA
  8
0
 10
545.05513989465442
 20
932.66103503239015
 30
0.0
 11
540.08099987376431
 21
924.1339378537217
 31
0.0
  0
LINE
  5
23BB
  8
0
 10
542.08099987376431
 20
922.38393785372148
 30
0.0
 11
542.08099987376431
 21
924.1339378537217
 31
0.0
  0
ARC
  5
23BC
  8
0
 10
552.58099987376488
 20
919.38393785372182
 30
0.0
 40
3.0
 50
89.999999999999815
 51
179.99999999999969
  0
ARC
  5
23BD
  8
0
 10
543.0809998737642
 20
919.38393785372182
 30
0.0
 40
3.0
 50
90.0
 51
180.0
  0
LINE
  5
23BE
  8
0
 10
580.0809998737642
 20
901.39287741221347
 30
0.0
 11
580.0809998737642
 21
919.12284040567465
 31
0.0
  0
LINE
  5
23BF
  8
0
 10
560.08099987376409
 20
901.39287741221347
 30
0.0
 11
560.08099987376431
 21
919.12284040567465
 31
0.0
  0
LINE
  5
23C0
  8
0
 10
580.0809998737642
 20
908.42809918535136
 30
0.0
 11
560.08099987376431
 21
908.42809918535136
 31
0.0
  0
LINE
  5
23C1
  8
0
 10
580.0809998737642
 20
919.12284040567465
 30
0.0
 11
560.08099987376431
 21
919.12284040567465
 31
0.0
  0
ARC
  5
23C2
  8
0
 10
726.62017077181065
 20
671.54432492848491
 30
0.0
 40
72.54166666667021
 50
345.17424270041488
 51
14.82575729958349
  0
ARC
  5
23C3
  8
0
 10
728.99695644101178
 20
671.54432492848491
 30
0.0
 40
72.54166666667021
 50
345.17424270041488
 51
14.82575729958349
  0
ARC
  5
23C4
  8
0
 10
714.1330032721811
 20
671.54432492848491
 30
0.0
 40
72.54166666667021
 50
344.26031922947811
 51
15.73968077052186
  0
ARC
  5
23C5
  8
0
 10
714.1330032721811
 20
671.54432492848491
 30
0.0
 40
71.54166666667021
 50
344.26031922947811
 51
15.73968077052186
  0
CIRCLE
  5
23C6
  8
0
 10
670.78377741961435
 20
671.5443249284848
 30
0.0
 40
21.0
  0
CIRCLE
  5
23C7
  8
0
 10
670.78377741961435
 20
671.5443249284848
 30
0.0
 40
17.5
  0
CIRCLE
  5
23C8
  8
0
 10
670.78377741961435
 20
671.5443249284848
 30
0.0
 40
12.5
  0
CIRCLE
  5
23C9
  8
0
 10
670.78377741961435
 20
671.5443249284848
 30
0.0
 40
30.00000000000005
  0
LINE
  5
23CA
  8
0
  6
CENTER
 10
670.78377741961435
 20
704.54432492848491
 30
0.0
 11
670.78377741961435
 21
638.54432492848468
 31
0.0
  0
LINE
  5
23CB
  8
0
  6
CENTER
 10
708.78377741961435
 20
703.9343959469694
 30
0.0
 11
708.78377741961503
 21
639.15425391000031
 31
0.0
  0
LINE
  5
23CC
  8
0
 10
716.28933091907959
 20
650.93439594696974
 30
0.0
 11
701.27822392014934
 21
650.93439594696929
 31
0.0
  0
LINE
  5
23CD
  8
0
 10
700.10527124240605
 20
651.04432492848468
 30
0.0
 11
781.54839520492112
 21
651.04432492848423
 31
0.0
  0
LINE
  5
23CE
  8
0
  6
CENTER
 10
634.78377741961435
 20
671.5443249284848
 30
0.0
 11
804.53862310768204
 21
671.5443249284848
 31
0.0
  0
LINE
  5
23CF
  8
0
 10
703.15461229501545
 20
646.93439594696952
 30
0.0
 11
714.41294254421325
 21
646.93439594696929
 31
0.0
  0
ARC
  5
23D0
  8
0
 10
708.78377741961447
 20
656.69828483585843
 30
0.0
 40
9.7638888888889532
 50
247.39644098484479
 51
292.60355901515521
  0
CIRCLE
  5
23D1
  8
0
 10
670.78377741961435
 20
671.5443249284848
 30
0.0
 40
7.0
  0
CIRCLE
  5
23D2
  8
0
 10
670.78377741961435
 20
671.5443249284848
 30
0.0
 40
5.6500000000000004
  0
ARC
  5
23D3
  8
0
 10
700.10527124240593
 20
631.0443249284848
 30
0.0
 40
20.0
 50
90.0
 51
125.9040685833174
  0
ARC
  5
23D4
  8
0
 10
703.15461229501568
 20
649.65661816919157
 30
0.0
 40
2.7222222222221419
 50
269.99999999999829
 51
313.57357859652348
  0
ARC
  5
23D5
  8
0
 10
703.15461229501568
 20
649.65661816919157
 30
0.0
 40
2.7222222222221419
 50
226.42642140347411
 51
270.0
  0
LINE
  5
23D6
  8
0
 10
701.27822392014934
 20
650.93439594696929
 30
0.0
 11
701.27822392014934
 21
647.6843959469694
 31
0.0
  0
LINE
  5
23D7
  8
0
 10
705.03100066988179
 20
650.9343959469694
 30
0.0
 11
705.03100066988179
 21
647.6843959469694
 31
0.0
  0
LINE
  5
23D8
  8
0
 10
749.13888143300255
 20
661.54432492848468
 30
0.0
 11
781.67466993885125
 21
661.54432492848457
 31
0.0
  0
LINE
  5
23D9
  8
0
 10
749.13888143300255
 20
681.54432492848468
 30
0.0
 11
781.67466993885125
 21
681.54432492848468
 31
0.0
  0
ARC
  5
23DA
  8
0
 10
714.41294254421348
 20
649.65661816919157
 30
0.0
 40
2.7222222222221419
 50
270.0
 51
313.57357859652581
  0
ARC
  5
23DB
  8
0
 10
714.41294254421348
 20
649.65661816919157
 30
0.0
 40
2.7222222222221419
 50
226.42642140347641
 51
270.00000000000159
  0
LINE
  5
23DC
  8
0
 10
712.53655416934714
 20
650.9343959469694
 30
0.0
 11
712.53655416934714
 21
647.68439594696918
 31
0.0
  0
LINE
  5
23DD
  8
0
 10
716.28933091907959
 20
650.93439594696929
 30
0.0
 11
716.28933091907959
 21
647.68439594696918
 31
0.0
  0
LINE
  5
23DE
  8
0
 10
749.13888143300255
 20
681.54432492848468
 30
0.0
 11
749.13888143300255
 21
661.54432492848468
 31
0.0
  0
LINE
  5
23DF
  8
0
 10
763.78377741961435
 20
681.5443249284848
 30
0.0
 11
763.78377741961435
 21
661.54432492848468
 31
0.0
  0
LINE
  5
23E0
  8
0
 10
783.95465547616675
 20
651.86615717119696
 30
0.0
 11
797.67353629008528
 21
651.86615717119685
 31
0.0
  0
ARC
  5
23E1
  8
0
 10
781.54839520492112
 20
652.54432492848423
 30
0.0
 40
1.5
 50
270.0
 51
344.26031922947811
  0
ARC
  5
23E2
  8
0
 10
795.29675062088415
 20
653.36615717119685
 30
0.0
 40
1.5
 50
270.0
 51
345.17424270041641
  0
ARC
  5
23E3
  8
0
 10
797.67353629008528
 20
653.36615717119685
 30
0.0
 40
1.5
 50
270.0
 51
345.17424270041641
  0
LINE
  5
23E4
  8
0
 10
784.97232899910318
 20
681.54432492848468
 30
0.0
 11
785.98210488645532
 21
681.5443249284848
 31
0.0
  0
LINE
  5
23E5
  8
0
 10
784.97232899910318
 20
661.54432492848491
 30
0.0
 11
785.98210488645532
 21
661.54432492848468
 31
0.0
  0
LINE
  5
23E6
  8
0
 10
781.67466993885125
 20
661.54432492848468
 30
0.0
 11
781.67466993885125
 21
681.54432492848468
 31
0.0
  0
ARC
  5
23E7
  8
0
 10
589.06040754658511
 20
929.13393785372159
 30
0.0
 40
7.0
 50
30.25643716352938
 51
90.0
  0
ARC
  5
23E8
  8
0
 10
689.76318509243526
 20
929.13393785372136
 30
0.0
 40
7.0
 50
30.25643716352938
 51
90.0
  0
LINE
  5
23E9
  8
0
  6
CENTER
 10
670.78377741961447
 20
917.38393785372159
 30
0.0
 11
670.78377741961447
 21
939.13393785372159
 31
0.0
  0
ARC
  5
23EA
  8
0
 10
651.80436974679355
 20
929.13393785372136
 30
0.0
 40
7.0
 50
90.0
 51
149.7435628364706
  0
LINE
  5
23EB
  8
0
  6
CENTER
 10
628.78377741961435
 20
826.13393785372148
 30
0.0
 11
788.78377741961435
 21
826.13393785372148
 31
0.0
  0
ARC
  5
23F2
  8
0
 10
706.87731002585986
 20
825.40296250251447
 30
0.0
 40
13.0
 50
225.6379573356578
 51
349.22731283228251
  0
POLYLINE
  5
23F3
  8
0
 66
     1
 10
0.0
 20
0.0
 30
0.0
 70
     1
  0
VERTEX
  5
28C3
  8
0
 10
705.03100066988179
 20
832.63393785372136
 30
0.0
  0
VERTEX
  5
28C4
  8
0
 10
701.27822392014934
 20
826.13393785372148
 30
0.0
  0
VERTEX
  5
28C5
  8
0
 10
705.03100066988179
 20
819.63393785372136
 30
0.0
  0
VERTEX
  5
28C6
  8
0
 10
712.53655416934703
 20
819.63393785372136
 30
0.0
  0
VERTEX
  5
28C7
  8
0
 10
716.28933091907959
 20
826.13393785372148
 30
0.0
  0
VERTEX
  5
28C8
  8
0
 10
712.53655416934703
 20
832.63393785372136
 30
0.0
  0
SEQEND
  5
28C9
  8
0
  0
CIRCLE
  5
23F4
  8
0
 10
708.78377741961435
 20
826.13393785372148
 30
0.0
 40
6.5
  0
LINE
  5
23F5
  8
0
 10
705.38377741961483
 20
698.93439594696929
 30
0.0
 11
712.18377741961444
 21
698.93439594696918
 31
0.0
  0
LINE
  5
23F6
  8
0
 10
703.15461229501545
 20
696.15425390999997
 30
0.0
 11
714.41294254421325
 21
696.15425391000031
 31
0.0
  0
ARC
  5
23F7
  8
0
 10
708.78377741961447
 20
686.39036502111117
 30
0.0
 40
9.7638888888889532
 50
67.396440984844816
 51
112.6035590151551
  0
LINE
  5
23F8
  8
0
 10
712.78377741961435
 20
698.33439594696915
 30
0.0
 11
704.78377741961481
 21
698.33439594696927
 31
0.0
  0
LINE
  5
23F9
  8
0
 10
716.28933091907959
 20
692.15425390999974
 30
0.0
 11
701.27822392014934
 21
692.15425391000031
 31
0.0
  0
ARC
  5
23FA
  8
0
 10
685.92106371681098
 20
704.12696458743653
 30
0.0
 40
218.63566905507449
 50
62.854290978944789
 51
86.627242891047032
  0
LINE
  5
23FB
  8
0
 10
700.10527124240593
 20
692.04432492848491
 30
0.0
 11
781.54839520492112
 21
692.04432492848525
 31
0.0
  0
LINE
  5
23FC
  8
0
 10
586.08099987376397
 20
758.04644154103869
 30
0.0
 11
586.08099987376374
 21
890.15792762433102
 31
0.0
  0
LINE
  5
23FD
  8
0
 10
588.58099987376397
 20
890.15792762433125
 30
0.0
 11
588.58099987376397
 21
791.13393785372136
 31
0.0
  0
LINE
  5
23FE
  8
0
 10
590.58099987376386
 20
812.40296250251458
 30
0.0
 11
590.58099987376363
 21
919.38393785372182
 31
0.0
  0
LINE
  5
23FF
  8
0
  6
CENTER
 10
708.78377741961435
 20
746.13393785372136
 30
0.0
 11
708.78377741961435
 21
906.13393785372136
 31
0.0
  0
ARC
  5
2400
  8
0
 10
896.39918009597739
 20
995.25693527925375
 30
0.0
 40
267.47059690369429
 50
199.4635257027991
 51
222.05057341619141
  0
ARC
  5
2402
  8
0
 10
582.5809998737642
 20
758.04644154103869
 30
0.0
 40
3.5
 50
300.53935547659353
 51
0.0
  0
LINE
  5
2403
  8
0
 10
590.58099987376386
 20
812.40296250251458
 30
0.0
 11
588.58099987376397
 21
812.40296250251458
 31
0.0
  0
ARC
  5
2404
  8
0
 10
700.10527124240571
 20
712.04432492848491
 30
0.0
 40
20.0
 50
234.0959314166825
 51
270.0
  0
ARC
  5
2405
  8
0
 10
703.15461229501568
 20
693.43203168777802
 30
0.0
 40
2.7222222222221419
 50
46.426421403476432
 51
90.000000000001606
  0
LINE
  5
2406
  8
0
 10
705.03100066988179
 20
692.15425391000019
 30
0.0
 11
705.03100066988179
 21
695.40425391000019
 31
0.0
  0
LINE
  5
2407
  8
0
 10
704.78377741961481
 20
698.33439594696927
 30
0.0
 11
704.78377741961435
 21
696.15425391000031
 31
0.0
  0
LINE
  5
2408
  8
0
 10
705.38377741961483
 20
698.93439594696929
 30
0.0
 11
705.38377741961483
 21
696.15425390999997
 31
0.0
  0
LINE
  5
2409
  8
0
 10
704.78377741961481
 20
698.33439594696927
 30
0.0
 11
705.38377741961483
 21
698.93439594696929
 31
0.0
  0
LINE
  5
240A
  8
0
 10
701.27822392014934
 20
692.15425391000031
 30
0.0
 11
701.27822392014934
 21
695.40425391000019
 31
0.0
  0
ARC
  5
240B
  8
0
 10
703.15461229501568
 20
693.43203168777802
 30
0.0
 40
2.7222222222221419
 50
90.0
 51
133.57357859652581
  0
LINE
  5
240C
  8
0
 10
642.40609454584126
 20
922.38393785372148
 30
0.0
 11
698.78377741961458
 21
922.38393785372148
 31
0.0
  0
LINE
  5
240D
  8
0
 10
640.78377741961435
 20
924.13393785372148
 30
0.0
 11
700.78377741961447
 21
924.13393785372148
 31
0.0
  0
LINE
  5
240E
  8
0
 10
600.08099987376431
 20
844.13393785372125
 30
0.0
 11
600.08099987376431
 21
919.38393785372182
 31
0.0
  0
ARC
  5
240F
  8
0
 10
578.18799973390787
 20
842.73883633950527
 30
0.0
 40
21.937405574924341
 50
324.92944350753669
 51
3.6461652505647368
  0
LINE
  5
2410
  8
0
 10
597.76114191073339
 20
830.13393785372125
 30
0.0
 11
598.36114191073329
 21
829.53393785372123
 31
0.0
  0
LINE
  5
2411
  8
0
 10
598.36114191073329
 20
829.53393785372123
 30
0.0
 11
595.58099987376386
 21
829.53393785372123
 31
0.0
  0
ARC
  5
2412
  8
0
 10
578.18799973390787
 20
842.73883633950527
 30
0.0
 40
21.937405574924341
 50
322.45226860584847
 51
322.45234378819481
  0
LINE
  5
2413
  8
0
 10
597.76114191073339
 20
830.13393785372125
 30
0.0
 11
595.58099987376431
 21
830.13393785372159
 31
0.0
  0
LINE
  5
2414
  8
0
 10
594.58099987376397
 20
832.63393785372159
 30
0.0
 11
590.58099987376374
 21
832.63393785372159
 31
0.0
  0
LINE
  5
2415
  8
0
 10
597.76114191073304
 20
822.13393785372159
 30
0.0
 11
598.36114191073329
 21
822.73393785372161
 31
0.0
  0
LINE
  5
2416
  8
0
 10
598.36114191073329
 20
822.7339378537223
 30
0.0
 11
595.58099987376386
 21
822.7339378537223
 31
0.0
  0
LINE
  5
2417
  8
0
 10
597.76114191073304
 20
822.13393785372159
 30
0.0
 11
595.58099987376431
 21
822.13393785372159
 31
0.0
  0
LINE
  5
2418
  8
0
 10
594.58099987376397
 20
819.63393785372136
 30
0.0
 11
590.58099987376386
 21
819.63393785372136
 31
0.0
  0
LINE
  5
2419
  8
0
 10
594.58099987376397
 20
826.1339378537217
 30
0.0
 11
590.58099987376374
 21
826.13393785372148
 31
0.0
  0
ARC
  5
241A
  8
0
 10
589.79974987376363
 20
822.88393785372136
 30
0.0
 40
5.7812500000003926
 50
325.79454206189649
 51
34.205457938103777
  0
ARC
  5
241B
  8
0
 10
589.79974987376363
 20
829.3839378537217
 30
0.0
 40
5.7812500000003926
 50
325.79454206189621
 51
34.205457938103478
  0
LINE
  5
241C
  8
0
 10
597.76114191073304
 20
822.13393785372159
 30
0.0
 11
597.76114191073339
 21
830.13393785372125
 31
0.0
  0
LINE
  5
241D
  8
0
 10
598.36114191073329
 20
829.53393785372123
 30
0.0
 11
598.36114191073329
 21
822.73393785372161
 31
0.0
  0
LINE
  5
241E
  8
0
 10
595.58099987376386
 20
822.88393785372136
 30
0.0
 11
595.58099987376386
 21
829.3839378537217
 31
0.0
  0
ARC
  5
241F
  8
0
 10
588.75916763105215
 20
899.90810881751145
 30
0.0
 40
1.0
 50
359.99999999999341
 51
85.840768809617074
  0
LINE
  5
2420
  8
0
 10
589.75916763105261
 20
890.15792762433102
 30
0.0
 11
589.75916763105215
 21
899.90810881751145
 31
0.0
  0
LINE
  5
2421
  8
0
 10
595.10685985287409
 20
932.66103503239015
 30
0.0
 11
600.0809998737642
 21
924.1339378537217
 31
0.0
  0
ARC
  5
2422
  8
0
 10
597.0809998737642
 20
919.38393785372182
 30
0.0
 40
3.0
 50
0.0
 51
90.0
  0
LINE
  5
2423
  8
0
 10
598.08099987376443
 20
922.38393785372148
 30
0.0
 11
598.08099987376431
 21
924.1339378537217
 31
0.0
  0
ARC
  5
2424
  8
0
 10
587.58099987376352
 20
919.38393785372182
 30
0.0
 40
3.0
 50
0.000000000000229
 51
90.000000000000185
  0
LINE
  5
2425
  8
0
 10
640.78377741961435
 20
917.13393785372148
 30
0.0
 11
644.21351131619315
 21
906.13393785372136
 31
0.0
  0
LINE
  5
2426
  8
0
 10
642.78377741961435
 20
922.38393785372148
 30
0.0
 11
642.78377741961435
 21
924.13393785372148
 31
0.0
  0
LINE
  5
2427
  8
0
 10
640.78377741961435
 20
917.13393785372148
 30
0.0
 11
640.90688162994377
 21
920.9325241975406
 31
0.0
  0
ARC
  5
2428
  8
0
 10
642.40609454584126
 20
920.88393785372159
 30
0.0
 40
1.5
 50
90.0
 51
178.1438136990557
  0
LINE
  5
2429
  8
0
 10
645.75791744050446
 20
932.66103503239015
 30
0.0
 11
640.78377741961447
 21
924.13393785372148
 31
0.0
  0
LINE
  5
242A
  8
0
 10
694.93736582917609
 20
824.63736372282983
 30
0.0
 11
694.93736582917609
 21
917.38393785372159
 31
0.0
  0
LINE
  5
242B
  8
0
 10
688.43736582917597
 20
830.17799518692004
 30
0.0
 11
688.4373658291762
 21
917.38393785372136
 31
0.0
  0
LINE
  5
242C
  8
0
 10
695.80963739872436
 20
932.66103503239015
 30
0.0
 11
700.78377741961435
 21
924.13393785372148
 31
0.0
  0
LINE
  5
242D
  8
0
 10
698.78377741961458
 20
922.38393785372148
 30
0.0
 11
698.78377741961435
 21
924.13393785372148
 31
0.0
  0
LINE
  5
242E
  8
0
 10
712.53655416934714
 20
692.15425391000019
 30
0.0
 11
712.53655416934714
 21
695.40425391000031
 31
0.0
  0
LINE
  5
242F
  8
0
 10
716.28933091907959
 20
692.15425391000031
 30
0.0
 11
716.28933091907959
 21
695.40425391000031
 31
0.0
  0
ARC
  5
2430
  8
0
 10
714.41294254421348
 20
693.43203168777802
 30
0.0
 40
2.7222222222221419
 50
46.42642140347413
 51
90.0
  0
ARC
  5
2431
  8
0
 10
714.41294254421348
 20
693.43203168777802
 30
0.0
 40
2.7222222222221419
 50
89.999999999998366
 51
133.5735785965235
  0
LINE
  5
2432
  8
0
 10
712.78377741961435
 20
698.33439594696915
 30
0.0
 11
712.78377741961435
 21
696.15425391000031
 31
0.0
  0
LINE
  5
2433
  8
0
 10
712.18377741961365
 20
698.93439594696929
 30
0.0
 11
712.18377741961365
 21
696.15425390999997
 31
0.0
  0
LINE
  5
2434
  8
0
 10
712.78377741961435
 20
698.33439594696915
 30
0.0
 11
712.18377741961444
 21
698.93439594696918
 31
0.0
  0
LINE
  5
2435
  8
0
 10
783.95465547616675
 20
691.22249268577264
 30
0.0
 11
797.67353629008528
 21
691.22249268577275
 31
0.0
  0
ARC
  5
2436
  8
0
 10
781.54839520492112
 20
690.54432492848537
 30
0.0
 40
1.5
 50
15.73968077052186
 51
90.0
  0
ARC
  5
2437
  8
0
 10
795.29675062088415
 20
689.72249268577275
 30
0.0
 40
1.5
 50
14.82575729958349
 51
90.0
  0
ARC
  5
2438
  8
0
 10
797.67353629008528
 20
689.72249268577275
 30
0.0
 40
1.5
 50
14.82575729958349
 51
90.0
  0
ARC
  5
2439
  8
0
 10
730.51264004251345
 20
1033.1870622442079
 30
0.0
 40
150.0
 50
266.37008794380392
 51
288.13203192242202
  0
ARC
  5
243A
  8
0
 10
720.69935062304648
 20
878.4980214211115
 30
0.0
 40
5.0
 50
86.370087943804037
 51
187.43454665430511
  0
ARC
  5
243B
  8
0
 10
418.51518762350111
 20
828.72205617295765
 30
0.0
 40
301.25914132293872
 50
359.04863132720772
 51
9.3856497604526581
  0
ARC
  5
243C
  8
0
 10
714.7363217344548
 20
823.90765819764351
 30
0.0
 40
5.0
 50
349.22731283228251
 51
357.84936409849018
  0
CIRCLE
  5
243D
  8
0
 10
714.78377741961435
 20
905.13393785372159
 30
0.0
 40
3.0
  0
ARC
  5
243E
  8
0
 10
756.35798815863768
 20
911.19745762053617
 30
0.0
 40
7.9253827851382752
 50
339.54760693866939
 51
155.62784225896269
  0
LINE
  5
243F
  8
0
 10
749.13888143300267
 20
914.46796069725963
 30
0.0
 11
756.33001250046914
 21
911.11521477169288
 31
0.0
  0
ARC
  5
2440
  8
0
 10
812.31746592068305
 20
840.42393951519148
 30
0.0
 40
62.532068877943601
 50
102.1148011732277
 51
116.3686006411653
  0
ARC
  5
2441
  8
0
 10
760.67587680625843
 20
988.8480277240194
 30
0.0
 40
101.5752126236281
 50
283.6885831336275
 51
293.50550664960309
  0
LINE
  5
2442
  8
0
 10
784.78377741961435
 20
899.13393785372148
 30
0.0
 11
783.00099526747465
 21
895.61739518094964
 31
0.0
  0
ARC
  5
2443
  8
0
 10
685.92106371681098
 20
704.12696458743653
 30
0.0
 40
216.13566905507449
 50
62.851259742764121
 51
63.11635242359489
  0
LINE
  5
2444
  8
0
 10
785.67570403940647
 20
898.68175768508729
 30
0.0
 11
784.54420755589456
 21
896.44987777559538
 31
0.0
  0
LINE
  5
2445
  8
0
 10
782.75545653847064
 20
891.18440348025194
 30
0.0
 11
785.13919605194314
 21
896.74607759063804
 31
0.0
  0
ARC
  5
2446
  8
0
 10
774.08172906955315
 20
900.13919686729275
 30
0.0
 40
10.0
 50
288.13203192242042
 51
333.11635242359478
  0
ARC
  5
2447
  8
0
 10
685.92106371681098
 20
704.12696458743653
 30
0.0
 40
210.6356690550746
 50
62.029393479289581
 51
63.350524043121538
  0
ARC
  5
2448
  8
0
 10
800.78377741961435
 20
896.61607543754008
 30
0.0
 40
1.0
 50
293.83306731080779
 51
19.125176989789011
  0
ARC
  5
2449
  8
0
 10
799.40699175041334
 20
900.58635206410065
 30
0.0
 40
1.0
 50
19.125176989792621
 51
102.3101096266484
  0
LINE
  5
244A
  8
0
 10
800.35179678480824
 20
900.9139851622183
 30
0.0
 11
801.72858245400926
 21
896.94370853565761
 31
0.0
  0
LINE
  5
244B
  8
0
 10
651.80436974679355
 20
936.13393785372136
 30
0.0
 11
689.76318509243526
 21
936.13393785372136
 31
0.0
  0
LINE
  5
244C
  8
0
  6
CENTER
 10
865.78743942783797
 20
941.13393785372148
 30
0.0
 11
865.78743942783797
 21
746.13393785372136
 31
0.0
  0
ARC
  5
244D
  8
0
 10
884.76684710065899
 20
929.13393785372159
 30
0.0
 40
7.0
 50
30.25643716352938
 51
90.0
  0
ARC
  5
244E
  8
0
 10
846.80803175501705
 20
929.13393785372159
 30
0.0
 40
7.0
 50
90.0
 51
149.7435628364706
  0
LINE
  5
244F
  8
0
 10
881.78743942783797
 20
758.04644154103869
 30
0.0
 11
881.78743942783751
 21
894.22143416640415
 31
0.0
  0
LINE
  5
2450
  8
0
 10
849.78743942783797
 20
758.04644154103869
 30
0.0
 11
849.78743942783865
 21
894.22143416640438
 31
0.0
  0
LINE
  5
2451
  8
0
 10
884.28743942783774
 20
900.56888574153891
 30
0.0
 11
884.28743942783774
 21
795.25180441441705
 31
0.0
  0
LINE
  5
2452
  8
0
 10
847.28743942783854
 20
900.56888574153868
 30
0.0
 11
847.28743942783854
 21
795.25180441441785
 31
0.0
  0
LINE
  5
2453
  8
0
 10
886.28743942783763
 20
812.40296250251458
 30
0.0
 11
886.28743942783763
 21
824.13393785372148
 31
0.0
  0
LINE
  5
2454
  8
0
 10
845.28743942783854
 20
812.40296250251458
 30
0.0
 11
845.28743942783854
 21
824.13393785372125
 31
0.0
  0
LINE
  5
2458
  8
0
 10
845.28743942783831
 20
812.40296250251458
 30
0.0
 11
847.28743942783854
 21
812.40296250251458
 31
0.0
  0
LINE
  5
245B
  8
0
 10
886.28743942783763
 20
812.40296250251458
 30
0.0
 11
884.28743942783774
 21
812.40296250251458
 31
0.0
  0
LINE
  5
245C
  8
0
  6
CENTER
 10
833.39736840935348
 20
826.13393785372102
 30
0.0
 11
898.17751044632257
 21
826.13393785372148
 31
0.0
  0
ARC
  5
245D
  8
0
 10
865.78743942783797
 20
873.03393785372214
 30
0.0
 40
28.099999999999419
 50
59.460644523406501
 51
120.5393554765928
  0
ARC
  5
245E
  8
0
 10
865.78743942783797
 20
892.73823054418858
 30
0.0
 40
20.0
 50
53.52428167807625
 51
126.47571832192369
  0
LINE
  5
245F
  8
0
 10
835.78743942783785
 20
924.13393785372148
 30
0.0
 11
895.78743942783819
 21
924.1339378537217
 31
0.0
  0
LINE
  5
2460
  8
0
 10
837.78743942783797
 20
922.38393785372148
 30
0.0
 11
892.78743942783808
 21
922.38393785372193
 31
0.0
  0
ARC
  5
2461
  8
0
 10
879.31319681903619
 20
874.15424212821188
 30
0.0
 40
41.513642741861631
 50
112.0474616778672
 51
173.45855430953989
  0
ARC
  5
2462
  8
0
 10
880.94757376390226
 20
872.23231576804051
 30
0.0
 40
45.501415919398752
 50
126.47571832192369
 51
172.97811963626771
  0
LINE
  5
2463
  8
0
 10
835.78743942783808
 20
865.00278726161196
 30
0.0
 11
835.78743942783808
 21
919.38393785372182
 31
0.0
  0
ARC
  5
2464
  8
0
 10
934.05120225432995
 20
866.30571899717017
 30
0.0
 40
98.272400580878084
 50
180.75967083632861
 51
205.41245458700729
  0
ARC
  5
2465
  8
0
 10
933.09189382280067
 20
866.28486455708799
 30
0.0
 40
95.312989604844574
 50
180.74363858516699
 51
205.810521641164
  0
ARC
  5
2466
  8
0
 10
857.68043956769441
 20
842.73883633950527
 30
0.0
 40
21.937405574924341
 50
217.5476562118051
 51
217.5477313941515
  0
LINE
  5
2467
  8
0
 10
838.10729739086901
 20
830.13393785372125
 30
0.0
 11
837.5072973908691
 21
829.53393785372123
 31
0.0
  0
LINE
  5
2468
  8
0
 10
838.10729739086901
 20
830.13393785372125
 30
0.0
 11
840.28743942783808
 21
830.13393785372159
 31
0.0
  0
LINE
  5
2469
  8
0
 10
837.5072973908691
 20
829.53393785372123
 30
0.0
 11
840.28743942783842
 21
829.53393785372123
 31
0.0
  0
ARC
  5
246A
  8
0
 10
846.06868942783865
 20
822.88393785372136
 30
0.0
 40
5.7812500000003926
 50
145.79454206189621
 51
214.20545793810351
  0
LINE
  5
246B
  8
0
 10
838.10729739086912
 20
822.13393785372159
 30
0.0
 11
837.5072973908691
 21
822.73393785372161
 31
0.0
  0
LINE
  5
246C
  8
0
 10
838.10729739086912
 20
822.13393785372159
 30
0.0
 11
840.28743942783808
 21
822.13393785372159
 31
0.0
  0
LINE
  5
246D
  8
0
 10
837.5072973908691
 20
822.7339378537223
 30
0.0
 11
840.28743942783842
 21
822.7339378537223
 31
0.0
  0
LINE
  5
246E
  8
0
 10
841.28743942783819
 20
826.1339378537217
 30
0.0
 11
843.91985786601049
 21
826.1339378537217
 31
0.0
  0
LINE
  5
246F
  8
0
 10
841.28743942783819
 20
819.63393785372136
 30
0.0
 11
845.28743942783831
 21
819.63393785372136
 31
0.0
  0
LINE
  5
2470
  8
0
 10
840.28743942783842
 20
822.88393785372136
 30
0.0
 11
840.28743942783842
 21
829.3839378537217
 31
0.0
  0
LINE
  5
2471
  8
0
 10
838.10729739086912
 20
822.13393785372159
 30
0.0
 11
838.10729739086901
 21
830.13393785372125
 31
0.0
  0
LINE
  5
2472
  8
0
 10
837.5072973908691
 20
829.53393785372123
 30
0.0
 11
837.5072973908691
 21
822.73393785372161
 31
0.0
  0
ARC
  5
2473
  8
0
 10
846.06868942783865
 20
829.3839378537217
 30
0.0
 40
5.7812500000003926
 50
156.19186875708411
 51
214.20545793810371
  0
ARC
  5
2475
  8
0
 10
847.78743942783797
 20
876.52392114524173
 30
0.0
 40
10.0
 50
166.35158156184849
 51
180.0
  0
LINE
  5
2476
  8
0
 10
837.78743942783797
 20
865.00278726161196
 30
0.0
 11
837.78743942783797
 21
876.52392114524173
 31
0.0
  0
LINE
  5
2477
  8
0
 10
840.76157944872807
 20
932.66103503239015
 30
0.0
 11
835.78743942783808
 21
924.1339378537217
 31
0.0
  0
ARC
  5
2478
  8
0
 10
838.78743942783797
 20
919.38393785372182
 30
0.0
 40
3.0
 50
90.0
 51
180.0
  0
LINE
  5
2479
  8
0
 10
858.28743942783797
 20
909.94949404554586
 30
0.0
 11
858.28743942783797
 21
906.13393785372136
 31
0.0
  0
LINE
  5
247A
  8
0
 10
847.28743942783854
 20
887.21746697102787
 30
0.0
 11
849.78743942783865
 21
887.21746697102787
 31
0.0
  0
ARC
  5
247B
  8
0
 10
853.28743942783831
 20
894.22143416640438
 30
0.0
 40
3.5
 50
120.5393554765926
 51
180.0
  0
LINE
  5
247C
  8
0
 10
852.84280590762808
 20
906.13393785372136
 30
0.0
 11
858.28743942783797
 21
906.13393785372159
 31
0.0
  0
LINE
  5
247D
  8
0
 10
857.28743942783808
 20
909.34299807443733
 30
0.0
 11
857.28743942783808
 21
906.13393785372136
 31
0.0
  0
LINE
  5
247E
  8
0
 10
837.78743942783797
 20
922.38393785372148
 30
0.0
 11
837.78743942783797
 21
924.1339378537217
 31
0.0
  0
ARC
  5
247F
  8
0
 10
852.26168203663985
 20
874.15424212821188
 30
0.0
 40
41.513642741861631
 50
6.541445690460046
 51
67.952538322132753
  0
ARC
  5
2480
  8
0
 10
850.62730509177391
 20
872.23231576804051
 30
0.0
 40
45.501415919398731
 50
7.0218803637322829
 51
53.524281678076221
  0
LINE
  5
2481
  8
0
 10
895.78743942783797
 20
865.00278726161196
 30
0.0
 11
895.78743942783797
 21
919.38393785372182
 31
0.0
  0
ARC
  5
2482
  8
0
 10
797.52367660134598
 20
866.30571899717017
 30
0.0
 40
98.272400580878326
 50
334.5875454129926
 51
359.24032916367128
  0
ARC
  5
2483
  8
0
 10
798.48298503287549
 20
866.28486455708799
 30
0.0
 40
95.312989604844475
 50
334.18947835883591
 51
359.25636141483272
  0
ARC
  5
2484
  8
0
 10
885.5061894278374
 20
822.88393785372136
 30
0.0
 40
5.7812500000003926
 50
325.79454206189649
 51
34.205457938103777
  0
LINE
  5
2485
  8
0
 10
890.28743942783785
 20
826.1339378537217
 30
0.0
 11
887.65502098966556
 21
826.1339378537217
 31
0.0
  0
LINE
  5
2486
  8
0
 10
890.28743942783785
 20
819.63393785372136
 30
0.0
 11
886.28743942783763
 21
819.63393785372136
 31
0.0
  0
LINE
  5
2487
  8
0
 10
891.28743942783774
 20
822.88393785372136
 30
0.0
 11
891.28743942783774
 21
829.3839378537217
 31
0.0
  0
ARC
  5
2488
  8
0
 10
885.5061894278374
 20
829.3839378537217
 30
0.0
 40
5.7812500000003926
 50
325.79454206189621
 51
23.808131242915799
  0
ARC
  5
248A
  8
0
 10
883.78743942783808
 20
876.52392114524173
 30
0.0
 40
10.0
 50
0.0
 51
13.6484184381515
  0
LINE
  5
248B
  8
0
 10
893.78743942783808
 20
865.00278726161196
 30
0.0
 11
893.78743942783808
 21
876.52392114524173
 31
0.0
  0
LINE
  5
248C
  8
0
 10
873.28743942783808
 20
909.94949404554586
 30
0.0
 11
873.28743942783808
 21
906.13393785372136
 31
0.0
  0
LINE
  5
248D
  8
0
 10
881.78743942783751
 20
887.21746697102765
 30
0.0
 11
884.28743942783774
 21
887.21746697102787
 31
0.0
  0
ARC
  5
248E
  8
0
 10
878.28743942783797
 20
894.22143416640415
 30
0.0
 40
3.5
 50
0.0
 51
59.460644523406501
  0
LINE
  5
248F
  8
0
 10
873.28743942783808
 20
906.13393785372136
 30
0.0
 11
878.7320729480482
 21
906.13393785372136
 31
0.0
  0
LINE
  5
2490
  8
0
 10
874.28743942783808
 20
909.34299807443733
 30
0.0
 11
874.28743942783808
 21
906.13393785372136
 31
0.0
  0
LINE
  5
2491
  8
0
 10
890.81329940694786
 20
932.66103503239015
 30
0.0
 11
895.78743942783785
 21
924.1339378537217
 31
0.0
  0
LINE
  5
2492
  8
0
 10
893.78743942783808
 20
922.38393785372148
 30
0.0
 11
893.78743942783808
 21
924.1339378537217
 31
0.0
  0
ARC
  5
2493
  8
0
 10
892.78743942783808
 20
919.38393785372182
 30
0.0
 40
3.0
 50
0.0
 51
90.0
  0
LINE
  5
2494
  8
0
 10
846.80803175501705
 20
936.13393785372159
 30
0.0
 11
884.76684710065899
 21
936.13393785372159
 31
0.0
  0
POLYLINE
  5
2495
  8
0
 66
     1
 10
0.0
 20
0.0
 30
0.0
 70
     1
  0
VERTEX
  5
28CA
  8
0
 10
15.554291075341091
 20
913.21954777681651
 30
0.0
  0
VERTEX
  5
28CB
  8
0
 10
441.6717306710824
 20
913.21954777681651
 30
0.0
  0
VERTEX
  5
28CC
  8
0
 10
441.6717306710824
 20
621.51974360826785
 30
0.0
  0
VERTEX
  5
28CD
  8
0
 10
15.554291075341091
 20
621.51974360826785
 30
0.0
  0
SEQEND
  5
28CE
  8
0
  0
ARC
  5
262D
  8
0
 10
708.78377741961435
 20
826.13393785372148
 30
0.0
 40
75.0
 50
135.2301549669717
 51
51.956699771151101
  0
ARC
  5
262E
  8
0
 10
708.78377741961435
 20
826.13393785372148
 30
0.0
 40
69.0
 50
136.93253883329871
 51
57.032437553354249
  0
ARC
  5
262F
  8
0
 10
708.78377741961435
 20
826.13393785372148
 30
0.0
 40
57.0
 50
141.0019830479587
 51
81.073695395914925
  0
ARC
  5
2630
  8
0
 10
708.78377741961435
 20
826.13393785372148
 30
0.0
 40
54.0
 50
142.21456735328189
 51
82.492816723441649
  0
ARC
  5
2631
  8
0
 10
708.78377741961435
 20
826.13393785372148
 30
0.0
 40
35.0
 50
153.64810153267521
 51
74.458739728682417
  0
LINE
  5
2676
  8
0
 10
588.58099987376397
 20
791.13393785372136
 30
0.0
 11
586.08099987376386
 21
772.13393785372148
 31
0.0
  0
LINE
  5
2677
  8
0
 10
551.58099987376465
 20
791.13393785372136
 30
0.0
 11
554.08099987376465
 21
772.13393785372148
 31
0.0
  0
ARC
  5
2678
  8
0
 10
865.78743942783797
 20
779.23393785372093
 30
0.0
 40
28.099999999999419
 50
239.4606445234071
 51
300.53935547659353
  0
ARC
  5
2679
  8
0
 10
853.28743942783831
 20
758.04644154103869
 30
0.0
 40
3.5
 50
180.0
 51
239.46064452340741
  0
LINE
  5
267A
  8
0
 10
849.78743942783808
 20
779.25180441441921
 30
0.0
 11
847.28743942783854
 21
795.25180441441853
 31
0.0
  0
ARC
  5
267B
  8
0
 10
878.28743942783797
 20
758.04644154103869
 30
0.0
 40
3.5
 50
300.53935547659353
 51
0.0
  0
LINE
  5
267C
  8
0
 10
881.78743942783763
 20
779.25180441441807
 30
0.0
 11
884.28743942783774
 21
795.25180441441853
 31
0.0
  0
LINE
  5
26BD
  8
0
 10
849.78743942783808
 20
873.01607129302329
 30
0.0
 11
847.28743942783854
 21
857.01607129302397
 31
0.0
  0
LINE
  5
26BE
  8
0
 10
881.78743942783763
 20
873.0160712930242
 30
0.0
 11
884.28743942783774
 21
857.01607129302397
 31
0.0
  0
POLYLINE
  5
2782
  8
0
 66
     1
 10
0.0
 20
0.0
 30
0.0
 70
     1
  0
VERTEX
  5
28CF
  8
0
 10
498.61675285555151
 20
971.84550989677757
 30
0.0
  0
VERTEX
  5
28D0
  8
0
 10
947.47348915385737
 20
971.84550989677757
 30
0.0
  0
VERTEX
  5
28D1
  8
0
 10
947.47348915385737
 20
621.51974360826785
 30
0.0
  0
VERTEX
  5
28D2
  8
0
 10
498.61675285555151
 20
621.51974360826785
 30
0.0
  0
SEQEND
  5
28D3
  8
0
  0
VIEWPORT
  5
8D
 67
     1
  8
0
 10
143.47825622558591
 20
99.980751991271987
 30
0.0
 40
339.12752973873143
 41
222.1965796813964
 68
     1
 69
     1
1001
ACAD
1000
MVIEW
1002
{
1070
    16
1010
0.0
1020
0.0
1030
0.0
1010
0.0
1020
0.0
1030
1.0
1040
0.0
1040
222.1965796813964
1040
143.47825622558591
1040
99.980751991271987
1040
50.0
1040
0.0
1040
0.0
1070
     0
1070
   100
1070
     1
1070
     1
1070
     0
1070
     0
1070
     0
1070
     0
1040
0.0
1040
0.0
1040
0.0
1040
10.0
1040
10.0
1040
10.0
1040
10.0
1070
     0
1002
{
1002
}
1002
}
  0
VIEWPORT
  5
8F
 67
     1
  8
0
 10
143.37242841720581
 20
99.874916553497314
 30
0.0
 40
229.3958854675293
 41
159.79986648559569
 68
     2
 69
     2
1001
ACAD
1000
MVIEW
1002
{
1070
    16
1010
0.0
1020
0.0
1030
0.0
1010
0.0
1020
0.0
1030
1.0
1040
0.0
1040
300.10452961672468
1040
210.0
1040
148.5
1040
50.0
1040
0.0
1040
0.0
1070
     0
1070
   100
1070
     1
1070
     2
1070
     0
1070
     0
1070
     0
1070
     0
1040
0.0
1040
0.0
1040
0.0
1040
10.0
1040
10.0
1040
10.0
1040
10.0
1070
     0
1002
{
1002
}
1002
}
  0
ENDSEC
  0
EOF
