  0
SECTION
  2
HEADER
  9
$ACADVER
  1
AC1009
  9
$INSBASE
 10
0.0
 20
0.0
 30
0.0
  9
$EXTMIN
 10
-5800.201185
 20
3394.969412
 30
0.0
  9
$EXTMAX
 10
-4579.370694
 20
4348.752732
 30
0.0
  9
$LIMMIN
 10
0.0
 20
0.0
  9
$LIMMAX
 10
12.0
 20
9.0
  9
$ORTHOMODE
 70
     1
  9
$REGENMODE
 70
     1
  9
$FILLMODE
 70
     1
  9
$QTEXTMODE
 70
     0
  9
$MIRRTEXT
 70
     1
  9
$DRAGMODE
 70
     2
  9
$LTSCALE
 40
5.0
  9
$OSMODE
 70
     0
  9
$ATTMODE
 70
     1
  9
$TEXTSIZE
 40
73.416
  9
$TRACEWID
 40
0.05
  9
$TEXTSTYLE
  7
STANDARD
  9
$CLAYER
  8
0
  9
$CELTYPE
  6
BYLAYER
  9
$CECOLOR
 62
   256
  9
$DIMSCALE
 40
1.0
  9
$DIMASZ
 40
2.5
  9
$DIMEXO
 40
0.0
  9
$DIMDLI
 40
5.0
  9
$DIMRND
 40
0.0
  9
$DIMDLE
 40
0.0
  9
$DIMEXE
 40
1.0
  9
$DIMTP
 40
0.0
  9
$DIMTM
 40
0.0
  9
$DIMTXT
 40
2.5
  9
$DIMCEN
 40
0.09
  9
$DIMTSZ
 40
0.0
  9
$DIMTOL
 70
     0
  9
$DIMLIM
 70
     0
  9
$DIMTIH
 70
     0
  9
$DIMTOH
 70
     0
  9
$DIMSE1
 70
     0
  9
$DIMSE2
 70
     0
  9
$DIMTAD
 70
     1
  9
$DIMZIN
 70
     0
  9
$DIMBLK
  1

  9
$DIMASO
 70
     0
  9
$DIMSHO
 70
     0
  9
$DIMPOST
  1

  9
$DIMAPOST
  1

  9
$DIMALT
 70
     0
  9
$DIMALTD
 70
     2
  9
$DIMALTF
 40
25.4
  9
$DIMLFAC
 40
1.0
  9
$DIMTOFL
 70
     1
  9
$DIMTVP
 40
0.0
  9
$DIMTIX
 70
     0
  9
$DIMSOXD
 70
     0
  9
$DIMSAH
 70
     0
  9
$DIMBLK1
  1

  9
$DIMBLK2
  1

  9
$DIMSTYLE
  2
*UNNAMED
  9
$DIMCLRD
 70
     0
  9
$DIMCLRE
 70
     0
  9
$DIMCLRT
 70
     0
  9
$DIMTFAC
 40
1.0
  9
$DIMGAP
 40
0.09
  9
$LUNITS
 70
     2
  9
$LUPREC
 70
     4
  9
$SKETCHINC
 40
0.1
  9
$FILLETRAD
 40
0.0
  9
$AUNITS
 70
     0
  9
$AUPREC
 70
     0
  9
$MENU
  1
wiberger
  9
$ELEVATION
 40
0.0
  9
$PELEVATION
 40
0.0
  9
$THICKNESS
 40
0.0
  9
$LIMCHECK
 70
     0
  9
$BLIPMODE
 70
     1
  9
$CHAMFERA
 40
0.0
  9
$CHAMFERB
 40
0.0
  9
$SKPOLY
 70
     0
  9
$TDCREATE
 40
2450193.342433101
  9
$TDUPDATE
 40
2450214.368797916
  9
$TDINDWG
 40
0.0112513889
  9
$TDUSRTIMER
 40
0.0112513889
  9
$USRTIMER
 70
     1
  9
$ANGBASE
 50
0.0
  9
$ANGDIR
 70
     0
  9
$PDMODE
 70
     0
  9
$PDSIZE
 40
0.0
  9
$PLINEWID
 40
0.0
  9
$COORDS
 70
     0
  9
$SPLFRAME
 70
     0
  9
$SPLINETYPE
 70
     6
  9
$SPLINESEGS
 70
     8
  9
$ATTDIA
 70
     0
  9
$ATTREQ
 70
     1
  9
$HANDLING
 70
     0
  9
$HANDSEED
  5
0
  9
$SURFTAB1
 70
     6
  9
$SURFTAB2
 70
     6
  9
$SURFTYPE
 70
     6
  9
$SURFU
 70
     6
  9
$SURFV
 70
     6
  9
$UCSNAME
  2

  9
$UCSORG
 10
0.0
 20
0.0
 30
0.0
  9
$UCSXDIR
 10
1.0
 20
0.0
 30
0.0
  9
$UCSYDIR
 10
0.0
 20
1.0
 30
0.0
  9
$PUCSNAME
  2

  9
$PUCSORG
 10
0.0
 20
0.0
 30
0.0
  9
$PUCSXDIR
 10
1.0
 20
0.0
 30
0.0
  9
$PUCSYDIR
 10
0.0
 20
1.0
 30
0.0
  9
$USERI1
 70
     0
  9
$USERI2
 70
     0
  9
$USERI3
 70
     0
  9
$USERI4
 70
     0
  9
$USERI5
 70
     0
  9
$USERR1
 40
0.0
  9
$USERR2
 40
0.0
  9
$USERR3
 40
0.0
  9
$USERR4
 40
0.0
  9
$USERR5
 40
0.0
  9
$WORLDVIEW
 70
     1
  9
$SHADEDGE
 70
     3
  9
$SHADEDIF
 70
    70
  9
$TILEMODE
 70
     1
  9
$MAXACTVP
 70
    16
  9
$PINSBASE
 10
0.0
 20
0.0
 30
0.0
  9
$PLIMCHECK
 70
     0
  9
$PEXTMIN
 10
1.000000E+20
 20
1.000000E+20
 30
1.000000E+20
  9
$PEXTMAX
 10
-1.000000E+20
 20
-1.000000E+20
 30
-1.000000E+20
  9
$PLIMMIN
 10
0.0
 20
0.0
  9
$PLIMMAX
 10
12.0
 20
9.0
  9
$UNITMODE
 70
     0
  9
$VISRETAIN
 70
     0
  9
$PLINEGEN
 70
     0
  9
$PSLTSCALE
 70
     0
  9
$TREEDEPTH
 70
  3020
  9
$DWGCODEPAGE
  3
undefined
  0
ENDSEC
  0
SECTION
  2
TABLES
  0
TABLE
  2
VPORT
 70
     2
  0
VPORT
  2
*ACTIVE
 70
     0
 10
0.0
 20
0.0
 11
1.0
 21
1.0
 12
-4937.151228
 22
3871.861072
 13
0.0
 23
0.0
 14
1.0
 24
1.0
 15
0.0
 25
0.0
 16
0.0
 26
0.0
 36
1.0
 17
0.0
 27
0.0
 37
0.0
 40
1059.759245
 41
1.767507
 42
50.0
 43
0.0
 44
0.0
 50
0.0
 51
0.0
 71
     0
 72
   100
 73
     1
 74
     0
 75
     0
 76
     0
 77
     0
 78
     0
  0
ENDTAB
  0
TABLE
  2
LTYPE
 70
     4
  0
LTYPE
  2
CONTINUOUS
 70
    64
  3
Solid line
 72
    65
 73
     0
 40
0.0
  0
LTYPE
  2
DASHED
 70
    64
  3
__ __ __ __ __ __ __ __ __ __ __ __ __ __ __
 72
    65
 73
     2
 40
0.75
 49
0.5
 49
-0.25
  0
LTYPE
  2
CENTER
 70
     0
  3
____ _ ____ _ ____ _ ____ _ ____ _ ____ _ ____
 72
    65
 73
     4
 40
2.0
 49
1.25
 49
-0.25
 49
0.25
 49
-0.25
  0
LTYPE
  2
HIDDEN
 70
    64
  3
_ _ _ _ _ _ _ _ _ _ _ _ _ _ _ _ _ _ _ _ _ _ _
 72
    65
 73
     2
 40
0.375
 49
0.25
 49
-0.125
  0
ENDTAB
  0
TABLE
  2
LAYER
 70
     3
  0
LAYER
  2
0
 70
    64
 62
     7
  6
CONTINUOUS
  0
LAYER
  2
KONTUR
 70
     0
 62
     6
  6
CONTINUOUS
  0
LAYER
  2
DEFPOINTS
 70
     0
 62
    -7
  6
CONTINUOUS
  0
ENDTAB
  0
TABLE
  2
STYLE
 70
     3
  0
STYLE
  2
STANDARD
 70
    64
 40
0.0
 41
1.0
 50
0.0
 71
     0
 42
73.416
  3
txt
  4

  0
STYLE
  2
SYMATH
 70
     0
 40
5.0
 41
1.0
 50
0.0
 71
     0
 42
5.0
  3
symath
  4

  0
STYLE
  2
ROMANT
 70
     0
 40
44.0
 41
1.0
 50
0.0
 71
     0
 42
44.0
  3
romant
  4

  0
ENDTAB
  0
TABLE
  2
VIEW
 70
     0
  0
ENDTAB
  0
TABLE
  2
UCS
 70
     0
  0
ENDTAB
  0
TABLE
  2
APPID
 70
     1
  0
APPID
  2
ACAD
 70
    64
  0
ENDTAB
  0
TABLE
  2
DIMSTYLE
 70
     0
  0
ENDTAB
  0
ENDSEC
  0
SECTION
  2
BLOCKS
  0
BLOCK
  8
0
  2
WMF011
 70
    64
 10
0.0
 20
0.0
 30
0.0
  3
WMF011
  0
LINE
  8
0
  6
DASHED
 10
0.0
 20
-3.0
 30
0.0
 11
0.0
 21
3.0
 31
0.0
  0
LINE
  8
0
  6
DASHED
 10
-9.0
 20
-3.0
 30
0.0
 11
0.0
 21
-3.0
 31
0.0
  0
LINE
  8
0
  6
DASHED
 10
-9.0
 20
3.0
 30
0.0
 11
0.0
 21
3.0
 31
0.0
  0
LINE
  8
0
 10
4.0
 20
-8.0
 30
0.0
 11
4.0
 21
8.0
 31
0.0
  0
LINE
  8
0
 10
-8.5
 20
8.0
 30
0.0
 11
-8.5
 21
-8.0
 31
0.0
  0
LINE
  8
0
 10
4.5
 20
-7.5
 30
0.0
 11
4.0
 21
-8.0
 31
0.0
  0
LINE
  8
0
 10
-9.0
 20
-7.5
 30
0.0
 11
-8.5
 21
-8.0
 31
0.0
  0
LINE
  8
0
 10
4.0
 20
8.0
 30
0.0
 11
4.5
 21
7.5
 31
0.0
  0
LINE
  8
0
 10
-9.0
 20
7.5
 30
0.0
 11
-8.5
 21
8.0
 31
0.0
  0
ARC
  8
0
 10
8.0
 20
0.0
 30
0.0
 40
3.5
 50
270.0
 51
90.0
  0
CIRCLE
  8
0
 10
8.0
 20
0.0
 30
0.0
 40
1.5
  0
LINE
  8
0
 10
4.5
 20
-3.5
 30
0.0
 11
8.0
 21
-3.5
 31
0.0
  0
LINE
  8
0
 10
4.5
 20
3.5
 30
0.0
 11
8.0
 21
3.5
 31
0.0
  0
LINE
  8
0
 10
4.0
 20
8.0
 30
0.0
 11
-8.5
 21
8.0
 31
0.0
  0
LINE
  8
0
 10
4.5
 20
-7.5
 30
0.0
 11
4.5
 21
7.5
 31
0.0
  0
LINE
  8
0
 10
-9.0
 20
-7.5
 30
0.0
 11
-9.0
 21
7.5
 31
0.0
  0
LINE
  8
0
 10
-8.5
 20
-8.0
 30
0.0
 11
4.0
 21
-8.0
 31
0.0
  0
ENDBLK
  8
0
  0
BLOCK
  8
0
  2
WMF012
 70
    64
 10
0.0
 20
0.0
 30
0.0
  3
WMF012
  0
LINE
  8
0
  6
DASHED
 10
9.0
 20
3.0
 30
0.0
 11
0.0
 21
3.0
 31
0.0
  0
LINE
  8
0
  6
DASHED
 10
9.0
 20
-3.0
 30
0.0
 11
0.0
 21
-3.0
 31
0.0
  0
LINE
  8
0
  6
DASHED
 10
0.0
 20
-3.0
 30
0.0
 11
0.0
 21
3.0
 31
0.0
  0
ARC
  8
0
 10
-5.53527
 20
10.753113
 30
0.0
 40
17.783273
 50
250.402382
 51
273.337413
  0
ARC
  8
0
 10
-5.53527
 20
11.366256
 30
0.0
 40
17.783273
 50
250.402382
 51
273.337413
  0
ARC
  8
0
 10
-5.53527
 20
-11.366256
 30
0.0
 40
17.783273
 50
86.662587
 51
109.597618
  0
ARC
  8
0
 10
-5.53527
 20
-10.753113
 30
0.0
 40
17.783273
 50
86.662587
 51
109.597618
  0
LINE
  8
0
 10
9.0
 20
-7.5
 30
0.0
 11
9.0
 21
7.5
 31
0.0
  0
LINE
  8
0
 10
8.5
 20
8.0
 30
0.0
 11
-4.0
 21
8.0
 31
0.0
  0
LINE
  8
0
 10
-4.5
 20
-7.5
 30
0.0
 11
-4.5
 21
7.5
 31
0.0
  0
LINE
  8
0
 10
-4.0
 20
-8.0
 30
0.0
 11
8.5
 21
-8.0
 31
0.0
  0
CIRCLE
  8
0
 10
-8.0
 20
0.0
 30
0.0
 40
0.75
  0
LINE
  8
0
 10
-12.0
 20
4.0
 30
0.0
 11
-4.5
 21
4.0
 31
0.0
  0
LINE
  8
0
 10
-12.0
 20
-4.0
 30
0.0
 11
-4.5
 21
-4.0
 31
0.0
  0
LINE
  8
0
 10
-12.0
 20
4.5
 30
0.0
 11
-12.0
 21
-4.5
 31
0.0
  0
LINE
  8
0
 10
-12.0
 20
4.5
 30
0.0
 11
-4.5
 21
4.5
 31
0.0
  0
LINE
  8
0
 10
-12.0
 20
-4.5
 30
0.0
 11
-4.5
 21
-4.5
 31
0.0
  0
ARC
  8
0
 10
-8.0
 20
0.0
 30
0.0
 40
4.0
 50
28.955024
 51
331.044976
  0
LINE
  8
0
 10
-11.5
 20
6.0
 30
0.0
 11
-11.5
 21
4.5
 31
0.0
  0
LINE
  8
0
 10
-11.5
 20
-4.5
 30
0.0
 11
-11.5
 21
-6.0
 31
0.0
  0
LINE
  8
0
 10
-4.5
 20
-7.5
 30
0.0
 11
-4.0
 21
-8.0
 31
0.0
  0
LINE
  8
0
 10
8.5
 20
-8.0
 30
0.0
 11
9.0
 21
-7.5
 31
0.0
  0
LINE
  8
0
 10
8.5
 20
8.0
 30
0.0
 11
9.0
 21
7.5
 31
0.0
  0
LINE
  8
0
 10
-4.0
 20
8.0
 30
0.0
 11
-4.5
 21
7.5
 31
0.0
  0
LINE
  8
0
 10
-4.0
 20
-8.0
 30
0.0
 11
-4.0
 21
8.0
 31
0.0
  0
LINE
  8
0
 10
8.5
 20
-8.0
 30
0.0
 11
8.5
 21
8.0
 31
0.0
  0
ENDBLK
  8
0
  0
BLOCK
  8
0
  2
WMF021
 70
    64
 10
0.0
 20
0.0
 30
0.0
  3
WMF021
  0
LINE
  8
0
  6
DASHED
 10
0.0
 20
-4.0
 30
0.0
 11
0.0
 21
4.0
 31
0.0
  0
LINE
  8
0
  6
DASHED
 10
-11.0
 20
-4.0
 30
0.0
 11
0.0
 21
-4.0
 31
0.0
  0
LINE
  8
0
  6
DASHED
 10
-11.0
 20
4.0
 30
0.0
 11
0.0
 21
4.0
 31
0.0
  0
LINE
  8
0
 10
4.5
 20
9.0
 30
0.0
 11
4.5
 21
-9.0
 31
0.0
  0
LINE
  8
0
 10
-10.5
 20
9.0
 30
0.0
 11
-10.5
 21
-9.0
 31
0.0
  0
LINE
  8
0
 10
4.5
 20
-9.0
 30
0.0
 11
5.0
 21
-8.5
 31
0.0
  0
LINE
  8
0
 10
-11.0
 20
-8.5
 30
0.0
 11
-10.5
 21
-9.0
 31
0.0
  0
LINE
  8
0
 10
4.5
 20
9.0
 30
0.0
 11
5.0
 21
8.5
 31
0.0
  0
LINE
  8
0
 10
-11.0
 20
8.5
 30
0.0
 11
-10.5
 21
9.0
 31
0.0
  0
LINE
  8
0
 10
9.0
 20
-4.0
 30
0.0
 11
5.0
 21
-4.0
 31
0.0
  0
LINE
  8
0
 10
9.0
 20
4.0
 30
0.0
 11
5.0
 21
4.0
 31
0.0
  0
ARC
  8
0
 10
9.0
 20
0.0
 30
0.0
 40
4.0
 50
270.0
 51
90.0
  0
LINE
  8
0
 10
4.5
 20
9.0
 30
0.0
 11
-10.5
 21
9.0
 31
0.0
  0
LINE
  8
0
 10
5.0
 20
-8.5
 30
0.0
 11
5.0
 21
8.5
 31
0.0
  0
CIRCLE
  8
0
 10
9.0
 20
0.0
 30
0.0
 40
2.0
  0
LINE
  8
0
 10
-11.0
 20
-8.5
 30
0.0
 11
-11.0
 21
8.5
 31
0.0
  0
LINE
  8
0
 10
-10.5
 20
-9.0
 30
0.0
 11
4.5
 21
-9.0
 31
0.0
  0
ENDBLK
  8
0
  0
BLOCK
  8
0
  2
WMF022
 70
    64
 10
0.0
 20
0.0
 30
0.0
  3
WMF022
  0
LINE
  8
0
  6
DASHED
 10
11.0
 20
4.0
 30
0.0
 11
0.0
 21
4.0
 31
0.0
  0
LINE
  8
0
  6
DASHED
 10
11.0
 20
-4.0
 30
0.0
 11
0.0
 21
-4.0
 31
0.0
  0
LINE
  8
0
  6
DASHED
 10
0.0
 20
-4.0
 30
0.0
 11
0.0
 21
4.0
 31
0.0
  0
LINE
  8
0
 10
10.5
 20
9.0
 30
0.0
 11
10.5
 21
-9.0
 31
0.0
  0
LINE
  8
0
 10
-4.5
 20
9.0
 30
0.0
 11
-4.5
 21
-9.0
 31
0.0
  0
LINE
  8
0
 10
10.5
 20
9.0
 30
0.0
 11
11.0
 21
8.5
 31
0.0
  0
LINE
  8
0
 10
-5.0
 20
8.5
 30
0.0
 11
-4.5
 21
9.0
 31
0.0
  0
LINE
  8
0
 10
11.0
 20
-8.5
 30
0.0
 11
10.5
 21
-9.0
 31
0.0
  0
LINE
  8
0
 10
-5.0
 20
-8.5
 30
0.0
 11
-4.5
 21
-9.0
 31
0.0
  0
LINE
  8
0
 10
-13.0
 20
-5.5
 30
0.0
 11
-13.0
 21
-7.0
 31
0.0
  0
ARC
  8
0
 10
-6.217548
 20
16.131963
 30
0.0
 40
23.526671
 50
253.244525
 51
272.966487
  0
ARC
  8
0
 10
-6.12503
 20
15.499756
 30
0.0
 40
23.526671
 50
253.009074
 51
272.740893
  0
ARC
  8
0
 10
-6.217548
 20
-16.131963
 30
0.0
 40
23.526671
 50
87.033513
 51
106.755475
  0
ARC
  8
0
 10
-6.12503
 20
-15.499756
 30
0.0
 40
23.526671
 50
87.259107
 51
106.990926
  0
LINE
  8
0
 10
-13.0
 20
7.0
 30
0.0
 11
-13.0
 21
5.5
 31
0.0
  0
LINE
  8
0
 10
-5.0
 20
-5.5
 30
0.0
 11
-14.0
 21
-5.5
 31
0.0
  0
LINE
  8
0
 10
-5.0
 20
5.5
 30
0.0
 11
-14.0
 21
5.5
 31
0.0
  0
LINE
  8
0
 10
-14.0
 20
-5.5
 30
0.0
 11
-14.0
 21
5.5
 31
0.0
  0
LINE
  8
0
 10
-5.0
 20
-5.0
 30
0.0
 11
-14.0
 21
-5.0
 31
0.0
  0
LINE
  8
0
 10
-5.0
 20
5.0
 30
0.0
 11
-14.0
 21
5.0
 31
0.0
  0
ARC
  8
0
 10
-9.0
 20
0.0
 30
0.0
 40
5.0
 50
36.869898
 51
323.130102
  0
LINE
  8
0
 10
-4.5
 20
-9.0
 30
0.0
 11
10.5
 21
-9.0
 31
0.0
  0
LINE
  8
0
 10
-5.0
 20
-8.5
 30
0.0
 11
-5.0
 21
8.5
 31
0.0
  0
CIRCLE
  8
0
 10
-9.0
 20
0.0
 30
0.0
 40
1.0
  0
LINE
  8
0
 10
10.5
 20
9.0
 30
0.0
 11
-4.5
 21
9.0
 31
0.0
  0
LINE
  8
0
 10
11.0
 20
-8.5
 30
0.0
 11
11.0
 21
8.5
 31
0.0
  0
ENDBLK
  8
0
  0
BLOCK
  8
0
  2
WMF031
 70
    64
 10
0.0
 20
0.0
 30
0.0
  3
WMF031
  0
LINE
  8
0
 10
4.8
 20
11.0
 30
0.0
 11
4.8
 21
-11.0
 31
0.0
  0
LINE
  8
0
 10
-13.3
 20
11.0
 30
0.0
 11
-13.3
 21
-11.0
 31
0.0
  0
LINE
  8
0
 10
5.5
 20
-10.3
 30
0.0
 11
4.8
 21
-11.0
 31
0.0
  0
LINE
  8
0
 10
-14.0
 20
-10.3
 30
0.0
 11
-13.3
 21
-11.0
 31
0.0
  0
LINE
  8
0
 10
4.8
 20
11.0
 30
0.0
 11
5.5
 21
10.3
 31
0.0
  0
LINE
  8
0
 10
-14.0
 20
10.3
 30
0.0
 11
-13.3
 21
11.0
 31
0.0
  0
LINE
  8
0
 10
4.8
 20
11.0
 30
0.0
 11
-13.3
 21
11.0
 31
0.0
  0
LINE
  8
0
 10
10.0
 20
-4.5
 30
0.0
 11
5.5
 21
-4.5
 31
0.0
  0
LINE
  8
0
 10
10.0
 20
4.5
 30
0.0
 11
5.5
 21
4.5
 31
0.0
  0
ARC
  8
0
 10
10.0
 20
0.0
 30
0.0
 40
4.5
 50
270.0
 51
90.0
  0
CIRCLE
  8
0
 10
10.0
 20
0.0
 30
0.0
 40
2.5
  0
LINE
  8
0
 10
5.5
 20
-10.3
 30
0.0
 11
5.5
 21
10.3
 31
0.0
  0
LINE
  8
0
 10
-14.0
 20
-10.3
 30
0.0
 11
-14.0
 21
10.3
 31
0.0
  0
LINE
  8
0
 10
-13.3
 20
-11.0
 30
0.0
 11
4.8
 21
-11.0
 31
0.0
  0
LINE
  8
0
  6
DASHED
 10
-14.0
 20
5.0
 30
0.0
 11
0.0
 21
5.0
 31
0.0
  0
LINE
  8
0
  6
DASHED
 10
-14.0
 20
-5.0
 30
0.0
 11
0.0
 21
-5.0
 31
0.0
  0
LINE
  8
0
  6
DASHED
 10
0.0
 20
-5.0
 30
0.0
 11
0.0
 21
5.0
 31
0.0
  0
ENDBLK
  8
0
  0
BLOCK
  8
0
  2
WMF032
 70
    64
 10
0.0
 20
0.0
 30
0.0
  3
WMF032
  0
LINE
  8
0
  6
DASHED
 10
14.0
 20
-5.0
 30
0.0
 11
0.0
 21
-5.0
 31
0.0
  0
LINE
  8
0
  6
DASHED
 10
0.0
 20
-5.0
 30
0.0
 11
0.0
 21
5.0
 31
0.0
  0
LINE
  8
0
  6
DASHED
 10
14.0
 20
5.0
 30
0.0
 11
0.0
 21
5.0
 31
0.0
  0
LINE
  8
0
 10
14.0
 20
-10.3
 30
0.0
 11
14.0
 21
10.3
 31
0.0
  0
LINE
  8
0
 10
13.3
 20
11.0
 30
0.0
 11
-4.8
 21
11.0
 31
0.0
  0
LINE
  8
0
 10
-5.5
 20
-10.3
 30
0.0
 11
-5.5
 21
10.3
 31
0.0
  0
CIRCLE
  8
0
 10
-10.0
 20
0.0
 30
0.0
 40
1.0
  0
LINE
  8
0
 10
-4.8
 20
-11.0
 30
0.0
 11
13.3
 21
-11.0
 31
0.0
  0
ARC
  8
0
 10
-10.0
 20
0.0
 30
0.0
 40
5.75
 50
38.49995
 51
321.50005
  0
LINE
  8
0
 10
-15.75
 20
5.75
 30
0.0
 11
-5.5
 21
5.75
 31
0.0
  0
LINE
  8
0
 10
-15.75
 20
-5.75
 30
0.0
 11
-5.5
 21
-5.75
 31
0.0
  0
LINE
  8
0
 10
-15.75
 20
-6.75
 30
0.0
 11
-15.75
 21
6.75
 31
0.0
  0
LINE
  8
0
 10
-15.75
 20
6.75
 30
0.0
 11
-5.5
 21
6.75
 31
0.0
  0
LINE
  8
0
 10
-15.75
 20
-6.75
 30
0.0
 11
-5.5
 21
-6.75
 31
0.0
  0
LINE
  8
0
 10
-14.5
 20
8.25
 30
0.0
 11
-14.5
 21
6.75
 31
0.0
  0
ARC
  8
0
 10
-6.712534
 20
-14.794759
 30
0.0
 40
24.324998
 50
87.142781
 51
108.671545
  0
ARC
  8
0
 10
-6.712534
 20
-15.464386
 30
0.0
 40
24.324998
 50
87.142781
 51
108.671545
  0
ARC
  8
0
 10
-6.712534
 20
14.794759
 30
0.0
 40
24.324998
 50
251.328455
 51
272.857219
  0
ARC
  8
0
 10
-6.712534
 20
15.464386
 30
0.0
 40
24.324998
 50
251.328455
 51
272.857219
  0
LINE
  8
0
 10
-14.5
 20
-6.75
 30
0.0
 11
-14.5
 21
-8.25
 31
0.0
  0
LINE
  8
0
 10
-4.8
 20
-11.0
 30
0.0
 11
-5.5
 21
-10.3
 31
0.0
  0
LINE
  8
0
 10
13.3
 20
-11.0
 30
0.0
 11
14.0
 21
-10.3
 31
0.0
  0
LINE
  8
0
 10
13.3
 20
11.0
 30
0.0
 11
14.0
 21
10.3
 31
0.0
  0
LINE
  8
0
 10
-4.8
 20
11.0
 30
0.0
 11
-5.5
 21
10.3
 31
0.0
  0
LINE
  8
0
 10
-4.8
 20
11.0
 30
0.0
 11
-4.8
 21
-11.0
 31
0.0
  0
LINE
  8
0
 10
13.3
 20
11.0
 30
0.0
 11
13.3
 21
-11.0
 31
0.0
  0
ENDBLK
  8
0
  0
BLOCK
  8
0
  2
WMF041
 70
    64
 10
0.0
 20
0.0
 30
0.0
  3
WMF041
  0
LINE
  8
0
 10
-15.0
 20
-13.0
 30
0.0
 11
6.0
 21
-13.0
 31
0.0
  0
LINE
  8
0
 10
-16.0
 20
-12.0
 30
0.0
 11
-16.0
 21
12.0
 31
0.0
  0
LINE
  8
0
 10
7.0
 20
-12.0
 30
0.0
 11
7.0
 21
12.0
 31
0.0
  0
CIRCLE
  8
0
 10
12.0
 20
0.0
 30
0.0
 40
2.40047
  0
ARC
  8
0
 10
12.0
 20
0.0
 30
0.0
 40
5.0
 50
270.0
 51
90.0
  0
LINE
  8
0
 10
12.0
 20
5.0
 30
0.0
 11
7.0
 21
5.0
 31
0.0
  0
LINE
  8
0
 10
12.0
 20
-5.0
 30
0.0
 11
7.0
 21
-5.0
 31
0.0
  0
LINE
  8
0
 10
6.0
 20
13.0
 30
0.0
 11
-15.0
 21
13.0
 31
0.0
  0
LINE
  8
0
 10
-16.0
 20
12.0
 30
0.0
 11
-15.0
 21
13.0
 31
0.0
  0
LINE
  8
0
 10
6.0
 20
13.0
 30
0.0
 11
7.0
 21
12.0
 31
0.0
  0
LINE
  8
0
 10
7.0
 20
-12.0
 30
0.0
 11
6.0
 21
-13.0
 31
0.0
  0
LINE
  8
0
 10
-16.0
 20
-12.0
 30
0.0
 11
-15.0
 21
-13.0
 31
0.0
  0
LINE
  8
0
 10
6.0
 20
13.0
 30
0.0
 11
6.0
 21
-13.0
 31
0.0
  0
LINE
  8
0
 10
-15.0
 20
13.0
 30
0.0
 11
-15.0
 21
-13.0
 31
0.0
  0
LINE
  8
0
  6
HIDDEN
 10
0.0
 20
-6.0
 30
0.0
 11
0.0
 21
6.0
 31
0.0
  0
LINE
  8
0
  6
HIDDEN
 10
0.0
 20
6.0
 30
0.0
 11
-16.0
 21
6.0
 31
0.0
  0
LINE
  8
0
  6
HIDDEN
 10
0.0
 20
-6.0
 30
0.0
 11
-16.0
 21
-6.0
 31
0.0
  0
ENDBLK
  8
0
  0
BLOCK
  8
0
  2
WMF042
 70
    64
 10
0.0
 20
0.0
 30
0.0
  3
WMF042
  0
LINE
  8
0
 10
16.0
 20
-12.0
 30
0.0
 11
16.0
 21
12.0
 31
0.0
  0
LINE
  8
0
 10
15.0
 20
13.0
 30
0.0
 11
-6.0
 21
13.0
 31
0.0
  0
LINE
  8
0
 10
-7.0
 20
-12.0
 30
0.0
 11
-7.0
 21
12.0
 31
0.0
  0
LINE
  8
0
 10
-19.0
 20
-7.0
 30
0.0
 11
-19.0
 21
7.0
 31
0.0
  0
LINE
  8
0
 10
-19.0
 20
7.0
 30
0.0
 11
-7.0
 21
7.0
 31
0.0
  0
LINE
  8
0
 10
-19.0
 20
-7.0
 30
0.0
 11
-7.0
 21
-7.0
 31
0.0
  0
LINE
  8
0
 10
-18.5
 20
8.0
 30
0.0
 11
-7.0
 21
8.0
 31
0.0
  0
LINE
  8
0
 10
-18.5
 20
-8.0
 30
0.0
 11
-7.0
 21
-8.0
 31
0.0
  0
LINE
  8
0
 10
-18.5
 20
-8.0
 30
0.0
 11
-18.5
 21
-7.0
 31
0.0
  0
LINE
  8
0
 10
-18.5
 20
7.0
 30
0.0
 11
-18.5
 21
8.0
 31
0.0
  0
ARC
  8
0
 10
-7.975196
 20
-29.748037
 30
0.0
 40
40.759705
 50
88.629039
 51
102.792147
  0
ARC
  8
0
 10
-7.975196
 20
29.748037
 30
0.0
 40
40.759705
 50
257.207853
 51
271.370961
  0
LINE
  8
0
 10
-6.0
 20
-13.0
 30
0.0
 11
15.0
 21
-13.0
 31
0.0
  0
LINE
  8
0
 10
-7.0
 20
12.0
 30
0.0
 11
-6.0
 21
13.0
 31
0.0
  0
LINE
  8
0
 10
-7.0
 20
-12.0
 30
0.0
 11
-6.0
 21
-13.0
 31
0.0
  0
LINE
  8
0
 10
15.0
 20
-13.0
 30
0.0
 11
16.0
 21
-12.0
 31
0.0
  0
LINE
  8
0
 10
15.0
 20
13.0
 30
0.0
 11
16.0
 21
12.0
 31
0.0
  0
CIRCLE
  8
0
 10
-12.0
 20
0.0
 30
0.0
 40
0.940477
  0
LINE
  8
0
 10
-17.0
 20
10.0
 30
0.0
 11
-17.0
 21
8.0
 31
0.0
  0
LINE
  8
0
 10
-17.0
 20
-10.0
 30
0.0
 11
-17.0
 21
-8.0
 31
0.0
  0
LINE
  8
0
 10
-6.0
 20
13.0
 30
0.0
 11
-6.0
 21
-13.0
 31
0.0
  0
LINE
  8
0
 10
15.0
 20
13.0
 30
0.0
 11
15.0
 21
-13.0
 31
0.0
  0
ARC
  8
0
 10
-12.0
 20
0.0
 30
0.0
 40
6.5
 50
39.715137
 51
320.284863
  0
ARC
  8
0
 10
-6.577552
 20
-52.22564
 30
0.0
 40
62.241815
 50
90.388881
 51
99.639642
  0
ARC
  8
0
 10
-6.577552
 20
52.22564
 30
0.0
 40
62.241815
 50
260.360358
 51
269.611119
  0
LINE
  8
0
  6
HIDDEN
 10
0.0
 20
6.0
 30
0.0
 11
16.0
 21
6.0
 31
0.0
  0
LINE
  8
0
  6
HIDDEN
 10
0.0
 20
-6.0
 30
0.0
 11
16.0
 21
-6.0
 31
0.0
  0
LINE
  8
0
  6
HIDDEN
 10
0.0
 20
6.0
 30
0.0
 11
0.0
 21
-6.0
 31
0.0
  0
ENDBLK
  8
0
  0
BLOCK
  8
0
  2
WMF051
 70
    64
 10
0.0
 20
0.0
 30
0.0
  3
WMF051
  0
LINE
  8
0
  6
DASHED
 10
0.0
 20
-7.0
 30
0.0
 11
0.0
 21
7.0
 31
0.0
  0
LINE
  8
0
  6
DASHED
 10
-15.0
 20
-7.0
 30
0.0
 11
0.0
 21
-7.0
 31
0.0
  0
LINE
  8
0
  6
DASHED
 10
-15.0
 20
7.0
 30
0.0
 11
0.0
 21
7.0
 31
0.0
  0
LINE
  8
0
 10
-13.5
 20
-14.5
 30
0.0
 11
8.0
 21
-14.5
 31
0.0
  0
LINE
  8
0
 10
-15.0
 20
-13.0
 30
0.0
 11
-15.0
 21
13.0
 31
0.0
  0
LINE
  8
0
 10
9.5
 20
-13.0
 30
0.0
 11
9.5
 21
13.0
 31
0.0
  0
LINE
  8
0
 10
8.0
 20
14.5
 30
0.0
 11
-13.5
 21
14.5
 31
0.0
  0
ARC
  8
0
 10
15.0
 20
0.0
 30
0.0
 40
6.0
 50
269.999999
 51
90.000001
  0
LINE
  8
0
 10
15.0
 20
6.0
 30
0.0
 11
9.5
 21
6.0
 31
0.0
  0
LINE
  8
0
 10
15.0
 20
-6.0
 30
0.0
 11
9.5
 21
-6.0
 31
0.0
  0
CIRCLE
  8
0
 10
15.0
 20
0.0
 30
0.0
 40
2.0
  0
LINE
  8
0
 10
8.0
 20
-14.5
 30
0.0
 11
8.0
 21
14.5
 31
0.0
  0
LINE
  8
0
 10
-13.5
 20
-14.5
 30
0.0
 11
-13.5
 21
14.5
 31
0.0
  0
LINE
  8
0
 10
-15.0
 20
13.0
 30
0.0
 11
-13.5
 21
14.5
 31
0.0
  0
LINE
  8
0
 10
-15.0
 20
-13.0
 30
0.0
 11
-13.5
 21
-14.5
 31
0.0
  0
LINE
  8
0
 10
8.0
 20
-14.5
 30
0.0
 11
9.5
 21
-13.0
 31
0.0
  0
LINE
  8
0
 10
9.5
 20
13.0
 30
0.0
 11
8.0
 21
14.5
 31
0.0
  0
ENDBLK
  8
0
  0
BLOCK
  8
0
  2
WMF052
 70
    64
 10
0.0
 20
0.0
 30
0.0
  3
WMF052
  0
LINE
  8
0
  6
DASHED
 10
15.0
 20
7.0
 30
0.0
 11
0.0
 21
7.0
 31
0.0
  0
LINE
  8
0
  6
DASHED
 10
15.0
 20
-7.0
 30
0.0
 11
0.0
 21
-7.0
 31
0.0
  0
LINE
  8
0
  6
DASHED
 10
0.0
 20
-7.0
 30
0.0
 11
0.0
 21
7.0
 31
0.0
  0
LINE
  8
0
 10
15.0
 20
-13.0
 30
0.0
 11
15.0
 21
13.0
 31
0.0
  0
LINE
  8
0
 10
13.5
 20
14.5
 30
0.0
 11
-8.0
 21
14.5
 31
0.0
  0
LINE
  8
0
 10
-9.5
 20
-13.0
 30
0.0
 11
-9.5
 21
13.0
 31
0.0
  0
LINE
  8
0
 10
-8.0
 20
-14.5
 30
0.0
 11
13.5
 21
-14.5
 31
0.0
  0
ARC
  8
0
 10
-15.0
 20
0.0
 30
0.0
 40
7.5
 50
42.833428
 51
317.166572
  0
LINE
  8
0
 10
-22.5
 20
7.5
 30
0.0
 11
-9.5
 21
7.5
 31
0.0
  0
LINE
  8
0
 10
-22.5
 20
-7.5
 30
0.0
 11
-9.5
 21
-7.5
 31
0.0
  0
LINE
  8
0
 10
-22.5
 20
-9.0
 30
0.0
 11
-22.5
 21
9.0
 31
0.0
  0
LINE
  8
0
 10
-22.5
 20
9.0
 30
0.0
 11
-9.5
 21
9.0
 31
0.0
  0
LINE
  8
0
 10
-22.5
 20
-9.0
 30
0.0
 11
-9.5
 21
-9.0
 31
0.0
  0
CIRCLE
  8
0
 10
-15.0
 20
0.0
 30
0.0
 40
1.0
  0
LINE
  8
0
 10
-21.5
 20
9.0
 30
0.0
 11
-21.5
 21
11.0
 31
0.0
  0
ARC
  8
0
 10
-9.688942
 20
-34.738462
 30
0.0
 40
47.23884
 50
89.770832
 51
104.4792
  0
ARC
  8
0
 10
-9.688942
 20
-35.56655
 30
0.0
 40
47.23884
 50
89.770832
 51
104.4792
  0
ARC
  8
0
 10
-9.688942
 20
35.56655
 30
0.0
 40
47.23884
 50
255.5208
 51
270.229168
  0
ARC
  8
0
 10
-9.688942
 20
34.738462
 30
0.0
 40
47.23884
 50
255.5208
 51
270.229168
  0
LINE
  8
0
 10
-21.5
 20
-9.0
 30
0.0
 11
-21.5
 21
-11.0
 31
0.0
  0
LINE
  8
0
 10
-8.0
 20
-14.5
 30
0.0
 11
-8.0
 21
14.5
 31
0.0
  0
LINE
  8
0
 10
13.5
 20
-14.5
 30
0.0
 11
13.5
 21
14.5
 31
0.0
  0
LINE
  8
0
 10
-9.5
 20
13.0
 30
0.0
 11
-8.0
 21
14.5
 31
0.0
  0
LINE
  8
0
 10
13.5
 20
14.5
 30
0.0
 11
15.0
 21
13.0
 31
0.0
  0
LINE
  8
0
 10
15.0
 20
-13.0
 30
0.0
 11
13.5
 21
-14.5
 31
0.0
  0
LINE
  8
0
 10
-8.0
 20
-14.5
 30
0.0
 11
-9.5
 21
-13.0
 31
0.0
  0
ENDBLK
  8
0
  0
BLOCK
  8
0
  2
WMF11
 70
    64
 10
0.0
 20
0.0
 30
0.0
  3
WMF11
  0
LINE
  8
0
  6
DASHED
 10
0.0
 20
-8.0
 30
0.0
 11
0.0
 21
8.0
 31
0.0
  0
LINE
  8
0
  6
DASHED
 10
-20.0
 20
-8.0
 30
0.0
 11
0.0
 21
-8.0
 31
0.0
  0
LINE
  8
0
  6
DASHED
 10
-20.0
 20
8.0
 30
0.0
 11
0.0
 21
8.0
 31
0.0
  0
LINE
  8
0
 10
6.7
 20
16.0
 30
0.0
 11
6.7
 21
-16.0
 31
0.0
  0
LINE
  8
0
 10
-19.0
 20
16.0
 30
0.0
 11
-19.0
 21
-16.0
 31
0.0
  0
CIRCLE
  8
0
 10
14.0
 20
0.0
 30
0.0
 40
2.0
  0
LINE
  8
0
 10
6.7
 20
16.0
 30
0.0
 11
7.7
 21
15.0
 31
0.0
  0
LINE
  8
0
 10
6.7
 20
-16.0
 30
0.0
 11
7.7
 21
-15.0
 31
0.0
  0
LINE
  8
0
 10
-20.0
 20
-15.0
 30
0.0
 11
-19.0
 21
-16.0
 31
0.0
  0
LINE
  8
0
 10
-20.0
 20
15.0
 30
0.0
 11
-19.0
 21
16.0
 31
0.0
  0
ARC
  8
0
 10
14.0
 20
0.0
 30
0.0
 40
7.0
 50
269.999986
 51
90.000014
  0
LINE
  8
0
 10
7.7
 20
-7.0
 30
0.0
 11
13.999999
 21
-7.0
 31
0.0
  0
LINE
  8
0
 10
7.7
 20
7.0
 30
0.0
 11
13.999999
 21
7.0
 31
0.0
  0
LINE
  8
0
 10
7.7
 20
-15.0
 30
0.0
 11
7.7
 21
15.0
 31
0.0
  0
LINE
  8
0
 10
-19.0
 20
-16.0
 30
0.0
 11
6.7
 21
-16.0
 31
0.0
  0
LINE
  8
0
 10
-19.0
 20
16.0
 30
0.0
 11
6.7
 21
16.0
 31
0.0
  0
LINE
  8
0
 10
-20.0
 20
-15.0
 30
0.0
 11
-20.0
 21
15.0
 31
0.0
  0
ENDBLK
  8
0
  0
BLOCK
  8
0
  2
WMF12
 70
    64
 10
0.0
 20
0.0
 30
0.0
  3
WMF12
  0
LINE
  8
0
  6
DASHED
 10
20.0
 20
8.0
 30
0.0
 11
0.0
 21
8.0
 31
0.0
  0
LINE
  8
0
  6
DASHED
 10
20.0
 20
-8.0
 30
0.0
 11
0.0
 21
-8.0
 31
0.0
  0
LINE
  8
0
  6
DASHED
 10
0.0
 20
-8.0
 30
0.0
 11
0.0
 21
8.0
 31
0.0
  0
LINE
  8
0
 10
19.0
 20
16.0
 30
0.0
 11
19.0
 21
-16.0
 31
0.0
  0
LINE
  8
0
 10
-6.7
 20
16.0
 30
0.0
 11
-6.7
 21
-16.0
 31
0.0
  0
LINE
  8
0
 10
-21.0
 20
-10.0
 30
0.0
 11
-21.0
 21
-12.106292
 31
0.0
  0
ARC
  8
0
 10
-9.68986
 20
19.676215
 30
0.0
 40
33.734953
 50
250.411363
 51
273.381561
  0
ARC
  8
0
 10
-9.68986
 20
20.498481
 30
0.0
 40
33.734953
 50
250.411363
 51
273.381561
  0
ARC
  8
0
 10
-9.68986
 20
-20.498481
 30
0.0
 40
33.734953
 50
86.618439
 51
109.588637
  0
ARC
  8
0
 10
-9.68986
 20
-19.676215
 30
0.0
 40
33.734953
 50
86.618439
 51
109.588637
  0
LINE
  8
0
 10
-21.0
 20
10.0
 30
0.0
 11
-21.0
 21
12.106292
 31
0.0
  0
LINE
  8
0
 10
-22.35
 20
-10.0
 30
0.0
 11
-7.7
 21
-10.0
 31
0.0
  0
LINE
  8
0
 10
-22.35
 20
10.0
 30
0.0
 11
-7.7
 21
10.0
 31
0.0
  0
LINE
  8
0
 10
-7.7
 20
-8.35
 30
0.0
 11
-22.35
 21
-8.35
 31
0.0
  0
LINE
  8
0
 10
-7.7
 20
8.35
 30
0.0
 11
-22.35
 21
8.35
 31
0.0
  0
LINE
  8
0
 10
-22.35
 20
-10.0
 30
0.0
 11
-22.35
 21
10.0
 31
0.0
  0
CIRCLE
  8
0
 10
-14.0
 20
0.0
 30
0.0
 40
1.0
  0
ARC
  8
0
 10
-14.0
 20
0.0
 30
0.0
 40
8.35
 50
41.019084
 51
318.980916
  0
LINE
  8
0
 10
-7.7
 20
-15.0
 30
0.0
 11
-6.7
 21
-16.0
 31
0.0
  0
LINE
  8
0
 10
20.0
 20
-15.0
 30
0.0
 11
19.0
 21
-16.0
 31
0.0
  0
LINE
  8
0
 10
19.0
 20
16.0
 30
0.0
 11
20.0
 21
15.0
 31
0.0
  0
LINE
  8
0
 10
-7.7
 20
15.0
 30
0.0
 11
-6.7
 21
16.0
 31
0.0
  0
LINE
  8
0
 10
-6.7
 20
-16.0
 30
0.0
 11
19.0
 21
-16.0
 31
0.0
  0
LINE
  8
0
 10
-6.7
 20
16.0
 30
0.0
 11
19.0
 21
16.0
 31
0.0
  0
LINE
  8
0
 10
-7.7
 20
-15.0
 30
0.0
 11
-7.7
 21
15.0
 31
0.0
  0
LINE
  8
0
 10
20.0
 20
-15.0
 30
0.0
 11
20.0
 21
15.0
 31
0.0
  0
ENDBLK
  8
0
  0
BLOCK
  8
0
  2
WMF21
 70
    64
 10
0.0
 20
0.0
 30
0.0
  3
WMF21
  0
LINE
  8
0
  6
DASHED
 10
0.0
 20
-9.0
 30
0.0
 11
0.0
 21
9.0
 31
0.0
  0
LINE
  8
0
  6
DASHED
 10
-21.0
 20
-9.0
 30
0.0
 11
0.0
 21
-9.0
 31
0.0
  0
LINE
  8
0
  6
DASHED
 10
-21.0
 20
9.0
 30
0.0
 11
0.0
 21
9.0
 31
0.0
  0
LINE
  8
0
 10
7.0
 20
18.5
 30
0.0
 11
7.0
 21
-18.5
 31
0.0
  0
LINE
  8
0
 10
-19.5
 20
18.5
 30
0.0
 11
-19.5
 21
-18.5
 31
0.0
  0
LINE
  8
0
 10
7.0
 20
-18.5
 30
0.0
 11
8.5
 21
-17.0
 31
0.0
  0
LINE
  8
0
 10
-21.0
 20
-17.0
 30
0.0
 11
-19.5
 21
-18.5
 31
0.0
  0
LINE
  8
0
 10
-19.5
 20
18.5
 30
0.0
 11
-21.0
 21
17.0
 31
0.0
  0
LINE
  8
0
 10
8.5
 20
17.0
 30
0.0
 11
7.0
 21
18.5
 31
0.0
  0
CIRCLE
  8
0
 10
16.0
 20
0.0
 30
0.0
 40
2.0
  0
ARC
  8
0
 10
16.0
 20
0.0
 30
0.0
 40
8.0
 50
270.0
 51
90.0
  0
LINE
  8
0
 10
8.5
 20
-8.0
 30
0.0
 11
16.0
 21
-8.0
 31
0.0
  0
LINE
  8
0
 10
8.5
 20
8.0
 30
0.0
 11
16.0
 21
8.0
 31
0.0
  0
LINE
  8
0
 10
8.5
 20
-17.0
 30
0.0
 11
8.5
 21
17.0
 31
0.0
  0
LINE
  8
0
 10
-21.0
 20
-17.0
 30
0.0
 11
-21.0
 21
17.0
 31
0.0
  0
LINE
  8
0
 10
-19.5
 20
-18.5
 30
0.0
 11
7.0
 21
-18.5
 31
0.0
  0
LINE
  8
0
 10
-19.5
 20
18.5
 30
0.0
 11
7.0
 21
18.5
 31
0.0
  0
ENDBLK
  8
0
  0
BLOCK
  8
0
  2
WMF22
 70
    64
 10
0.0
 20
0.0
 30
0.0
  3
WMF22
  0
LINE
  8
0
  6
DASHED
 10
21.0
 20
9.0
 30
0.0
 11
0.0
 21
9.0
 31
0.0
  0
LINE
  8
0
  6
DASHED
 10
21.0
 20
-9.0
 30
0.0
 11
0.0
 21
-9.0
 31
0.0
  0
LINE
  8
0
  6
DASHED
 10
0.0
 20
-9.0
 30
0.0
 11
0.0
 21
9.0
 31
0.0
  0
LINE
  8
0
 10
19.5
 20
18.5
 30
0.0
 11
19.5
 21
-18.5
 31
0.0
  0
LINE
  8
0
 10
-7.0
 20
18.5
 30
0.0
 11
-7.0
 21
-18.5
 31
0.0
  0
ARC
  8
0
 10
-16.0
 20
0.0
 30
0.0
 40
9.25
 50
35.824774
 51
324.175226
  0
LINE
  8
0
 10
-24.0
 20
-11.0
 30
0.0
 11
-24.0
 21
-13.0
 31
0.0
  0
ARC
  8
0
 10
-9.531729
 20
20.211069
 30
0.0
 40
36.225764
 50
246.45984
 51
271.632034
  0
ARC
  8
0
 10
-8.267987
 20
66.640565
 30
0.0
 40
80.701813
 50
258.75878
 51
269.835278
  0
ARC
  8
0
 10
-8.267987
 20
-66.640565
 30
0.0
 40
80.701813
 50
90.164722
 51
101.24122
  0
LINE
  8
0
 10
19.5
 20
-18.5
 30
0.0
 11
21.0
 21
-17.0
 31
0.0
  0
LINE
  8
0
 10
-8.5
 20
-17.0
 30
0.0
 11
-7.0
 21
-18.5
 31
0.0
  0
LINE
  8
0
 10
19.5
 20
18.5
 30
0.0
 11
21.0
 21
17.0
 31
0.0
  0
LINE
  8
0
 10
-8.5
 20
17.0
 30
0.0
 11
-7.0
 21
18.5
 31
0.0
  0
ARC
  8
0
 10
-9.531729
 20
-20.211069
 30
0.0
 40
36.225764
 50
88.367966
 51
113.54016
  0
LINE
  8
0
 10
-24.0
 20
11.0
 30
0.0
 11
-24.0
 21
13.0
 31
0.0
  0
LINE
  8
0
 10
-25.25
 20
-11.0
 30
0.0
 11
-8.5
 21
-11.0
 31
0.0
  0
LINE
  8
0
 10
-25.25
 20
11.0
 30
0.0
 11
-8.5
 21
11.0
 31
0.0
  0
LINE
  8
0
 10
-25.25
 20
-11.0
 30
0.0
 11
-25.25
 21
11.0
 31
0.0
  0
LINE
  8
0
 10
-25.25
 20
-9.25
 30
0.0
 11
-8.5
 21
-9.25
 31
0.0
  0
LINE
  8
0
 10
-25.25
 20
9.25
 30
0.0
 11
-8.5
 21
9.25
 31
0.0
  0
CIRCLE
  8
0
 10
-16.0
 20
0.0
 30
0.0
 40
1.0
  0
LINE
  8
0
 10
-7.0
 20
-18.5
 30
0.0
 11
19.5
 21
-18.5
 31
0.0
  0
LINE
  8
0
 10
-7.0
 20
18.5
 30
0.0
 11
19.5
 21
18.5
 31
0.0
  0
LINE
  8
0
 10
-8.5
 20
-17.0
 30
0.0
 11
-8.5
 21
17.0
 31
0.0
  0
LINE
  8
0
 10
21.0
 20
-17.0
 30
0.0
 11
21.0
 21
17.0
 31
0.0
  0
ENDBLK
  8
0
  0
BLOCK
  8
0
  2
WMF31
 70
    64
 10
0.0
 20
0.0
 30
0.0
  3
WMF31
  0
LINE
  8
0
  6
DASHED
 10
0.0
 20
-10.0
 30
0.0
 11
0.0
 21
10.0
 31
0.0
  0
LINE
  8
0
  6
DASHED
 10
-23.0
 20
-10.0
 30
0.0
 11
0.0
 21
-10.0
 31
0.0
  0
LINE
  8
0
  6
DASHED
 10
-23.0
 20
10.0
 30
0.0
 11
0.0
 21
10.0
 31
0.0
  0
LINE
  8
0
 10
-21.5
 20
-21.0
 30
0.0
 11
7.5
 21
-21.0
 31
0.0
  0
LINE
  8
0
 10
-23.0
 20
-19.5
 30
0.0
 11
-23.0
 21
19.5
 31
0.0
  0
LINE
  8
0
 10
9.0
 20
-19.5
 30
0.0
 11
9.0
 21
19.5
 31
0.0
  0
LINE
  8
0
 10
7.5
 20
21.0
 30
0.0
 11
-21.5
 21
21.0
 31
0.0
  0
ARC
  8
0
 10
18.0
 20
0.0
 30
0.0
 40
9.0
 50
269.999996
 51
90.000004
  0
LINE
  8
0
 10
18.0
 20
9.0
 30
0.0
 11
9.0
 21
9.0
 31
0.0
  0
LINE
  8
0
 10
18.0
 20
-9.0
 30
0.0
 11
9.0
 21
-9.0
 31
0.0
  0
CIRCLE
  8
0
 10
18.0
 20
0.0
 30
0.0
 40
2.5
  0
LINE
  8
0
 10
-21.5
 20
-21.0
 30
0.0
 11
-21.5
 21
21.0
 31
0.0
  0
LINE
  8
0
 10
7.5
 20
-21.0
 30
0.0
 11
7.5
 21
21.0
 31
0.0
  0
LINE
  8
0
 10
-23.0
 20
19.5
 30
0.0
 11
-21.5
 21
21.0
 31
0.0
  0
LINE
  8
0
 10
7.5
 20
21.0
 30
0.0
 11
9.0
 21
19.5
 31
0.0
  0
LINE
  8
0
 10
9.0
 20
-19.5
 30
0.0
 11
7.5
 21
-21.0
 31
0.0
  0
LINE
  8
0
 10
-21.5
 20
-21.0
 30
0.0
 11
-23.0
 21
-19.5
 31
0.0
  0
ENDBLK
  8
0
  0
BLOCK
  8
0
  2
WMF32
 70
    64
 10
0.0
 20
0.0
 30
0.0
  3
WMF32
  0
LINE
  8
0
  6
DASHED
 10
23.0
 20
10.0
 30
0.0
 11
0.0
 21
10.0
 31
0.0
  0
LINE
  8
0
  6
DASHED
 10
23.0
 20
-10.0
 30
0.0
 11
0.0
 21
-10.0
 31
0.0
  0
LINE
  8
0
  6
DASHED
 10
0.0
 20
-10.0
 30
0.0
 11
0.0
 21
10.0
 31
0.0
  0
LINE
  8
0
 10
23.0
 20
-19.5
 30
0.0
 11
23.0
 21
19.5
 31
0.0
  0
LINE
  8
0
 10
21.5
 20
21.0
 30
0.0
 11
-7.5
 21
21.0
 31
0.0
  0
LINE
  8
0
 10
-9.0
 20
-19.5
 30
0.0
 11
-9.0
 21
19.5
 31
0.0
  0
LINE
  8
0
 10
-7.5
 20
-21.0
 30
0.0
 11
21.5
 21
-21.0
 31
0.0
  0
CIRCLE
  8
0
 10
-18.0
 20
0.0
 30
0.0
 40
1.25
  0
LINE
  8
0
 10
-7.5
 20
-21.0
 30
0.0
 11
-7.5
 21
21.0
 31
0.0
  0
LINE
  8
0
 10
21.5
 20
-21.0
 30
0.0
 11
21.5
 21
21.0
 31
0.0
  0
LINE
  8
0
 10
-9.0
 20
-19.5
 30
0.0
 11
-7.5
 21
-21.0
 31
0.0
  0
LINE
  8
0
 10
21.5
 20
-21.0
 30
0.0
 11
23.0
 21
-19.5
 31
0.0
  0
LINE
  8
0
 10
23.0
 20
19.5
 30
0.0
 11
21.5
 21
21.0
 31
0.0
  0
LINE
  8
0
 10
-7.5
 20
21.0
 30
0.0
 11
-9.0
 21
19.5
 31
0.0
  0
LINE
  8
0
 10
-28.5
 20
10.5
 30
0.0
 11
-9.0
 21
10.5
 31
0.0
  0
LINE
  8
0
 10
-28.5
 20
-10.5
 30
0.0
 11
-9.0
 21
-10.5
 31
0.0
  0
LINE
  8
0
 10
-28.5
 20
-10.5
 30
0.0
 11
-28.5
 21
10.5
 31
0.0
  0
ARC
  8
0
 10
-18.0
 20
0.0
 30
0.0
 40
10.25
 50
28.592123
 51
331.407877
  0
LINE
  8
0
 10
-28.25
 20
-12.5
 30
0.0
 11
-28.25
 21
-10.5
 31
0.0
  0
LINE
  8
0
 10
-28.25
 20
12.5
 30
0.0
 11
-9.0
 21
12.5
 31
0.0
  0
LINE
  8
0
 10
-28.25
 20
-12.5
 30
0.0
 11
-9.0
 21
-12.5
 31
0.0
  0
LINE
  8
0
 10
-28.25
 20
10.5
 30
0.0
 11
-28.25
 21
12.5
 31
0.0
  0
LINE
  8
0
 10
-27.0
 20
12.5
 30
0.0
 11
-27.0
 21
14.5
 31
0.0
  0
ARC
  8
0
 10
-9.907408
 20
-25.369045
 30
0.0
 40
43.378537
 50
88.801379
 51
113.205703
  0
ARC
  8
0
 10
-12.736144
 20
-112.049187
 30
0.0
 40
127.350518
 50
88.318845
 51
96.43089
  0
ARC
  8
0
 10
-12.736144
 20
112.049187
 30
0.0
 40
127.350518
 50
263.56911
 51
271.681155
  0
ARC
  8
0
 10
-9.907408
 20
25.369045
 30
0.0
 40
43.378537
 50
246.794297
 51
271.198621
  0
LINE
  8
0
 10
-27.0
 20
-12.5
 30
0.0
 11
-27.0
 21
-14.5
 31
0.0
  0
ENDBLK
  8
0
  0
BLOCK
  8
0
  2
WMF41
 70
    64
 10
0.0
 20
0.0
 30
0.0
  3
WMF41
  0
LINE
  8
0
  6
DASHED
 10
0.0
 20
11.0
 30
0.0
 11
0.0
 21
-11.0
 31
0.0
  0
LINE
  8
0
  6
DASHED
 10
-25.0
 20
-11.0
 30
0.0
 11
0.0
 21
-11.0
 31
0.0
  0
LINE
  8
0
  6
DASHED
 10
-25.0
 20
11.0
 30
0.0
 11
0.0
 21
11.0
 31
0.0
  0
LINE
  8
0
 10
11.7
 20
23.5
 30
0.0
 11
11.7
 21
-23.5
 31
0.0
  0
LINE
  8
0
 10
-24.0
 20
23.5
 30
0.0
 11
-24.0
 21
-23.5
 31
0.0
  0
LINE
  8
0
 10
11.7
 20
-23.5
 30
0.0
 11
12.7
 21
-22.5
 31
0.0
  0
LINE
  8
0
 10
-25.0
 20
-22.5
 30
0.0
 11
-24.0
 21
-23.5
 31
0.0
  0
LINE
  8
0
 10
11.7
 20
23.5
 30
0.0
 11
12.7
 21
22.5
 31
0.0
  0
LINE
  8
0
 10
-25.0
 20
22.5
 30
0.0
 11
-24.0
 21
23.5
 31
0.0
  0
CIRCLE
  8
0
 10
22.5
 20
0.0
 30
0.0
 40
3.0
  0
LINE
  8
0
 10
22.5
 20
-10.0
 30
0.0
 11
12.7
 21
-10.0
 31
0.0
  0
LINE
  8
0
 10
22.5
 20
10.0
 30
0.0
 11
12.7
 21
10.0
 31
0.0
  0
ARC
  8
0
 10
22.5
 20
0.0
 30
0.0
 40
10.0
 50
269.999983
 51
90.000017
  0
LINE
  8
0
 10
12.7
 20
22.5
 30
0.0
 11
12.7
 21
-22.5
 31
0.0
  0
LINE
  8
0
 10
-25.0
 20
22.5
 30
0.0
 11
-25.0
 21
-22.5
 31
0.0
  0
LINE
  8
0
 10
-24.0
 20
23.5
 30
0.0
 11
11.7
 21
23.5
 31
0.0
  0
LINE
  8
0
 10
-24.0
 20
-23.5
 30
0.0
 11
11.7
 21
-23.5
 31
0.0
  0
ENDBLK
  8
0
  0
BLOCK
  8
0
  2
WMF42
 70
    64
 10
0.0
 20
0.0
 30
0.0
  3
WMF42
  0
LINE
  8
0
 10
25.0
 20
22.5
 30
0.0
 11
25.0
 21
-22.5
 31
0.0
  0
LINE
  8
0
 10
-12.7
 20
22.5
 30
0.0
 11
-12.7
 21
-22.5
 31
0.0
  0
LINE
  8
0
 10
-11.7
 20
23.5
 30
0.0
 11
24.0
 21
23.5
 31
0.0
  0
LINE
  8
0
 10
-11.7
 20
-23.5
 30
0.0
 11
24.0
 21
-23.5
 31
0.0
  0
CIRCLE
  8
0
 10
-22.5
 20
0.0
 30
0.0
 40
1.5
  0
LINE
  8
0
 10
-34.0
 20
11.5
 30
0.0
 11
-12.7
 21
11.5
 31
0.0
  0
LINE
  8
0
 10
-34.0
 20
-11.5
 30
0.0
 11
-12.7
 21
-11.5
 31
0.0
  0
LINE
  8
0
 10
-34.0
 20
14.0
 30
0.0
 11
-34.0
 21
-14.0
 31
0.0
  0
LINE
  8
0
 10
-34.0
 20
14.0
 30
0.0
 11
-12.7
 21
14.0
 31
0.0
  0
LINE
  8
0
 10
-34.0
 20
-14.0
 30
0.0
 11
-12.7
 21
-14.0
 31
0.0
  0
ARC
  8
0
 10
-22.5
 20
0.0
 30
0.0
 40
11.5
 50
31.551091
 51
328.448909
  0
LINE
  8
0
 10
-32.5
 20
16.75
 30
0.0
 11
-32.5
 21
14.0
 31
0.0
  0
ARC
  8
0
 10
-13.507504
 20
-37.019282
 30
0.0
 40
57.025
 50
89.188634
 51
109.454344
  0
ARC
  8
0
 10
-15.507673
 20
-54.44162
 30
0.0
 40
71.999118
 50
87.76513
 51
103.651015
  0
ARC
  8
0
 10
-15.507673
 20
54.44162
 30
0.0
 40
71.999118
 50
256.348985
 51
272.23487
  0
ARC
  8
0
 10
-13.507504
 20
37.019282
 30
0.0
 40
57.025
 50
250.545656
 51
270.811366
  0
LINE
  8
0
 10
-32.5
 20
-16.75
 30
0.0
 11
-32.5
 21
-14.0
 31
0.0
  0
LINE
  8
0
 10
24.0
 20
23.5
 30
0.0
 11
25.0
 21
22.5
 31
0.0
  0
LINE
  8
0
 10
-11.7
 20
23.5
 30
0.0
 11
-12.7
 21
22.5
 31
0.0
  0
LINE
  8
0
 10
-12.7
 20
-22.5
 30
0.0
 11
-11.7
 21
-23.5
 31
0.0
  0
LINE
  8
0
 10
24.0
 20
-23.5
 30
0.0
 11
25.0
 21
-22.5
 31
0.0
  0
LINE
  8
0
 10
-11.7
 20
23.5
 30
0.0
 11
-11.7
 21
-23.5
 31
0.0
  0
LINE
  8
0
 10
24.0
 20
23.5
 30
0.0
 11
24.0
 21
-23.5
 31
0.0
  0
LINE
  8
0
  6
DASHED
 10
0.0
 20
11.0
 30
0.0
 11
0.0
 21
-11.0
 31
0.0
  0
LINE
  8
0
  6
DASHED
 10
25.0
 20
-11.0
 30
0.0
 11
0.0
 21
-11.0
 31
0.0
  0
LINE
  8
0
  6
DASHED
 10
25.0
 20
11.0
 30
0.0
 11
0.0
 21
11.0
 31
0.0
  0
ENDBLK
  8
0
  0
BLOCK
  8
0
  2
WMF51
 70
    64
 10
0.0
 20
0.0
 30
0.0
  3
WMF51
  0
LINE
  8
0
  6
DASHED
 10
0.0
 20
-12.5
 30
0.0
 11
0.0
 21
12.5
 31
0.0
  0
LINE
  8
0
  6
DASHED
 10
-29.0
 20
-12.5
 30
0.0
 11
0.0
 21
-12.5
 31
0.0
  0
LINE
  8
0
  6
DASHED
 10
-29.0
 20
12.5
 30
0.0
 11
0.0
 21
12.5
 31
0.0
  0
LINE
  8
0
 10
12.0
 20
-26.0
 30
0.0
 11
14.0
 21
-24.0
 31
0.0
  0
LINE
  8
0
 10
-29.0
 20
-24.0
 30
0.0
 11
-27.0
 21
-26.0
 31
0.0
  0
LINE
  8
0
 10
12.0
 20
26.0
 30
0.0
 11
14.0
 21
24.0
 31
0.0
  0
LINE
  8
0
 10
-29.0
 20
24.0
 30
0.0
 11
-27.0
 21
26.0
 31
0.0
  0
LINE
  8
0
 10
12.0
 20
-26.0
 30
0.0
 11
12.0
 21
26.0
 31
0.0
  0
LINE
  8
0
 10
-27.0
 20
-26.0
 30
0.0
 11
-27.0
 21
26.0
 31
0.0
  0
CIRCLE
  8
0
 10
25.0
 20
0.0
 30
0.0
 40
3.25
  0
LINE
  8
0
 10
25.0
 20
-11.0
 30
0.0
 11
14.0
 21
-11.0
 31
0.0
  0
LINE
  8
0
 10
25.0
 20
11.0
 30
0.0
 11
14.0
 21
11.0
 31
0.0
  0
ARC
  8
0
 10
25.0
 20
0.0
 30
0.0
 40
11.0
 50
270.0
 51
90.000001
  0
LINE
  8
0
 10
12.0
 20
26.0
 30
0.0
 11
-27.0
 21
26.0
 31
0.0
  0
LINE
  8
0
 10
14.0
 20
-24.0
 30
0.0
 11
14.0
 21
24.0
 31
0.0
  0
LINE
  8
0
 10
-29.0
 20
-24.0
 30
0.0
 11
-29.0
 21
24.0
 31
0.0
  0
LINE
  8
0
 10
-27.0
 20
-26.0
 30
0.0
 11
12.0
 21
-26.0
 31
0.0
  0
ENDBLK
  8
0
  0
BLOCK
  8
0
  2
WMF52
 70
    64
 10
0.0
 20
0.0
 30
0.0
  3
WMF52
  0
LINE
  8
0
  6
DASHED
 10
29.0
 20
12.5
 30
0.0
 11
0.0
 21
12.5
 31
0.0
  0
LINE
  8
0
  6
DASHED
 10
29.0
 20
-12.5
 30
0.0
 11
0.0
 21
-12.5
 31
0.0
  0
LINE
  8
0
  6
DASHED
 10
0.0
 20
-12.5
 30
0.0
 11
0.0
 21
12.5
 31
0.0
  0
LINE
  8
0
 10
27.0
 20
-26.0
 30
0.0
 11
29.0
 21
-24.0
 31
0.0
  0
LINE
  8
0
 10
-14.0
 20
-24.0
 30
0.0
 11
-12.0
 21
-26.0
 31
0.0
  0
LINE
  8
0
 10
27.0
 20
26.0
 30
0.0
 11
29.0
 21
24.0
 31
0.0
  0
LINE
  8
0
 10
-14.0
 20
24.0
 30
0.0
 11
-12.0
 21
26.0
 31
0.0
  0
LINE
  8
0
 10
27.0
 20
-26.0
 30
0.0
 11
27.0
 21
26.0
 31
0.0
  0
LINE
  8
0
 10
-12.0
 20
-26.0
 30
0.0
 11
-12.0
 21
26.0
 31
0.0
  0
LINE
  8
0
 10
-36.0
 20
-16.0
 30
0.0
 11
-36.0
 21
-19.0
 31
0.0
  0
ARC
  8
0
 10
-16.765427
 20
31.010175
 30
0.0
 40
53.581586
 50
248.962598
 51
272.958436
  0
ARC
  8
0
 10
-14.422776
 20
157.861605
 30
0.0
 40
178.172961
 50
263.044254
 51
270.135954
  0
ARC
  8
0
 10
-14.422776
 20
-157.861605
 30
0.0
 40
178.172961
 50
89.864046
 51
96.955746
  0
ARC
  8
0
 10
-16.765427
 20
-31.010175
 30
0.0
 40
53.581586
 50
87.041564
 51
111.037402
  0
LINE
  8
0
 10
-36.0
 20
16.0
 30
0.0
 11
-36.0
 21
19.0
 31
0.0
  0
CIRCLE
  8
0
 10
-25.0
 20
0.0
 30
0.0
 40
1.5
  0
LINE
  8
0
 10
-38.75
 20
-16.0
 30
0.0
 11
-14.0
 21
-16.0
 31
0.0
  0
LINE
  8
0
 10
-38.75
 20
16.0
 30
0.0
 11
-14.0
 21
16.0
 31
0.0
  0
LINE
  8
0
 10
-38.75
 20
-16.0
 30
0.0
 11
-38.75
 21
16.0
 31
0.0
  0
LINE
  8
0
 10
-38.75
 20
-13.75
 30
0.0
 11
-14.0
 21
-13.75
 31
0.0
  0
LINE
  8
0
 10
-38.75
 20
13.75
 30
0.0
 11
-14.0
 21
13.75
 31
0.0
  0
ARC
  8
0
 10
-25.0
 20
0.0
 30
0.0
 40
13.75
 50
36.869898
 51
323.130102
  0
LINE
  8
0
 10
-12.0
 20
-26.0
 30
0.0
 11
27.0
 21
-26.0
 31
0.0
  0
LINE
  8
0
 10
-14.0
 20
-24.0
 30
0.0
 11
-14.0
 21
24.0
 31
0.0
  0
LINE
  8
0
 10
27.0
 20
26.0
 30
0.0
 11
-12.0
 21
26.0
 31
0.0
  0
LINE
  8
0
 10
29.0
 20
-24.0
 30
0.0
 11
29.0
 21
24.0
 31
0.0
  0
ENDBLK
  8
0
  0
BLOCK
  8
0
  2
WMF61
 70
    64
 10
0.0
 20
0.0
 30
0.0
  3
WMF61
  0
LINE
  8
0
  6
DASHED
 10
0.0
 20
-15.0
 30
0.0
 11
0.0
 21
15.0
 31
0.0
  0
LINE
  8
0
  6
DASHED
 10
-34.0
 20
-15.0
 30
0.0
 11
0.0
 21
-15.0
 31
0.0
  0
LINE
  8
0
  6
DASHED
 10
-34.0
 20
15.0
 30
0.0
 11
0.0
 21
15.0
 31
0.0
  0
LINE
  8
0
 10
-32.0
 20
-29.0
 30
0.0
 11
14.0
 21
-29.0
 31
0.0
  0
LINE
  8
0
 10
-34.0
 20
-27.0
 30
0.0
 11
-34.0
 21
27.0
 31
0.0
  0
LINE
  8
0
 10
16.0
 20
-27.0
 30
0.0
 11
16.0
 21
27.0
 31
0.0
  0
ARC
  8
0
 10
27.0
 20
0.0
 30
0.0
 40
12.5
 50
270.0
 51
90.0
  0
LINE
  8
0
 10
27.0
 20
12.5
 30
0.0
 11
16.0
 21
12.5
 31
0.0
  0
LINE
  8
0
 10
27.0
 20
-12.5
 30
0.0
 11
16.0
 21
-12.5
 31
0.0
  0
CIRCLE
  8
0
 10
27.0
 20
0.0
 30
0.0
 40
3.25
  0
LINE
  8
0
 10
14.0
 20
29.0
 30
0.0
 11
-32.0
 21
29.0
 31
0.0
  0
LINE
  8
0
 10
-32.0
 20
-29.0
 30
0.0
 11
-32.0
 21
29.0
 31
0.0
  0
LINE
  8
0
 10
14.0
 20
-29.0
 30
0.0
 11
14.0
 21
29.0
 31
0.0
  0
LINE
  8
0
 10
-34.0
 20
27.0
 30
0.0
 11
-32.0
 21
29.0
 31
0.0
  0
LINE
  8
0
 10
-34.0
 20
-27.0
 30
0.0
 11
-32.0
 21
-29.0
 31
0.0
  0
LINE
  8
0
 10
14.0
 20
-29.0
 30
0.0
 11
16.0
 21
-27.0
 31
0.0
  0
LINE
  8
0
 10
14.0
 20
29.0
 30
0.0
 11
16.0
 21
27.0
 31
0.0
  0
ENDBLK
  8
0
  0
BLOCK
  8
0
  2
WMF62
 70
    64
 10
0.0
 20
0.0
 30
0.0
  3
WMF62
  0
LINE
  8
0
  6
DASHED
 10
34.0
 20
15.0
 30
0.0
 11
0.0
 21
15.0
 31
0.0
  0
LINE
  8
0
  6
DASHED
 10
34.0
 20
-15.0
 30
0.0
 11
0.0
 21
-15.0
 31
0.0
  0
LINE
  8
0
  6
DASHED
 10
0.0
 20
-15.0
 30
0.0
 11
0.0
 21
15.0
 31
0.0
  0
LINE
  8
0
 10
34.0
 20
-27.0
 30
0.0
 11
34.0
 21
27.0
 31
0.0
  0
LINE
  8
0
 10
32.0
 20
29.0
 30
0.0
 11
-14.0
 21
29.0
 31
0.0
  0
LINE
  8
0
 10
-16.0
 20
-27.0
 30
0.0
 11
-16.0
 21
27.0
 31
0.0
  0
ARC
  8
0
 10
-27.0
 20
0.0
 30
0.0
 40
15.0
 50
42.833428
 51
317.166572
  0
LINE
  8
0
 10
-42.0
 20
-18.0
 30
0.0
 11
-42.0
 21
18.0
 31
0.0
  0
LINE
  8
0
 10
-42.0
 20
15.0
 30
0.0
 11
-16.0
 21
15.0
 31
0.0
  0
LINE
  8
0
 10
-42.0
 20
-15.0
 30
0.0
 11
-16.0
 21
-15.0
 31
0.0
  0
CIRCLE
  8
0
 10
-27.0
 20
0.0
 30
0.0
 40
1.5
  0
LINE
  8
0
 10
-42.0
 20
18.0
 30
0.0
 11
-16.0
 21
18.0
 31
0.0
  0
LINE
  8
0
 10
-42.0
 20
-18.0
 30
0.0
 11
-16.0
 21
-18.0
 31
0.0
  0
LINE
  8
0
 10
-14.0
 20
-29.0
 30
0.0
 11
32.0
 21
-29.0
 31
0.0
  0
LINE
  8
0
 10
-14.0
 20
-29.0
 30
0.0
 11
-14.0
 21
29.0
 31
0.0
  0
LINE
  8
0
 10
32.0
 20
-29.0
 30
0.0
 11
32.0
 21
29.0
 31
0.0
  0
LINE
  8
0
 10
-16.0
 20
27.0
 30
0.0
 11
-14.0
 21
29.0
 31
0.0
  0
LINE
  8
0
 10
32.0
 20
29.0
 30
0.0
 11
34.0
 21
27.0
 31
0.0
  0
LINE
  8
0
 10
-16.0
 20
-27.0
 30
0.0
 11
-14.0
 21
-29.0
 31
0.0
  0
LINE
  8
0
 10
32.0
 20
-29.0
 30
0.0
 11
34.0
 21
-27.0
 31
0.0
  0
LINE
  8
0
 10
-39.5
 20
18.0
 30
0.0
 11
-39.5
 21
22.0
 31
0.0
  0
ARC
  8
0
 10
-17.5575
 20
-56.34125
 30
0.0
 40
81.35616
 50
88.90305
 51
105.64696
  0
ARC
  8
0
 10
-19.532626
 20
-244.531415
 30
0.0
 40
267.278302
 50
89.242698
 51
94.284347
  0
ARC
  8
0
 10
-19.532626
 20
244.531415
 30
0.0
 40
267.278302
 50
265.715653
 51
270.757302
  0
ARC
  8
0
 10
-17.5575
 20
56.34125
 30
0.0
 40
81.35616
 50
254.35304
 51
271.09695
  0
LINE
  8
0
 10
-39.5
 20
-18.0
 30
0.0
 11
-39.5
 21
-22.0
 31
0.0
  0
ENDBLK
  8
0
  0
BLOCK
  8
0
  2
WMF71
 70
    64
 10
0.0
 20
0.0
 30
0.0
  3
WMF71
  0
LINE
  8
0
  6
DASHED
 10
0.0
 20
-17.5
 30
0.0
 11
0.0
 21
17.5
 31
0.0
  0
LINE
  8
0
 10
-37.0
 20
-35.0
 30
0.0
 11
14.0
 21
-35.0
 31
0.0
  0
LINE
  8
0
 10
-39.0
 20
-33.0
 30
0.0
 11
-39.0
 21
33.0
 31
0.0
  0
LINE
  8
0
 10
16.0
 20
-33.0
 30
0.0
 11
16.0
 21
33.0
 31
0.0
  0
ARC
  8
0
 10
31.0
 20
0.0
 30
0.0
 40
14.0
 50
270.0
 51
90.000001
  0
LINE
  8
0
 10
31.0
 20
14.0
 30
0.0
 11
16.0
 21
14.0
 31
0.0
  0
LINE
  8
0
 10
31.0
 20
-14.0
 30
0.0
 11
16.0
 21
-14.0
 31
0.0
  0
CIRCLE
  8
0
 10
31.0
 20
0.0
 30
0.0
 40
3.25
  0
LINE
  8
0
 10
14.0
 20
35.0
 30
0.0
 11
-37.0
 21
35.0
 31
0.0
  0
LINE
  8
0
 10
-37.0
 20
-35.0
 30
0.0
 11
-37.0
 21
35.0
 31
0.0
  0
LINE
  8
0
 10
14.0
 20
-35.0
 30
0.0
 11
14.0
 21
35.0
 31
0.0
  0
LINE
  8
0
 10
-39.0
 20
33.0
 30
0.0
 11
-37.0
 21
35.0
 31
0.0
  0
LINE
  8
0
 10
14.0
 20
35.0
 30
0.0
 11
16.0
 21
33.0
 31
0.0
  0
LINE
  8
0
 10
-39.0
 20
-33.0
 30
0.0
 11
-37.0
 21
-35.0
 31
0.0
  0
LINE
  8
0
 10
14.0
 20
-35.0
 30
0.0
 11
16.0
 21
-33.0
 31
0.0
  0
LINE
  8
0
  6
DASHED
 10
-39.0
 20
-17.5
 30
0.0
 11
0.0
 21
-17.5
 31
0.0
  0
LINE
  8
0
  6
DASHED
 10
-39.0
 20
17.5
 30
0.0
 11
0.0
 21
17.5
 31
0.0
  0
ENDBLK
  8
0
  0
BLOCK
  8
0
  2
WMF72
 70
    64
 10
0.0
 20
0.0
 30
0.0
  3
WMF72
  0
LINE
  8
0
  6
DASHED
 10
39.0
 20
17.5
 30
0.0
 11
0.0
 21
17.5
 31
0.0
  0
LINE
  8
0
  6
DASHED
 10
39.0
 20
-17.5
 30
0.0
 11
0.0
 21
-17.5
 31
0.0
  0
LINE
  8
0
  6
DASHED
 10
0.0
 20
-17.5
 30
0.0
 11
0.0
 21
17.5
 31
0.0
  0
LINE
  8
0
 10
39.0
 20
-33.0
 30
0.0
 11
39.0
 21
33.0
 31
0.0
  0
LINE
  8
0
 10
37.0
 20
35.0
 30
0.0
 11
-14.0
 21
35.0
 31
0.0
  0
LINE
  8
0
 10
-16.0
 20
-33.0
 30
0.0
 11
-16.0
 21
33.0
 31
0.0
  0
LINE
  8
0
 10
-48.0
 20
17.0
 30
0.0
 11
-16.0
 21
17.0
 31
0.0
  0
LINE
  8
0
 10
-48.0
 20
-17.0
 30
0.0
 11
-16.0
 21
-17.0
 31
0.0
  0
LINE
  8
0
 10
-48.0
 20
-21.5
 30
0.0
 11
-48.0
 21
21.5
 31
0.0
  0
ARC
  8
0
 10
-31.0
 20
0.0
 30
0.0
 40
17.0
 50
28.072487
 51
331.927513
  0
LINE
  8
0
 10
-48.0
 20
21.5
 30
0.0
 11
-16.0
 21
21.5
 31
0.0
  0
LINE
  8
0
 10
-48.0
 20
-21.5
 30
0.0
 11
-16.0
 21
-21.5
 31
0.0
  0
CIRCLE
  8
0
 10
-31.0
 20
0.0
 30
0.0
 40
1.5
  0
LINE
  8
0
 10
-14.0
 20
-35.0
 30
0.0
 11
37.0
 21
-35.0
 31
0.0
  0
LINE
  8
0
 10
-14.0
 20
-35.0
 30
0.0
 11
-14.0
 21
35.0
 31
0.0
  0
LINE
  8
0
 10
37.0
 20
-35.0
 30
0.0
 11
37.0
 21
35.0
 31
0.0
  0
LINE
  8
0
 10
-16.0
 20
-33.0
 30
0.0
 11
-14.0
 21
-35.0
 31
0.0
  0
LINE
  8
0
 10
37.0
 20
-35.0
 30
0.0
 11
39.0
 21
-33.0
 31
0.0
  0
LINE
  8
0
 10
37.0
 20
35.0
 30
0.0
 11
39.0
 21
33.0
 31
0.0
  0
LINE
  8
0
 10
-16.0
 20
33.0
 30
0.0
 11
-14.0
 21
35.0
 31
0.0
  0
LINE
  8
0
 10
-45.0
 20
21.5
 30
0.0
 11
-45.0
 21
25.5
 31
0.0
  0
ARC
  8
0
 10
-10.295213
 20
-102.458627
 30
0.0
 40
132.581418
 50
92.466116
 51
105.174643
  0
ARC
  8
0
 10
-22.573529
 20
-344.856353
 30
0.0
 40
371.034735
 50
88.984852
 51
93.465244
  0
ARC
  8
0
 10
-22.573529
 20
344.856353
 30
0.0
 40
371.034735
 50
266.534756
 51
271.015148
  0
ARC
  8
0
 10
-10.295213
 20
102.458627
 30
0.0
 40
132.581418
 50
254.825357
 51
267.533884
  0
LINE
  8
0
 10
-45.0
 20
-21.5
 30
0.0
 11
-45.0
 21
-25.5
 31
0.0
  0
ENDBLK
  8
0
  0
BLOCK
  8
0
  2
WMF81
 70
    64
 10
0.0
 20
0.0
 30
0.0
  3
WMF81
  0
LINE
  8
0
  6
DASHED
 10
0.0
 20
-20.0
 30
0.0
 11
0.0
 21
20.0
 31
0.0
  0
LINE
  8
0
  6
DASHED
 10
-44.0
 20
-20.0
 30
0.0
 11
0.0
 21
-20.0
 31
0.0
  0
LINE
  8
0
  6
DASHED
 10
-44.0
 20
20.0
 30
0.0
 11
0.0
 21
20.0
 31
0.0
  0
LINE
  8
0
 10
-42.0
 20
-40.0
 30
0.0
 11
18.0
 21
-40.0
 31
0.0
  0
LINE
  8
0
 10
-44.0
 20
-38.0
 30
0.0
 11
-44.0
 21
38.0
 31
0.0
  0
LINE
  8
0
 10
20.0
 20
-38.0
 30
0.0
 11
20.0
 21
38.0
 31
0.0
  0
LINE
  8
0
 10
18.0
 20
40.0
 30
0.0
 11
-42.0
 21
40.0
 31
0.0
  0
ARC
  8
0
 10
36.0
 20
0.0
 30
0.0
 40
15.0
 50
270.0
 51
90.0
  0
LINE
  8
0
 10
36.0
 20
15.0
 30
0.0
 11
20.0
 21
15.0
 31
0.0
  0
LINE
  8
0
 10
36.0
 20
-15.0
 30
0.0
 11
20.0
 21
-15.0
 31
0.0
  0
CIRCLE
  8
0
 10
36.0
 20
0.0
 30
0.0
 40
3.25
  0
LINE
  8
0
 10
-42.0
 20
-40.0
 30
0.0
 11
-42.0
 21
40.0
 31
0.0
  0
LINE
  8
0
 10
18.0
 20
-40.0
 30
0.0
 11
18.0
 21
40.0
 31
0.0
  0
LINE
  8
0
 10
-44.0
 20
38.0
 30
0.0
 11
-42.0
 21
40.0
 31
0.0
  0
LINE
  8
0
 10
18.0
 20
40.0
 30
0.0
 11
20.0
 21
38.0
 31
0.0
  0
LINE
  8
0
 10
-44.0
 20
-38.0
 30
0.0
 11
-42.0
 21
-40.0
 31
0.0
  0
LINE
  8
0
 10
18.0
 20
-40.0
 30
0.0
 11
20.0
 21
-38.0
 31
0.0
  0
ENDBLK
  8
0
  0
BLOCK
  8
0
  2
WMF82
 70
    64
 10
0.0
 20
0.0
 30
0.0
  3
WMF82
  0
LINE
  8
0
  6
DASHED
 10
44.0
 20
20.0
 30
0.0
 11
0.0
 21
20.0
 31
0.0
  0
LINE
  8
0
  6
DASHED
 10
44.0
 20
-20.0
 30
0.0
 11
0.0
 21
-20.0
 31
0.0
  0
LINE
  8
0
  6
DASHED
 10
0.0
 20
-20.0
 30
0.0
 11
0.0
 21
20.0
 31
0.0
  0
LINE
  8
0
 10
44.0
 20
-38.0
 30
0.0
 11
44.0
 21
38.0
 31
0.0
  0
LINE
  8
0
 10
42.0
 20
40.0
 30
0.0
 11
-18.0
 21
40.0
 31
0.0
  0
LINE
  8
0
 10
-20.0
 20
-38.0
 30
0.0
 11
-20.0
 21
38.0
 31
0.0
  0
LINE
  8
0
 10
-18.0
 20
-40.0
 30
0.0
 11
42.0
 21
-40.0
 31
0.0
  0
CIRCLE
  8
0
 10
-36.0
 20
0.0
 30
0.0
 40
1.5
  0
ARC
  8
0
 10
-36.0
 20
0.0
 30
0.0
 40
18.5
 50
30.132722
 51
329.867278
  0
LINE
  8
0
 10
-18.0
 20
-40.0
 30
0.0
 11
-18.0
 21
40.0
 31
0.0
  0
LINE
  8
0
 10
42.0
 20
-40.0
 30
0.0
 11
42.0
 21
40.0
 31
0.0
  0
LINE
  8
0
 10
-20.0
 20
38.0
 30
0.0
 11
-18.0
 21
40.0
 31
0.0
  0
LINE
  8
0
 10
42.0
 20
40.0
 30
0.0
 11
44.0
 21
38.0
 31
0.0
  0
LINE
  8
0
 10
-20.0
 20
-38.0
 30
0.0
 11
-18.0
 21
-40.0
 31
0.0
  0
LINE
  8
0
 10
42.0
 20
-40.0
 30
0.0
 11
44.0
 21
-38.0
 31
0.0
  0
LINE
  8
0
 10
-20.0
 20
18.5
 30
0.0
 11
-54.5
 21
18.5
 31
0.0
  0
LINE
  8
0
 10
-20.0
 20
-18.5
 30
0.0
 11
-54.5
 21
-18.5
 31
0.0
  0
LINE
  8
0
 10
-54.5
 20
-25.0
 30
0.0
 11
-54.5
 21
25.0
 31
0.0
  0
LINE
  8
0
 10
-54.5
 20
25.0
 30
0.0
 11
-20.0
 21
25.0
 31
0.0
  0
LINE
  8
0
 10
-54.5
 20
-25.0
 30
0.0
 11
-20.0
 21
-25.0
 31
0.0
  0
LINE
  8
0
 10
-51.0
 20
25.0
 30
0.0
 11
-51.0
 21
30.5
 31
0.0
  0
ARC
  8
0
 10
-23.802998
 20
-47.829348
 30
0.0
 40
82.916607
 50
87.371188
 51
109.147688
  0
ARC
  8
0
 10
-26.616108
 20
-498.24216
 30
0.0
 40
529.304115
 50
89.283805
 51
92.640427
  0
ARC
  8
0
 10
-26.616108
 20
498.24216
 30
0.0
 40
529.304115
 50
267.359573
 51
270.716195
  0
ARC
  8
0
 10
-23.802998
 20
47.829348
 30
0.0
 40
82.916607
 50
250.852312
 51
272.628812
  0
LINE
  8
0
 10
-51.0
 20
-25.0
 30
0.0
 11
-51.0
 21
-30.5
 31
0.0
  0
ENDBLK
  8
0
  0
BLOCK
  8
0
  2
WMF91
 70
    64
 10
0.0
 20
0.0
 30
0.0
  3
WMF91
  0
LINE
  8
0
  6
DASHED
 10
0.0
 20
-25.0
 30
0.0
 11
0.0
 21
25.0
 31
0.0
  0
LINE
  8
0
  6
DASHED
 10
-54.0
 20
-25.0
 30
0.0
 11
0.0
 21
-25.0
 31
0.0
  0
LINE
  8
0
  6
DASHED
 10
-54.0
 20
25.0
 30
0.0
 11
0.0
 21
25.0
 31
0.0
  0
LINE
  8
0
 10
-51.0
 20
-47.5
 30
0.0
 11
19.0
 21
-47.5
 31
0.0
  0
LINE
  8
0
 10
-54.0
 20
-44.5
 30
0.0
 11
-54.0
 21
44.5
 31
0.0
  0
LINE
  8
0
 10
22.0
 20
-44.5
 30
0.0
 11
22.0
 21
44.5
 31
0.0
  0
ARC
  8
0
 10
41.0
 20
0.0
 30
0.0
 40
17.5
 50
270.0
 51
90.000001
  0
LINE
  8
0
 10
19.0
 20
47.5
 30
0.0
 11
-51.0
 21
47.5
 31
0.0
  0
LINE
  8
0
 10
41.0
 20
17.5
 30
0.0
 11
22.0
 21
17.5
 31
0.0
  0
LINE
  8
0
 10
41.0
 20
-17.5
 30
0.0
 11
22.0
 21
-17.5
 31
0.0
  0
CIRCLE
  8
0
 10
41.0
 20
0.0
 30
0.0
 40
3.25
  0
LINE
  8
0
 10
-51.0
 20
-47.5
 30
0.0
 11
-51.0
 21
47.5
 31
0.0
  0
LINE
  8
0
 10
19.0
 20
-47.5
 30
0.0
 11
19.0
 21
47.5
 31
0.0
  0
LINE
  8
0
 10
-54.0
 20
44.5
 30
0.0
 11
-51.0
 21
47.5
 31
0.0
  0
LINE
  8
0
 10
19.0
 20
47.5
 30
0.0
 11
22.0
 21
44.5
 31
0.0
  0
LINE
  8
0
 10
-54.0
 20
-44.5
 30
0.0
 11
-51.0
 21
-47.5
 31
0.0
  0
LINE
  8
0
 10
19.0
 20
-47.5
 30
0.0
 11
22.0
 21
-44.5
 31
0.0
  0
ENDBLK
  8
0
  0
BLOCK
  8
0
  2
WMF92
 70
    64
 10
0.0
 20
0.0
 30
0.0
  3
WMF92
  0
LINE
  8
0
  6
DASHED
 10
54.0
 20
25.0
 30
0.0
 11
0.0
 21
25.0
 31
0.0
  0
LINE
  8
0
  6
DASHED
 10
54.0
 20
-25.0
 30
0.0
 11
0.0
 21
-25.0
 31
0.0
  0
LINE
  8
0
  6
DASHED
 10
0.0
 20
-25.0
 30
0.0
 11
0.0
 21
25.0
 31
0.0
  0
LINE
  8
0
 10
54.0
 20
-44.5
 30
0.0
 11
54.0
 21
44.5
 31
0.0
  0
LINE
  8
0
 10
51.0
 20
47.5
 30
0.0
 11
-19.0
 21
47.5
 31
0.0
  0
LINE
  8
0
 10
-22.0
 20
-44.5
 30
0.0
 11
-22.0
 21
44.5
 31
0.0
  0
LINE
  8
0
 10
-19.0
 20
-47.5
 30
0.0
 11
51.0
 21
-47.5
 31
0.0
  0
CIRCLE
  8
0
 10
-41.0
 20
0.0
 30
0.0
 40
1.5
  0
ARC
  8
0
 10
-41.0
 20
0.0
 30
0.0
 40
23.0
 50
34.301153
 51
325.698847
  0
LINE
  8
0
 10
-22.0
 20
23.0
 30
0.0
 11
-64.0
 21
23.0
 31
0.0
  0
LINE
  8
0
 10
-22.0
 20
-23.0
 30
0.0
 11
-64.0
 21
-23.0
 31
0.0
  0
LINE
  8
0
 10
-64.0
 20
-30.0
 30
0.0
 11
-64.0
 21
30.0
 31
0.0
  0
LINE
  8
0
 10
-64.0
 20
30.0
 30
0.0
 11
-22.0
 21
30.0
 31
0.0
  0
LINE
  8
0
 10
-64.0
 20
-30.0
 30
0.0
 11
-22.0
 21
-30.0
 31
0.0
  0
LINE
  8
0
 10
51.0
 20
-47.5
 30
0.0
 11
51.0
 21
47.5
 31
0.0
  0
LINE
  8
0
 10
-19.0
 20
-47.5
 30
0.0
 11
-19.0
 21
47.5
 31
0.0
  0
LINE
  8
0
 10
-22.0
 20
-44.5
 30
0.0
 11
-19.0
 21
-47.5
 31
0.0
  0
LINE
  8
0
 10
51.0
 20
-47.5
 30
0.0
 11
54.0
 21
-44.5
 31
0.0
  0
LINE
  8
0
 10
54.0
 20
44.5
 30
0.0
 11
51.0
 21
47.5
 31
0.0
  0
LINE
  8
0
 10
-19.0
 20
47.5
 30
0.0
 11
-22.0
 21
44.5
 31
0.0
  0
LINE
  8
0
 10
-58.5
 20
30.0
 30
0.0
 11
-58.5
 21
36.0
 31
0.0
  0
ARC
  8
0
 10
-23.145023
 20
-86.366333
 30
0.0
 40
127.37148
 50
89.484925
 51
106.115451
  0
ARC
  8
0
 10
-30.61824
 20
-353.161058
 30
0.0
 40
390.158585
 50
88.734287
 51
94.098
  0
ARC
  8
0
 10
-30.61824
 20
353.161058
 30
0.0
 40
390.158585
 50
265.902
 51
271.265713
  0
ARC
  8
0
 10
-23.145023
 20
86.366333
 30
0.0
 40
127.37148
 50
253.884549
 51
270.515075
  0
LINE
  8
0
 10
-58.5
 20
-30.0
 30
0.0
 11
-58.5
 21
-36.0
 31
0.0
  0
ENDBLK
  8
0
  0
ENDSEC
  0
SECTION
  2
ENTITIES
  0
TEXT
  8
0
 10
-5800.201185
 20
4251.489412
 30
0.0
 40
73.416
  1
01
  0
TEXT
  8
0
 10
-5800.201185
 20
4129.129412
 30
0.0
 40
73.416
  1
02
  0
TEXT
  8
0
 10
-5800.201185
 20
4006.769412
 30
0.0
 40
73.416
  1
03
  0
TEXT
  8
0
 10
-5800.201185
 20
3884.409412
 30
0.0
 40
73.416
  1
04
  0
TEXT
  8
0
 10
-5800.201185
 20
3762.049412
 30
0.0
 40
73.416
  1
05
  0
TEXT
  8
0
 10
-5800.201185
 20
3639.689412
 30
0.0
 40
73.416
  1
1
  0
TEXT
  8
0
 10
-5800.201185
 20
3517.329412
 30
0.0
 40
73.416
  1
2
  0
TEXT
  8
0
 10
-5800.201185
 20
3394.969412
 30
0.0
 40
73.416
  1
3
  0
TEXT
  8
0
 10
-5050.404893
 20
4253.937372
 30
0.0
 40
73.416
  1
4
  0
TEXT
  8
0
 10
-5050.404893
 20
4089.625372
 30
0.0
 40
73.416
  1
5
  0
TEXT
  8
0
 10
-5046.908893
 20
3960.273372
 30
0.0
 40
73.416
  1
6
  0
TEXT
  8
0
 10
-5046.908893
 20
3799.457372
 30
0.0
 40
73.416
  1
7
  0
TEXT
  8
0
 10
-5046.908893
 20
3652.625372
 30
0.0
 40
73.416
  1
8
  0
TEXT
  8
0
 10
-5046.908893
 20
3495.305372
 30
0.0
 40
73.416
  1
9
  0
LINE
  8
0
 10
-5792.539028
 20
4223.752732
 30
0.0
 11
-5329.166986
 21
4223.752732
 31
0.0
  0
LINE
  8
0
 10
-5793.841039
 20
4098.752183
 30
0.0
 11
-5329.166986
 21
4098.752183
 31
0.0
  0
LINE
  8
0
 10
-5796.44506
 20
3981.564168
 30
0.0
 11
-5329.166986
 21
3981.564168
 31
0.0
  0
LINE
  8
0
 10
-5795.14305
 20
3861.771975
 30
0.0
 11
-5329.166986
 21
3861.771975
 31
0.0
  0
LINE
  8
0
 10
-5795.14305
 20
3735.469337
 30
0.0
 11
-5329.166986
 21
3735.469337
 31
0.0
  0
LINE
  8
0
 10
-5798.541316
 20
3613.384303
 30
0.0
 11
-5329.166986
 21
3613.384303
 31
0.0
  0
LINE
  8
0
 10
-5782.35031
 20
3490.041117
 30
0.0
 11
-5329.166986
 21
3490.041117
 31
0.0
  0
LINE
  8
0
 10
-5043.215932
 20
4348.752732
 30
0.0
 11
-4579.370694
 21
4348.752732
 31
0.0
  0
LINE
  8
0
 10
-5046.908893
 20
4198.001372
 30
0.0
 11
-4579.370694
 21
4198.001372
 31
0.0
  0
LINE
  8
0
 10
-5053.900893
 20
4054.665372
 30
0.0
 11
-4579.370694
 21
4054.665372
 31
0.0
  0
LINE
  8
0
 10
-5057.396893
 20
3925.313372
 30
0.0
 11
-4579.370694
 21
3925.313372
 31
0.0
  0
LINE
  8
0
 10
-5060.082431
 20
3765.901737
 30
0.0
 11
-4579.370694
 21
3765.901737
 31
0.0
  0
LINE
  8
0
 10
-5060.892893
 20
3603.681372
 30
0.0
 11
-4579.370694
 21
3603.681372
 31
0.0
  0
INSERT
  8
0
  2
WMF011
 10
-5559.080947
 20
4284.164028
 30
0.0
  0
INSERT
  8
0
  2
WMF012
 10
-5543.080947
 20
4284.164028
 30
0.0
  0
INSERT
  8
0
  2
WMF021
 10
-5560.080947
 20
4160.155652
 30
0.0
  0
INSERT
  8
0
  2
WMF022
 10
-5542.080947
 20
4160.155652
 30
0.0
  0
INSERT
  8
0
  2
WMF031
 10
-5561.080947
 20
4043.177037
 30
0.0
  0
INSERT
  8
0
  2
WMF032
 10
-5541.080947
 20
4043.177037
 30
0.0
  0
INSERT
  8
0
  2
WMF042
 10
-5539.080947
 20
3919.738248
 30
0.0
  0
INSERT
  8
0
  2
WMF041
 10
-5563.080947
 20
3919.738248
 30
0.0
  0
INSERT
  8
0
  2
WMF052
 10
-5536.080947
 20
3796.782054
 30
0.0
  0
INSERT
  8
0
  2
WMF051
 10
-5566.080947
 20
3796.782054
 30
0.0
  0
INSERT
  8
0
  2
WMF11
 10
-5565.080947
 20
3677.679752
 30
0.0
  0
INSERT
  8
0
  2
WMF12
 10
-5537.080947
 20
3677.679752
 30
0.0
  0
INSERT
  8
0
  2
WMF21
 10
-5565.282208
 20
3555.082978
 30
0.0
  0
INSERT
  8
0
  2
WMF22
 10
-5533.282208
 20
3555.082978
 30
0.0
  0
INSERT
  8
0
  2
WMF32
 10
-5533.080947
 20
3427.374015
 30
0.0
  0
INSERT
  8
0
  2
WMF31
 10
-5569.080947
 20
3427.374015
 30
0.0
  0
INSERT
  8
0
  2
WMF41
 10
-4823.784655
 20
4277.051809
 30
0.0
  0
INSERT
  8
0
  2
WMF42
 10
-4778.784655
 20
4277.051809
 30
0.0
  0
INSERT
  8
0
  2
WMF51
 10
-4826.284655
 20
4130.786406
 30
0.0
  0
INSERT
  8
0
  2
WMF52
 10
-4776.284655
 20
4130.786406
 30
0.0
  0
INSERT
  8
0
  2
WMF61
 10
-4828.284655
 20
3994.042821
 30
0.0
  0
INSERT
  8
0
  2
WMF62
 10
-4774.284655
 20
3994.042821
 30
0.0
  0
INSERT
  8
0
  2
WMF71
 10
-4832.284655
 20
3840.65922
 30
0.0
  0
INSERT
  8
0
  2
WMF72
 10
-4770.284655
 20
3840.65922
 30
0.0
  0
INSERT
  8
0
  2
WMF81
 10
-4837.284655
 20
3685.759309
 30
0.0
  0
INSERT
  8
0
  2
WMF82
 10
-4765.284655
 20
3685.759309
 30
0.0
  0
INSERT
  8
0
  2
WMF91
 10
-4842.284655
 20
3516.592296
 30
0.0
  0
INSERT
  8
0
  2
WMF92
 10
-4760.284655
 20
3516.592296
 30
0.0
  0
LINE
  8
0
 10
-5792.539028
 20
4348.752732
 30
0.0
 11
-5329.166986
 21
4348.752732
 31
0.0
  0
ENDSEC
  0
EOF
