  0
SECTION
  2
HEADER
  9
$ACADVER
  1
AC1009
  9
$INSBASE
 10
0.0
 20
0.0
 30
0.0
  9
$EXTMIN
 10
-41.528755
 20
-55.612896
 30
0.0
  9
$EXTMAX
 10
95.505308
 20
39.305576
 30
0.0
  9
$LIMMIN
 10
0.0
 20
0.0
  9
$LIMMAX
 10
12.0
 20
9.0
  9
$ORTHOMODE
 70
     1
  9
$REGENMODE
 70
     1
  9
$FILLMODE
 70
     1
  9
$QTEXTMODE
 70
     0
  9
$MIRRTEXT
 70
     1
  9
$DRAGMODE
 70
     2
  9
$LTSCALE
 40
7.0
  9
$OSMODE
 70
     0
  9
$ATTMODE
 70
     1
  9
$TEXTSIZE
 40
0.2
  9
$TRACEWID
 40
0.05
  9
$TEXTSTYLE
  7
STANDARD
  9
$CLAYER
  8
0
  9
$CELTYPE
  6
BYLAYER
  9
$CECOLOR
 62
   256
  9
$DIMSCALE
 40
1.0
  9
$DIMASZ
 40
2.5
  9
$DIMEXO
 40
0.0
  9
$DIMDLI
 40
5.0
  9
$DIMRND
 40
0.0
  9
$DIMDLE
 40
0.0
  9
$DIMEXE
 40
1.0
  9
$DIMTP
 40
0.0
  9
$DIMTM
 40
0.0
  9
$DIMTXT
 40
2.5
  9
$DIMCEN
 40
0.09
  9
$DIMTSZ
 40
0.0
  9
$DIMTOL
 70
     0
  9
$DIMLIM
 70
     0
  9
$DIMTIH
 70
     0
  9
$DIMTOH
 70
     0
  9
$DIMSE1
 70
     0
  9
$DIMSE2
 70
     0
  9
$DIMTAD
 70
     1
  9
$DIMZIN
 70
     0
  9
$DIMBLK
  1

  9
$DIMASO
 70
     0
  9
$DIMSHO
 70
     0
  9
$DIMPOST
  1

  9
$DIMAPOST
  1

  9
$DIMALT
 70
     0
  9
$DIMALTD
 70
     2
  9
$DIMALTF
 40
25.4
  9
$DIMLFAC
 40
1.0
  9
$DIMTOFL
 70
     1
  9
$DIMTVP
 40
0.0
  9
$DIMTIX
 70
     0
  9
$DIMSOXD
 70
     0
  9
$DIMSAH
 70
     0
  9
$DIMBLK1
  1

  9
$DIMBLK2
  1

  9
$DIMSTYLE
  2
*UNNAMED
  9
$DIMCLRD
 70
     0
  9
$DIMCLRE
 70
     0
  9
$DIMCLRT
 70
     0
  9
$DIMTFAC
 40
1.0
  9
$DIMGAP
 40
0.09
  9
$LUNITS
 70
     2
  9
$LUPREC
 70
     4
  9
$SKETCHINC
 40
0.1
  9
$FILLETRAD
 40
2.3
  9
$AUNITS
 70
     0
  9
$AUPREC
 70
     0
  9
$MENU
  1
wiberger
  9
$ELEVATION
 40
0.0
  9
$PELEVATION
 40
0.0
  9
$THICKNESS
 40
0.0
  9
$LIMCHECK
 70
     0
  9
$BLIPMODE
 70
     1
  9
$CHAMFERA
 40
3.0
  9
$CHAMFERB
 40
3.0
  9
$SKPOLY
 70
     0
  9
$TDCREATE
 40
2450190.413254514
  9
$TDUPDATE
 40
2450198.598215509
  9
$TDINDWG
 40
0.0007202546
  9
$TDUSRTIMER
 40
0.0007202546
  9
$USRTIMER
 70
     1
  9
$ANGBASE
 50
0.0
  9
$ANGDIR
 70
     0
  9
$PDMODE
 70
     0
  9
$PDSIZE
 40
0.0
  9
$PLINEWID
 40
0.0
  9
$COORDS
 70
     0
  9
$SPLFRAME
 70
     0
  9
$SPLINETYPE
 70
     6
  9
$SPLINESEGS
 70
     8
  9
$ATTDIA
 70
     0
  9
$ATTREQ
 70
     1
  9
$HANDLING
 70
     0
  9
$HANDSEED
  5
0
  9
$SURFTAB1
 70
     6
  9
$SURFTAB2
 70
     6
  9
$SURFTYPE
 70
     6
  9
$SURFU
 70
     6
  9
$SURFV
 70
     6
  9
$UCSNAME
  2

  9
$UCSORG
 10
0.0
 20
0.0
 30
0.0
  9
$UCSXDIR
 10
1.0
 20
0.0
 30
0.0
  9
$UCSYDIR
 10
0.0
 20
1.0
 30
0.0
  9
$PUCSNAME
  2

  9
$PUCSORG
 10
0.0
 20
0.0
 30
0.0
  9
$PUCSXDIR
 10
1.0
 20
0.0
 30
0.0
  9
$PUCSYDIR
 10
0.0
 20
1.0
 30
0.0
  9
$USERI1
 70
     0
  9
$USERI2
 70
     0
  9
$USERI3
 70
     0
  9
$USERI4
 70
     0
  9
$USERI5
 70
     0
  9
$USERR1
 40
0.0
  9
$USERR2
 40
0.0
  9
$USERR3
 40
0.0
  9
$USERR4
 40
0.0
  9
$USERR5
 40
0.0
  9
$WORLDVIEW
 70
     1
  9
$SHADEDGE
 70
     3
  9
$SHADEDIF
 70
    70
  9
$TILEMODE
 70
     1
  9
$MAXACTVP
 70
    16
  9
$PINSBASE
 10
0.0
 20
0.0
 30
0.0
  9
$PLIMCHECK
 70
     0
  9
$PEXTMIN
 10
1.000000E+20
 20
1.000000E+20
 30
1.000000E+20
  9
$PEXTMAX
 10
-1.000000E+20
 20
-1.000000E+20
 30
-1.000000E+20
  9
$PLIMMIN
 10
0.0
 20
0.0
  9
$PLIMMAX
 10
12.0
 20
9.0
  9
$UNITMODE
 70
     0
  9
$VISRETAIN
 70
     0
  9
$PLINEGEN
 70
     0
  9
$PSLTSCALE
 70
     0
  9
$TREEDEPTH
 70
  3020
  9
$DWGCODEPAGE
  3
undefined
  0
ENDSEC
  0
SECTION
  2
TABLES
  0
TABLE
  2
VPORT
 70
     2
  0
VPORT
  2
*ACTIVE
 70
     0
 10
0.0
 20
0.0
 11
1.0
 21
1.0
 12
47.845035
 22
-6.22802
 13
0.0
 23
0.0
 14
1.0
 24
1.0
 15
0.0
 25
0.0
 16
0.0
 26
0.0
 36
1.0
 17
0.0
 27
0.0
 37
0.0
 40
109.744169
 41
1.767507
 42
50.0
 43
0.0
 44
0.0
 50
0.0
 51
0.0
 71
     0
 72
   100
 73
     1
 74
     0
 75
     0
 76
     0
 77
     0
 78
     0
  0
ENDTAB
  0
TABLE
  2
LTYPE
 70
     3
  0
LTYPE
  2
CONTINUOUS
 70
    64
  3
Solid line
 72
    65
 73
     0
 40
0.0
  0
LTYPE
  2
DASHED
 70
     0
  3
__ __ __ __ __ __ __ __ __ __ __ __ __ __ __
 72
    65
 73
     2
 40
0.75
 49
0.5
 49
-0.25
  0
LTYPE
  2
CENTER
 70
    64
  3
____ _ ____ _ ____ _ ____ _ ____ _ ____ _ ____
 72
    65
 73
     4
 40
2.0
 49
1.25
 49
-0.25
 49
0.25
 49
-0.25
  0
ENDTAB
  0
TABLE
  2
LAYER
 70
     1
  0
LAYER
  2
0
 70
    64
 62
     7
  6
CONTINUOUS
  0
ENDTAB
  0
TABLE
  2
STYLE
 70
     1
  0
STYLE
  2
STANDARD
 70
     0
 40
0.0
 41
1.0
 50
0.0
 71
     0
 42
0.2
  3
txt
  4

  0
ENDTAB
  0
TABLE
  2
VIEW
 70
     0
  0
ENDTAB
  0
TABLE
  2
UCS
 70
     0
  0
ENDTAB
  0
TABLE
  2
APPID
 70
     1
  0
APPID
  2
ACAD
 70
    64
  0
ENDTAB
  0
TABLE
  2
DIMSTYLE
 70
     0
  0
ENDTAB
  0
ENDSEC
  0
SECTION
  2
BLOCKS
  0
BLOCK
  8
0
  2
*X0
 70
    65
 10
0.0
 20
0.0
 30
0.0
  3
*X
  0
LINE
  8
0
 62
     0
 10
-39.136511
 20
-12.620006
 30
0.0
 11
-34.028755
 21
-7.512251
 31
0.0
  0
LINE
  8
0
 62
     0
 10
-39.462868
 20
-10.294713
 30
0.0
 11
-34.028755
 21
-4.8606
 31
0.0
  0
LINE
  8
0
 62
     0
 10
-31.530316
 20
-2.362162
 30
0.0
 11
-31.528755
 21
-2.3606
 31
0.0
  0
LINE
  8
0
 62
     0
 10
-39.789225
 20
-7.969419
 30
0.0
 11
-31.528755
 21
0.29105
 31
0.0
  0
LINE
  8
0
 62
     0
 10
-40.115582
 20
-5.644126
 30
0.0
 11
-31.528755
 21
2.942701
 31
0.0
  0
LINE
  8
0
 62
     0
 10
-40.441939
 20
-3.318832
 30
0.0
 11
-32.192358
 21
4.930748
 31
0.0
  0
LINE
  8
0
 62
     0
 10
-40.768295
 20
-0.993539
 30
0.0
 11
-34.71147
 21
5.063286
 31
0.0
  0
LINE
  8
0
 62
     0
 10
-41.094652
 20
1.331754
 30
0.0
 11
-37.078722
 21
5.347684
 31
0.0
  0
LINE
  8
0
 62
     0
 10
-41.421009
 20
3.657048
 30
0.0
 11
-39.315903
 21
5.762154
 31
0.0
  0
LINE
  8
0
 62
     0
 10
-38.810154
 20
-14.9453
 30
0.0
 11
-34.028755
 21
-10.163901
 31
0.0
  0
LINE
  8
0
 62
     0
 10
-38.483797
 20
-17.270593
 30
0.0
 11
-34.028755
 21
-12.815552
 31
0.0
  0
LINE
  8
0
 62
     0
 10
-38.15744
 20
-19.595887
 30
0.0
 11
-34.028755
 21
-15.467202
 31
0.0
  0
LINE
  8
0
 62
     0
 10
-37.831083
 20
-21.92118
 30
0.0
 11
-34.028755
 21
-18.118852
 31
0.0
  0
LINE
  8
0
 62
     0
 10
-37.184499
 20
-23.926247
 30
0.0
 11
-34.028755
 21
-20.770503
 31
0.0
  0
LINE
  8
0
 62
     0
 10
-34.681866
 20
-24.075265
 30
0.0
 11
-34.028755
 21
-23.422153
 31
0.0
  0
LINE
  8
0
 62
     0
 10
-34.028755
 20
-11.049302
 30
0.0
 11
-40.226871
 21
-4.851186
 31
0.0
  0
LINE
  8
0
 62
     0
 10
-34.028755
 20
-13.700953
 30
0.0
 11
-39.793949
 21
-7.935759
 31
0.0
  0
LINE
  8
0
 62
     0
 10
-34.028755
 20
-16.352603
 30
0.0
 11
-39.361026
 21
-11.020332
 31
0.0
  0
LINE
  8
0
 62
     0
 10
-34.028755
 20
-19.004254
 30
0.0
 11
-38.928104
 21
-14.104905
 31
0.0
  0
LINE
  8
0
 62
     0
 10
-34.028755
 20
-21.655904
 30
0.0
 11
-38.495181
 21
-17.189478
 31
0.0
  0
LINE
  8
0
 62
     0
 10
-34.3949
 20
-23.94141
 30
0.0
 11
-38.062259
 21
-20.274051
 31
0.0
  0
LINE
  8
0
 62
     0
 10
-36.958505
 20
-24.029455
 30
0.0
 11
-37.613495
 21
-23.374465
 31
0.0
  0
LINE
  8
0
 62
     0
 10
-34.028755
 20
-8.397652
 30
0.0
 11
-40.659794
 21
-1.766613
 31
0.0
  0
LINE
  8
0
 62
     0
 10
-34.028755
 20
-5.746001
 30
0.0
 11
-41.092716
 21
1.31796
 31
0.0
  0
LINE
  8
0
 62
     0
 10
-33.578452
 20
-3.544654
 30
0.0
 11
-41.525639
 21
4.402533
 31
0.0
  0
LINE
  8
0
 62
     0
 10
-31.897373
 20
-2.574082
 30
0.0
 11
-40.212473
 21
5.741017
 31
0.0
  0
LINE
  8
0
 62
     0
 10
-31.528755
 20
-0.29105
 30
0.0
 11
-37.183746
 21
5.363941
 31
0.0
  0
LINE
  8
0
 62
     0
 10
-31.528755
 20
2.3606
 30
0.0
 11
-34.18968
 21
5.021526
 31
0.0
  0
ENDBLK
  8
0
  0
BLOCK
  8
0
  2
*X1
 70
    65
 10
0.0
 20
0.0
 30
0.0
  3
*X
  0
LINE
  8
0
 62
     0
 10
64.152367
 20
8.467708
 30
0.0
 11
78.005308
 21
22.320649
 31
0.0
  0
LINE
  8
0
 62
     0
 10
63.826725
 20
10.793717
 30
0.0
 11
78.005308
 21
24.972299
 31
0.0
  0
LINE
  8
0
 62
     0
 10
63.501084
 20
13.119726
 30
0.0
 11
78.005308
 21
27.62395
 31
0.0
  0
LINE
  8
0
 62
     0
 10
63.175443
 20
15.445735
 30
0.0
 11
78.005308
 21
30.2756
 31
0.0
  0
LINE
  8
0
 62
     0
 10
62.849802
 20
17.771744
 30
0.0
 11
78.005308
 21
32.92725
 31
0.0
  0
LINE
  8
0
 62
     0
 10
62.52416
 20
20.097753
 30
0.0
 11
77.745228
 21
35.318822
 31
0.0
  0
LINE
  8
0
 62
     0
 10
62.198519
 20
22.423763
 30
0.0
 11
75.174896
 21
35.40014
 31
0.0
  0
LINE
  8
0
 62
     0
 10
61.872878
 20
24.749772
 30
0.0
 11
72.727033
 21
35.603927
 31
0.0
  0
LINE
  8
0
 62
     0
 10
61.547237
 20
27.075781
 30
0.0
 11
70.386887
 21
35.915431
 31
0.0
  0
LINE
  8
0
 62
     0
 10
61.221595
 20
29.40179
 30
0.0
 11
68.143103
 21
36.323298
 31
0.0
  0
LINE
  8
0
 62
     0
 10
60.895954
 20
31.727799
 30
0.0
 11
65.986744
 21
36.81859
 31
0.0
  0
LINE
  8
0
 62
     0
 10
60.570313
 20
34.053808
 30
0.0
 11
63.910657
 21
37.394153
 31
0.0
  0
LINE
  8
0
 62
     0
 10
64.478008
 20
6.141699
 30
0.0
 11
78.005308
 21
19.668998
 31
0.0
  0
LINE
  8
0
 62
     0
 10
64.803649
 20
3.815689
 30
0.0
 11
78.005308
 21
17.017348
 31
0.0
  0
LINE
  8
0
 62
     0
 10
65.129291
 20
1.48968
 30
0.0
 11
72.755308
 21
9.115697
 31
0.0
  0
LINE
  8
0
 62
     0
 10
74.022438
 20
10.382828
 30
0.0
 11
78.005308
 21
14.365697
 31
0.0
  0
LINE
  8
0
 62
     0
 10
65.454932
 20
-0.836329
 30
0.0
 11
72.755308
 21
6.464047
 31
0.0
  0
LINE
  8
0
 62
     0
 10
65.780573
 20
-3.162338
 30
0.0
 11
72.755308
 21
3.812397
 31
0.0
  0
LINE
  8
0
 62
     0
 10
66.106214
 20
-5.488347
 30
0.0
 11
72.755308
 21
1.160746
 31
0.0
  0
LINE
  8
0
 62
     0
 10
66.431856
 20
-7.814356
 30
0.0
 11
72.755308
 21
-1.490904
 31
0.0
  0
LINE
  8
0
 62
     0
 10
66.757497
 20
-10.140365
 30
0.0
 11
72.755308
 21
-4.142555
 31
0.0
  0
LINE
  8
0
 62
     0
 10
67.083138
 20
-12.466375
 30
0.0
 11
72.755308
 21
-6.794205
 31
0.0
  0
LINE
  8
0
 62
     0
 10
67.65446
 20
-14.546703
 30
0.0
 11
72.755308
 21
-9.445856
 31
0.0
  0
LINE
  8
0
 62
     0
 10
69.37468
 20
-15.478133
 30
0.0
 11
72.755308
 21
-12.097506
 31
0.0
  0
LINE
  8
0
 62
     0
 10
72.755308
 20
6.794205
 30
0.0
 11
63.024319
 21
16.525194
 31
0.0
  0
LINE
  8
0
 62
     0
 10
72.755308
 20
4.142555
 30
0.0
 11
63.455983
 21
13.44188
 31
0.0
  0
LINE
  8
0
 62
     0
 10
72.755308
 20
1.490904
 30
0.0
 11
63.887647
 21
10.358565
 31
0.0
  0
LINE
  8
0
 62
     0
 10
72.755308
 20
-1.160746
 30
0.0
 11
64.319311
 21
7.275251
 31
0.0
  0
LINE
  8
0
 62
     0
 10
72.755308
 20
-3.812397
 30
0.0
 11
64.750975
 21
4.191936
 31
0.0
  0
LINE
  8
0
 62
     0
 10
72.755308
 20
-6.464047
 30
0.0
 11
65.182639
 21
1.108622
 31
0.0
  0
LINE
  8
0
 62
     0
 10
72.755308
 20
-9.115697
 30
0.0
 11
65.614303
 21
-1.974692
 31
0.0
  0
LINE
  8
0
 62
     0
 10
72.755308
 20
-11.767348
 30
0.0
 11
66.045967
 21
-5.058007
 31
0.0
  0
LINE
  8
0
 62
     0
 10
72.755308
 20
-14.418998
 30
0.0
 11
66.477631
 21
-8.141321
 31
0.0
  0
LINE
  8
0
 62
     0
 10
71.166529
 20
-15.48187
 30
0.0
 11
66.909295
 21
-11.224636
 31
0.0
  0
LINE
  8
0
 62
     0
 10
72.755308
 20
9.445856
 30
0.0
 11
62.592655
 21
19.608509
 31
0.0
  0
LINE
  8
0
 62
     0
 10
74.306172
 20
10.546642
 30
0.0
 11
62.160991
 21
22.691823
 31
0.0
  0
LINE
  8
0
 62
     0
 10
75.987251
 20
11.517213
 30
0.0
 11
61.729327
 21
25.775138
 31
0.0
  0
LINE
  8
0
 62
     0
 10
77.66833
 20
12.487784
 30
0.0
 11
61.297663
 21
28.858452
 31
0.0
  0
LINE
  8
0
 62
     0
 10
78.005308
 20
14.802457
 30
0.0
 11
60.865999
 21
31.941767
 31
0.0
  0
LINE
  8
0
 62
     0
 10
78.005308
 20
17.454108
 30
0.0
 11
60.723297
 21
34.736119
 31
0.0
  0
LINE
  8
0
 62
     0
 10
78.005308
 20
20.105758
 30
0.0
 11
62.049122
 21
36.061944
 31
0.0
  0
LINE
  8
0
 62
     0
 10
78.005308
 20
22.757409
 30
0.0
 11
63.374947
 21
37.387769
 31
0.0
  0
LINE
  8
0
 62
     0
 10
78.005308
 20
25.409059
 30
0.0
 11
66.793012
 21
36.621355
 31
0.0
  0
LINE
  8
0
 62
     0
 10
78.005308
 20
28.060709
 30
0.0
 11
70.105319
 21
35.960698
 31
0.0
  0
LINE
  8
0
 62
     0
 10
78.005308
 20
30.71236
 30
0.0
 11
73.158685
 21
35.558983
 31
0.0
  0
LINE
  8
0
 62
     0
 10
78.005308
 20
33.36401
 30
0.0
 11
76.010469
 21
35.358849
 31
0.0
  0
ENDBLK
  8
0
  0
BLOCK
  8
0
  2
*X2
 70
    65
 10
0.0
 20
0.0
 30
0.0
  3
*X
  0
LINE
  8
0
 62
     0
 10
22.30267
 20
1.089466
 30
0.0
 11
33.701369
 21
12.488165
 31
0.0
  0
LINE
  8
0
 62
     0
 10
21.957955
 20
3.396402
 30
0.0
 11
33.701369
 21
15.139816
 31
0.0
  0
LINE
  8
0
 62
     0
 10
21.613241
 20
5.703338
 30
0.0
 11
33.701369
 21
17.791466
 31
0.0
  0
LINE
  8
0
 62
     0
 10
21.268526
 20
8.010274
 30
0.0
 11
33.701369
 21
20.443116
 31
0.0
  0
LINE
  8
0
 62
     0
 10
20.923812
 20
10.31721
 30
0.0
 11
33.701369
 21
23.094767
 31
0.0
  0
LINE
  8
0
 62
     0
 10
20.579097
 20
12.624146
 30
0.0
 11
33.701369
 21
25.746417
 31
0.0
  0
LINE
  8
0
 62
     0
 10
20.234383
 20
14.931082
 30
0.0
 11
31.261045
 21
25.957744
 31
0.0
  0
LINE
  8
0
 62
     0
 10
19.889668
 20
17.238018
 30
0.0
 11
28.812685
 21
26.161035
 31
0.0
  0
LINE
  8
0
 62
     0
 10
19.544953
 20
19.544953
 30
0.0
 11
26.482564
 21
26.482564
 31
0.0
  0
LINE
  8
0
 62
     0
 10
19.200239
 20
21.851889
 30
0.0
 11
24.257166
 21
26.908816
 31
0.0
  0
LINE
  8
0
 62
     0
 10
18.855524
 20
24.158825
 30
0.0
 11
22.126085
 21
27.429386
 31
0.0
  0
LINE
  8
0
 62
     0
 10
22.647384
 20
-1.217469
 30
0.0
 11
33.701369
 21
9.836515
 31
0.0
  0
LINE
  8
0
 62
     0
 10
22.992099
 20
-3.524405
 30
0.0
 11
29.401369
 21
2.884864
 31
0.0
  0
LINE
  8
0
 62
     0
 10
30.340073
 20
3.823568
 30
0.0
 11
33.701369
 21
7.184864
 31
0.0
  0
LINE
  8
0
 62
     0
 10
23.336814
 20
-5.831341
 30
0.0
 11
29.401369
 21
0.233214
 31
0.0
  0
LINE
  8
0
 62
     0
 10
23.681528
 20
-8.138277
 30
0.0
 11
29.401369
 21
-2.418437
 31
0.0
  0
LINE
  8
0
 62
     0
 10
24.026243
 20
-10.445213
 30
0.0
 11
29.401369
 21
-5.070087
 31
0.0
  0
LINE
  8
0
 62
     0
 10
24.370957
 20
-12.752149
 30
0.0
 11
29.401369
 21
-7.721737
 31
0.0
  0
LINE
  8
0
 62
     0
 10
24.715672
 20
-15.059085
 30
0.0
 11
29.401369
 21
-10.373388
 31
0.0
  0
LINE
  8
0
 62
     0
 10
25.165501
 20
-17.260906
 30
0.0
 11
29.401369
 21
-13.025038
 31
0.0
  0
LINE
  8
0
 62
     0
 10
26.774212
 20
-18.303846
 30
0.0
 11
29.401369
 21
-15.676689
 31
0.0
  0
LINE
  8
0
 62
     0
 10
29.401369
 20
-0.233214
 30
0.0
 11
21.287964
 21
7.880191
 31
0.0
  0
LINE
  8
0
 62
     0
 10
29.401369
 20
-2.884864
 30
0.0
 11
21.753794
 21
4.76271
 31
0.0
  0
LINE
  8
0
 62
     0
 10
29.401369
 20
-5.536515
 30
0.0
 11
22.219625
 21
1.645229
 31
0.0
  0
LINE
  8
0
 62
     0
 10
29.401369
 20
-8.188165
 30
0.0
 11
22.685455
 21
-1.472252
 31
0.0
  0
LINE
  8
0
 62
     0
 10
29.401369
 20
-10.839816
 30
0.0
 11
23.151286
 21
-4.589733
 31
0.0
  0
LINE
  8
0
 62
     0
 10
29.401369
 20
-13.491466
 30
0.0
 11
23.617116
 21
-7.707214
 31
0.0
  0
LINE
  8
0
 62
     0
 10
29.401369
 20
-16.143116
 30
0.0
 11
24.082947
 21
-10.824695
 31
0.0
  0
LINE
  8
0
 62
     0
 10
28.808744
 20
-18.202142
 30
0.0
 11
24.548777
 21
-13.942176
 31
0.0
  0
LINE
  8
0
 62
     0
 10
26.074972
 20
-18.120021
 30
0.0
 11
25.114219
 21
-17.159267
 31
0.0
  0
LINE
  8
0
 62
     0
 10
29.401369
 20
2.418437
 30
0.0
 11
20.822133
 21
10.997672
 31
0.0
  0
LINE
  8
0
 62
     0
 10
30.535219
 20
3.936236
 30
0.0
 11
20.356303
 21
14.115153
 31
0.0
  0
LINE
  8
0
 62
     0
 10
32.216298
 20
4.906808
 30
0.0
 11
19.890472
 21
17.232634
 31
0.0
  0
LINE
  8
0
 62
     0
 10
33.701369
 20
6.073388
 30
0.0
 11
19.424642
 21
20.350114
 31
0.0
  0
LINE
  8
0
 62
     0
 10
33.701369
 20
8.725038
 30
0.0
 11
18.958811
 21
23.467595
 31
0.0
  0
LINE
  8
0
 62
     0
 10
33.701369
 20
11.376689
 30
0.0
 11
19.294472
 21
25.783586
 31
0.0
  0
LINE
  8
0
 62
     0
 10
33.701369
 20
14.028339
 30
0.0
 11
20.620297
 21
27.109411
 31
0.0
  0
LINE
  8
0
 62
     0
 10
33.701369
 20
16.67999
 30
0.0
 11
23.237385
 21
27.143973
 31
0.0
  0
LINE
  8
0
 62
     0
 10
33.701369
 20
19.33164
 30
0.0
 11
26.56378
 21
26.469229
 31
0.0
  0
LINE
  8
0
 62
     0
 10
33.701369
 20
21.98329
 30
0.0
 11
29.604326
 21
26.080333
 31
0.0
  0
LINE
  8
0
 62
     0
 10
33.701369
 20
24.634941
 30
0.0
 11
32.427509
 21
25.908801
 31
0.0
  0
ENDBLK
  8
0
  0
BLOCK
  8
0
  2
*X3
 70
    65
 10
0.0
 20
0.0
 30
0.0
  3
*X
  0
LINE
  8
0
 62
     0
 10
-11.922839
 20
-6.619538
 30
0.0
 11
-6.078289
 21
-0.774988
 31
0.0
  0
LINE
  8
0
 62
     0
 10
-3.546516
 20
1.756785
 30
0.0
 11
-2.678289
 21
2.625012
 31
0.0
  0
LINE
  8
0
 62
     0
 10
-12.274263
 20
-4.319311
 30
0.0
 11
-2.678289
 21
5.276662
 31
0.0
  0
LINE
  8
0
 62
     0
 10
-12.625686
 20
-2.019084
 30
0.0
 11
-2.678289
 21
7.928313
 31
0.0
  0
LINE
  8
0
 62
     0
 10
-12.97711
 20
0.281143
 30
0.0
 11
-2.678289
 21
10.579963
 31
0.0
  0
LINE
  8
0
 62
     0
 10
-13.328533
 20
2.581369
 30
0.0
 11
-2.678289
 21
13.231614
 31
0.0
  0
LINE
  8
0
 62
     0
 10
-13.679957
 20
4.881596
 30
0.0
 11
-3.366379
 21
15.195174
 31
0.0
  0
LINE
  8
0
 62
     0
 10
-14.03138
 20
7.181823
 30
0.0
 11
-5.886827
 21
15.326376
 31
0.0
  0
LINE
  8
0
 62
     0
 10
-14.382804
 20
9.48205
 30
0.0
 11
-8.258487
 21
15.606367
 31
0.0
  0
LINE
  8
0
 62
     0
 10
-14.734227
 20
11.782277
 30
0.0
 11
-10.50235
 21
16.014155
 31
0.0
  0
LINE
  8
0
 62
     0
 10
-15.085651
 20
14.082504
 30
0.0
 11
-12.633686
 21
16.534469
 31
0.0
  0
LINE
  8
0
 62
     0
 10
-11.571415
 20
-8.919765
 30
0.0
 11
-6.078289
 21
-3.426638
 31
0.0
  0
LINE
  8
0
 62
     0
 10
-11.219992
 20
-11.219992
 30
0.0
 11
-6.078289
 21
-6.078289
 31
0.0
  0
LINE
  8
0
 62
     0
 10
-10.868568
 20
-13.520219
 30
0.0
 11
-6.078289
 21
-8.729939
 31
0.0
  0
LINE
  8
0
 62
     0
 10
-10.517145
 20
-15.820446
 30
0.0
 11
-6.078289
 21
-11.38159
 31
0.0
  0
LINE
  8
0
 62
     0
 10
-10.165721
 20
-18.120672
 30
0.0
 11
-6.078289
 21
-14.03324
 31
0.0
  0
LINE
  8
0
 62
     0
 10
-9.739447
 20
-20.346049
 30
0.0
 11
-6.078289
 21
-16.684891
 31
0.0
  0
LINE
  8
0
 62
     0
 10
-8.052887
 20
-21.311139
 30
0.0
 11
-6.078289
 21
-19.336541
 31
0.0
  0
LINE
  8
0
 62
     0
 10
-6.078289
 20
-4.528313
 30
0.0
 11
-13.35388
 21
2.747279
 31
0.0
  0
LINE
  8
0
 62
     0
 10
-6.078289
 20
-7.179963
 30
0.0
 11
-12.875714
 21
-0.382538
 31
0.0
  0
LINE
  8
0
 62
     0
 10
-6.078289
 20
-9.831614
 30
0.0
 11
-12.397547
 21
-3.512355
 31
0.0
  0
LINE
  8
0
 62
     0
 10
-6.078289
 20
-12.483264
 30
0.0
 11
-11.919381
 21
-6.642172
 31
0.0
  0
LINE
  8
0
 62
     0
 10
-6.078289
 20
-15.134915
 30
0.0
 11
-11.441215
 21
-9.771989
 31
0.0
  0
LINE
  8
0
 62
     0
 10
-6.078289
 20
-17.786565
 30
0.0
 11
-10.963048
 21
-12.901806
 31
0.0
  0
LINE
  8
0
 62
     0
 10
-6.078289
 20
-20.438215
 30
0.0
 11
-10.484882
 21
-16.031623
 31
0.0
  0
LINE
  8
0
 62
     0
 10
-7.857016
 20
-21.311139
 30
0.0
 11
-10.006715
 21
-19.16144
 31
0.0
  0
LINE
  8
0
 62
     0
 10
-6.078289
 20
-1.876662
 30
0.0
 11
-13.832047
 21
5.877096
 31
0.0
  0
LINE
  8
0
 62
     0
 10
-5.77403
 20
0.470729
 30
0.0
 11
-14.310213
 21
9.006912
 31
0.0
  0
LINE
  8
0
 62
     0
 10
-4.092951
 20
1.4413
 30
0.0
 11
-14.78838
 21
12.136729
 31
0.0
  0
LINE
  8
0
 62
     0
 10
-2.678289
 20
2.678289
 30
0.0
 11
-14.933575
 21
14.933575
 31
0.0
  0
LINE
  8
0
 62
     0
 10
-2.678289
 20
5.329939
 30
0.0
 11
-13.60775
 21
16.2594
 31
0.0
  0
LINE
  8
0
 62
     0
 10
-2.678289
 20
7.98159
 30
0.0
 11
-10.768686
 21
16.071987
 31
0.0
  0
LINE
  8
0
 62
     0
 10
-2.678289
 20
10.63324
 30
0.0
 11
-7.551961
 21
15.506912
 31
0.0
  0
LINE
  8
0
 62
     0
 10
-2.678289
 20
13.284891
 30
0.0
 11
-4.633252
 21
15.239854
 31
0.0
  0
ENDBLK
  8
0
  0
ENDSEC
  0
SECTION
  2
ENTITIES
  0
CIRCLE
  8
0
 10
-31.528755
 20
-38.112896
 30
0.0
 40
10.0
  0
LINE
  8
0
 10
-36.659305
 20
-24.075265
 30
0.0
 11
-26.398205
 21
-24.075265
 31
0.0
  0
LINE
  8
0
 10
-40.028755
 20
5.924735
 30
0.0
 11
-23.028755
 21
5.924735
 31
0.0
  0
LINE
  8
0
 10
-31.528755
 20
4.424735
 30
0.0
 11
-21.528755
 21
4.424735
 31
0.0
  0
LINE
  8
0
 10
-37.649599
 20
-23.214253
 30
0.0
 11
-41.528755
 21
4.424735
 31
0.0
  0
LINE
  8
0
 10
-25.407911
 20
-23.214253
 30
0.0
 11
-21.528755
 21
4.424735
 31
0.0
  0
LINE
  8
0
 10
-41.528755
 20
4.424735
 30
0.0
 11
-40.028755
 21
5.924735
 31
0.0
  0
LINE
  8
0
 10
-40.028755
 20
5.924735
 30
0.0
 11
-23.028755
 21
5.924735
 31
0.0
  0
LINE
  8
0
 10
-23.028755
 20
5.924735
 30
0.0
 11
-21.528755
 21
4.424735
 31
0.0
  0
ARC
  8
0
 10
-31.528755
 20
41.549735
 30
0.0
 40
36.625
 50
256.580326
 51
270.0
  0
ARC
  8
0
 10
-36.659305
 20
-23.075265
 30
0.0
 40
1.0
 50
187.989327
 51
270.0
  0
ARC
  8
0
 10
-26.398205
 20
-23.075265
 30
0.0
 40
1.0
 50
270.0
 51
352.010673
  0
CIRCLE
  8
0
 10
-31.528755
 20
-38.112896
 30
0.0
 40
8.5
  0
LINE
  8
0
 10
-34.528755
 20
-6.075265
 30
0.0
 11
-31.528755
 21
-6.075265
 31
0.0
  0
LINE
  8
0
 10
-34.028755
 20
-3.804636
 30
0.0
 11
-31.528755
 21
-2.36126
 31
0.0
  0
LINE
  8
0
  6
CENTER
 10
-31.528755
 20
-24.93886
 30
0.0
 11
-31.528755
 21
7.264301
 31
0.0
  0
CIRCLE
  8
0
 10
-2.678289
 20
-38.112896
 30
0.0
 40
12.5
  0
CIRCLE
  8
0
 10
-2.678289
 20
-38.112896
 30
0.0
 40
10.5
  0
LINE
  8
0
 10
-8.175344
 20
-21.311139
 30
0.0
 11
2.818767
 21
-21.311139
 31
0.0
  0
LINE
  8
0
 10
-13.178289
 20
16.688861
 30
0.0
 11
7.821711
 21
16.688861
 31
0.0
  0
LINE
  8
0
 10
-15.178289
 20
14.688861
 30
0.0
 11
-13.178289
 21
16.688861
 31
0.0
  0
LINE
  8
0
 10
7.821711
 20
16.688861
 30
0.0
 11
9.821711
 21
14.688861
 31
0.0
  0
LINE
  8
0
 10
-9.905272
 20
-19.825434
 30
0.0
 11
-15.178289
 21
14.688861
 31
0.0
  0
LINE
  8
0
 10
4.548694
 20
-19.825434
 30
0.0
 11
9.821711
 21
14.688861
 31
0.0
  0
ARC
  8
0
 10
-8.175344
 20
-19.561139
 30
0.0
 40
1.75
 50
188.686355
 51
270.0
  0
ARC
  8
0
 10
2.818767
 20
-19.561139
 30
0.0
 40
1.75
 50
270.0
 51
351.313645
  0
ARC
  8
0
 10
-2.678289
 20
52.688861
 30
0.0
 40
37.5
 50
253.739795
 51
270.0
  0
LINE
  8
0
 10
9.821711
 20
14.688861
 30
0.0
 11
-2.678289
 21
14.688861
 31
0.0
  0
LINE
  8
0
 10
-6.678289
 20
-21.311139
 30
0.0
 11
-6.678289
 21
-3.311139
 31
0.0
  0
LINE
  8
0
 10
-6.078289
 20
-20.711139
 30
0.0
 11
-6.078289
 21
0.295065
 31
0.0
  0
LINE
  8
0
 10
-6.678289
 20
-3.311139
 30
0.0
 11
-2.678289
 21
-3.311139
 31
0.0
  0
LINE
  8
0
 10
-6.078289
 20
0.295065
 30
0.0
 11
-2.678289
 21
2.258056
 31
0.0
  0
LINE
  8
0
  6
CENTER
 10
-2.678289
 20
-22.631853
 30
0.0
 11
-2.678289
 21
19.030659
 31
0.0
  0
CIRCLE
  8
0
 10
33.701369
 20
-38.112896
 30
0.0
 40
15.0
  0
CIRCLE
  8
0
 10
33.701369
 20
-38.112896
 30
0.0
 40
12.5
  0
LINE
  8
0
 10
26.924723
 20
-18.309517
 30
0.0
 11
40.478014
 21
-18.309517
 31
0.0
  0
LINE
  8
0
 10
21.201369
 20
27.690483
 30
0.0
 11
46.201369
 21
27.690483
 31
0.0
  0
LINE
  8
0
 10
18.701369
 20
25.190483
 30
0.0
 11
21.201369
 21
27.690483
 31
0.0
  0
LINE
  8
0
 10
46.201369
 20
27.690483
 30
0.0
 11
48.701369
 21
25.190483
 31
0.0
  0
LINE
  8
0
 10
24.946683
 20
-16.605086
 30
0.0
 11
18.701369
 21
25.190483
 31
0.0
  0
LINE
  8
0
 10
42.456054
 20
-16.605086
 30
0.0
 11
48.701369
 21
25.190483
 31
0.0
  0
ARC
  8
0
 10
26.924723
 20
-16.309517
 30
0.0
 40
2.0
 50
188.498559
 51
270.0
  0
ARC
  8
0
 10
40.478014
 20
-16.309517
 30
0.0
 40
2.0
 50
270.0
 51
351.501441
  0
ARC
  8
0
 10
33.701369
 20
70.193261
 30
0.0
 40
44.302778
 50
253.611473
 51
270.0
  0
LINE
  8
0
 10
48.701369
 20
25.190483
 30
0.0
 11
33.701369
 21
25.190483
 31
0.0
  0
LINE
  8
0
 10
28.701369
 20
-1.309517
 30
0.0
 11
33.701369
 21
-1.309517
 31
0.0
  0
LINE
  8
0
 10
28.701369
 20
-18.309517
 30
0.0
 11
28.701369
 21
-1.309517
 31
0.0
  0
LINE
  8
0
 10
29.401369
 20
-17.609517
 30
0.0
 11
29.401369
 21
3.281607
 31
0.0
  0
LINE
  8
0
 10
29.401369
 20
3.281607
 30
0.0
 11
33.701369
 21
5.764213
 31
0.0
  0
LINE
  8
0
  6
CENTER
 10
33.701369
 20
-20.230555
 30
0.0
 11
33.701369
 21
29.476303
 31
0.0
  0
CIRCLE
  8
0
 10
78.005308
 20
-38.112896
 30
0.0
 40
17.5
  0
CIRCLE
  8
0
 10
78.005308
 20
-38.112896
 30
0.0
 40
14.5
  0
LINE
  8
0
 10
69.505738
 20
-15.48187
 30
0.0
 11
86.504877
 21
-15.48187
 31
0.0
  0
LINE
  8
0
 10
63.505308
 20
37.51813
 30
0.0
 11
92.505308
 21
37.51813
 31
0.0
  0
LINE
  8
0
 10
60.505308
 20
34.51813
 30
0.0
 11
63.505308
 21
37.51813
 31
0.0
  0
LINE
  8
0
 10
92.505308
 20
37.51813
 30
0.0
 11
95.505308
 21
34.51813
 31
0.0
  0
LINE
  8
0
 10
67.227952
 20
-13.50076
 30
0.0
 11
60.505308
 21
34.51813
 31
0.0
  0
LINE
  8
0
 10
88.782663
 20
-13.50076
 30
0.0
 11
95.505308
 21
34.51813
 31
0.0
  0
ARC
  8
0
 10
78.005308
 20
84.202221
 30
0.0
 40
48.884091
 50
252.745294
 51
270.0
  0
LINE
  8
0
 10
95.505308
 20
34.51813
 30
0.0
 11
78.005308
 21
34.51813
 31
0.0
  0
ARC
  8
0
 10
69.505738
 20
-13.18187
 30
0.0
 40
2.3
 50
187.96961
 51
270.0
  0
ARC
  8
0
 10
86.504877
 20
-13.18187
 30
0.0
 40
2.3
 50
270.0
 51
352.03039
  0
LINE
  8
0
 10
72.005308
 20
-15.48187
 30
0.0
 11
72.005308
 21
5.51813
 31
0.0
  0
LINE
  8
0
 10
72.755308
 20
-14.73187
 30
0.0
 11
72.755308
 21
9.65125
 31
0.0
  0
LINE
  8
0
 10
72.005308
 20
5.51813
 30
0.0
 11
78.005308
 21
5.51813
 31
0.0
  0
LINE
  8
0
 10
72.755308
 20
9.65125
 30
0.0
 11
78.005308
 21
12.682339
 31
0.0
  0
LINE
  8
0
  6
CENTER
 10
78.005308
 20
-17.305836
 30
0.0
 11
78.005308
 21
39.305576
 31
0.0
  0
LINE
  8
0
 10
-34.528755
 20
-24.075265
 30
0.0
 11
-34.528755
 21
-6.075265
 31
0.0
  0
LINE
  8
0
 10
-34.028755
 20
-23.575265
 30
0.0
 11
-34.028755
 21
-3.804636
 31
0.0
  0
LINE
  8
0
 10
-34.028755
 20
-23.575265
 30
0.0
 11
-31.528755
 21
-23.575265
 31
0.0
  0
LINE
  8
0
 10
-6.078289
 20
-20.711139
 30
0.0
 11
-2.678289
 21
-20.711139
 31
0.0
  0
LINE
  8
0
 10
-6.678289
 20
-21.311139
 30
0.0
 11
-6.078289
 21
-20.711139
 31
0.0
  0
LINE
  8
0
 10
-34.528755
 20
-24.075265
 30
0.0
 11
-34.028755
 21
-23.575265
 31
0.0
  0
LINE
  8
0
 10
29.401369
 20
-17.609517
 30
0.0
 11
33.701369
 21
-17.609517
 31
0.0
  0
LINE
  8
0
 10
72.755308
 20
-14.73187
 30
0.0
 11
78.005308
 21
-14.73187
 31
0.0
  0
LINE
  8
0
 10
28.701369
 20
-18.309517
 30
0.0
 11
29.401369
 21
-17.609517
 31
0.0
  0
LINE
  8
0
 10
72.005308
 20
-15.48187
 30
0.0
 11
72.755308
 21
-14.73187
 31
0.0
  0
INSERT
  8
0
  2
*X0
 10
0.0
 20
0.0
 30
0.0
1001
ACAD
1000
HATCH
1002
{
1070
    16
1000
ANSI37
1040
15.0
1040
0.0
1002
}
  0
INSERT
  8
0
  2
*X1
 10
0.0
 20
0.0
 30
0.0
1001
ACAD
1000
HATCH
1002
{
1070
    16
1000
ANSI37
1040
15.0
1040
0.0
1002
}
  0
INSERT
  8
0
  2
*X2
 10
0.0
 20
0.0
 30
0.0
1001
ACAD
1000
HATCH
1002
{
1070
    16
1000
ANSI37
1040
15.0
1040
0.0
1002
}
  0
INSERT
  8
0
  2
*X3
 10
0.0
 20
0.0
 30
0.0
1001
ACAD
1000
HATCH
1002
{
1070
    16
1000
ANSI37
1040
15.0
1040
0.0
1002
}
  0
LINE
  8
0
 10
-34.028755
 20
-3.804636
 30
0.0
 11
-31.528755
 21
-3.804636
 31
0.0
  0
LINE
  8
0
 10
-6.078289
 20
0.295065
 30
0.0
 11
-2.678289
 21
0.295065
 31
0.0
  0
LINE
  8
0
 10
72.755308
 20
9.65125
 30
0.0
 11
78.005308
 21
9.65125
 31
0.0
  0
LINE
  8
0
 10
29.401369
 20
3.281607
 30
0.0
 11
33.701369
 21
3.281607
 31
0.0
  0
ENDSEC
  0
EOF
