  0
SECTION
  2
HEADER
  9
$ACADVER
  1
AC1009
  9
$INSBASE
 10
0.0
 20
0.0
 30
0.0
  9
$EXTMIN
 10
199.2864224133875
 20
144.98780908783399
 30
-0.0000000000112498
  9
$EXTMAX
 10
539.20542920628156
 20
215.00505125523199
 30
0.0000000000002956
  9
$LIMMIN
 10
0.0
 20
0.0
  9
$LIMMAX
 10
420.0
 20
297.0
  9
$ORTHOMODE
 70
     1
  9
$REGENMODE
 70
     1
  9
$FILLMODE
 70
     1
  9
$QTEXTMODE
 70
     0
  9
$MIRRTEXT
 70
     1
  9
$DRAGMODE
 70
     2
  9
$LTSCALE
 40
1.0
  9
$OSMODE
 70
    40
  9
$ATTMODE
 70
     1
  9
$TEXTSIZE
 40
2.5
  9
$TRACEWID
 40
1.0
  9
$TEXTSTYLE
  7
STANDARD
  9
$CLAYER
  8
0
  9
$CELTYPE
  6
BYLAYER
  9
$CECOLOR
 62
   256
  9
$DIMSCALE
 40
1.0
  9
$DIMASZ
 40
2.5
  9
$DIMEXO
 40
0.625
  9
$DIMDLI
 40
3.75
  9
$DIMRND
 40
0.0
  9
$DIMDLE
 40
0.0
  9
$DIMEXE
 40
1.25
  9
$DIMTP
 40
0.0
  9
$DIMTM
 40
0.0
  9
$DIMTXT
 40
2.5
  9
$DIMCEN
 40
2.5
  9
$DIMTSZ
 40
0.0
  9
$DIMTOL
 70
     0
  9
$DIMLIM
 70
     0
  9
$DIMTIH
 70
     1
  9
$DIMTOH
 70
     1
  9
$DIMSE1
 70
     0
  9
$DIMSE2
 70
     0
  9
$DIMTAD
 70
     1
  9
$DIMZIN
 70
     8
  9
$DIMBLK
  1

  9
$DIMASO
 70
     1
  9
$DIMSHO
 70
     1
  9
$DIMPOST
  1

  9
$DIMAPOST
  1

  9
$DIMALT
 70
     0
  9
$DIMALTD
 70
     3
  9
$DIMALTF
 40
0.03937007874016
  9
$DIMLFAC
 40
1.0
  9
$DIMTOFL
 70
     1
  9
$DIMTVP
 40
0.0
  9
$DIMTIX
 70
     0
  9
$DIMSOXD
 70
     0
  9
$DIMSAH
 70
     0
  9
$DIMBLK1
  1

  9
$DIMBLK2
  1

  9
$DIMSTYLE
  2
ISO-25
  9
$DIMCLRD
 70
     0
  9
$DIMCLRE
 70
     0
  9
$DIMCLRT
 70
     0
  9
$DIMTFAC
 40
1.0
  9
$DIMGAP
 40
0.625
  9
$LUNITS
 70
     2
  9
$LUPREC
 70
     4
  9
$SKETCHINC
 40
1.0
  9
$FILLETRAD
 40
1.25
  9
$AUNITS
 70
     0
  9
$AUPREC
 70
     0
  9
$MENU
  1
.
  9
$ELEVATION
 40
0.0
  9
$PELEVATION
 40
0.0
  9
$THICKNESS
 40
0.0
  9
$LIMCHECK
 70
     0
  9
$BLIPMODE
 70
     0
  9
$CHAMFERA
 40
10.0
  9
$CHAMFERB
 40
10.0
  9
$SKPOLY
 70
     0
  9
$TDCREATE
 40
2452233.3799771988
  9
$TDUPDATE
 40
2452233.5891099758
  9
$TDINDWG
 40
0.121844537
  9
$TDUSRTIMER
 40
0.121844537
  9
$USRTIMER
 70
     1
  9
$ANGBASE
 50
0.0
  9
$ANGDIR
 70
     0
  9
$PDMODE
 70
     0
  9
$PDSIZE
 40
0.0
  9
$PLINEWID
 40
0.0
  9
$COORDS
 70
     2
  9
$SPLFRAME
 70
     0
  9
$SPLINETYPE
 70
     6
  9
$SPLINESEGS
 70
     8
  9
$ATTDIA
 70
     0
  9
$ATTREQ
 70
     1
  9
$HANDLING
 70
-16383
  9
$HANDSEED
  5
1783
  9
$SURFTAB1
 70
     6
  9
$SURFTAB2
 70
     6
  9
$SURFTYPE
 70
     6
  9
$SURFU
 70
     6
  9
$SURFV
 70
     6
  9
$UCSNAME
  2

  9
$UCSORG
 10
0.0
 20
0.0
 30
0.0
  9
$UCSXDIR
 10
1.0
 20
0.0
 30
0.0
  9
$UCSYDIR
 10
0.0
 20
1.0
 30
0.0
  9
$PUCSNAME
  2

  9
$PUCSORG
 10
0.0
 20
0.0
 30
0.0
  9
$PUCSXDIR
 10
1.0
 20
0.0
 30
0.0
  9
$PUCSYDIR
 10
0.0
 20
1.0
 30
0.0
  9
$USERI1
 70
     0
  9
$USERI2
 70
     0
  9
$USERI3
 70
     0
  9
$USERI4
 70
     0
  9
$USERI5
 70
     0
  9
$USERR1
 40
0.0
  9
$USERR2
 40
0.0
  9
$USERR3
 40
0.0
  9
$USERR4
 40
0.0
  9
$USERR5
 40
0.0
  9
$WORLDVIEW
 70
     1
  9
$SHADEDGE
 70
     3
  9
$SHADEDIF
 70
    70
  9
$TILEMODE
 70
     1
  9
$MAXACTVP
 70
    48
  9
$PLIMCHECK
 70
     0
  9
$PEXTMIN
 10
0.0
 20
0.0
 30
0.0
  9
$PEXTMAX
 10
0.0
 20
0.0
 30
0.0
  9
$PLIMMIN
 10
0.0
 20
0.0
  9
$PLIMMAX
 10
12.0
 20
9.0
  9
$UNITMODE
 70
     0
  9
$VISRETAIN
 70
     1
  9
$PLINEGEN
 70
     0
  9
$PSLTSCALE
 70
     1
  0
ENDSEC
  0
SECTION
  2
TABLES
  0
TABLE
  2
VPORT
 70
    49
  0
VPORT
  2
*ACTIVE
 70
     0
 10
0.0
 20
0.0
 11
1.0
 21
1.0
 12
369.2459258098346
 22
179.99643017153301
 13
0.0
 23
0.0
 14
10.0
 24
10.0
 15
10.0
 25
10.0
 16
0.0
 26
0.0
 36
1.0
 17
0.0
 27
0.0
 37
0.0
 40
438.66404292692908
 41
1.5573979591836731
 42
50.0
 43
0.0
 44
0.0
 50
0.0
 51
0.0
 71
     0
 72
   100
 73
     1
 74
     3
 75
     0
 76
     0
 77
     0
 78
     0
  0
ENDTAB
  0
TABLE
  2
LTYPE
 70
     3
  0
LTYPE
  2
CONTINUOUS
 70
     0
  3
Solid line
 72
    65
 73
     0
 40
0.0
  0
LTYPE
  2
CENTER
 70
     0
  3
Center (.5x) ___ _ ___ _ ___ _ ___ _ ___ _ ___
 72
    65
 73
     4
 40
28.574999999999989
 49
19.050000000000001
 49
-3.1749999999999989
 49
3.1749999999999989
 49
-3.1749999999999989
  0
ENDTAB
  0
TABLE
  2
LAYER
 70
     2
  0
LAYER
  2
0
 70
     0
 62
     7
  6
CONTINUOUS
  0
ENDTAB
  0
TABLE
  2
STYLE
 70
     1
  0
STYLE
  2
STANDARD
 70
     0
 40
0.0
 41
1.0
 50
0.0
 71
     0
 42
2.5
  3
txt
  4

  0
ENDTAB
  0
TABLE
  2
VIEW
 70
     0
  0
ENDTAB
  0
TABLE
  2
UCS
 70
     0
  0
ENDTAB
  0
TABLE
  2
APPID
 70
     1
  0
APPID
  2
ACAD
 70
     0
  0
ENDTAB
  0
TABLE
  2
DIMSTYLE
 70
     1
  0
DIMSTYLE
  2
ISO-25
 70
     0
  3

  4

  5

  6

  7

 40
1.0
 41
2.5
 42
0.625
 43
3.75
 44
1.25
 45
0.0
 46
0.0
 47
0.0
 48
0.0
140
2.5
141
2.5
142
0.0
143
0.03937007874016
144
1.0
145
0.0
146
1.0
147
0.625
 71
     0
 72
     0
 73
     1
 74
     1
 75
     0
 76
     0
 77
     1
 78
     8
170
     0
171
     3
172
     1
173
     0
174
     0
175
     0
176
     0
177
     0
178
     0
  0
ENDTAB
  0
ENDSEC
  0
SECTION
  2
BLOCKS
  0
BLOCK
  8
0
  2
$MODEL_SPACE
 70
     0
 10
0.0
 20
0.0
 30
0.0
  3
$MODEL_SPACE
  1

  0
ENDBLK
  5
21
  8
0
  0
BLOCK
 67
     1
  8
0
  2
$PAPER_SPACE
 70
     0
 10
0.0
 20
0.0
 30
0.0
  3
$PAPER_SPACE
  1

  0
ENDBLK
  5
53
 67
     1
  8
0
  0
BLOCK
  8
0
  2
*X1
 70
     1
 10
0.0
 20
0.0
 30
0.0
  3
*X1
  1

  0
LINE
  5
16F9
  8
0
 62
     0
 10
256.96585668478872
 20
176.68822235024891
 30
0.0
 11
256.15407903503768
 21
177.49999999999989
 31
0.0
  0
LINE
  5
16FA
  8
0
 62
     0
 10
256.53275869147802
 20
175.0
 30
0.0
 11
254.03275869147811
 21
177.49999999999989
 31
0.0
  0
LINE
  5
16FB
  8
0
 62
     0
 10
254.41143834791839
 20
174.99999999999989
 30
0.0
 11
251.91143834791839
 21
177.49999999999989
 31
0.0
  0
LINE
  5
16FC
  8
0
 62
     0
 10
251.31585668478871
 20
175.97426131956999
 30
0.0
 11
249.7901180043587
 21
177.5
 31
0.0
  0
LINE
  5
16FD
  8
0
 62
     0
 10
252.96585668478869
 20
174.32426131957001
 30
0.0
 11
251.31585668478871
 21
175.97426131956999
 31
0.0
  0
LINE
  5
16FE
  8
0
 62
     0
 10
251.31585668478871
 20
173.85294097601039
 30
0.0
 11
247.6687976607991
 21
177.49999999999989
 31
0.0
  0
LINE
  5
16FF
  8
0
 62
     0
 10
255.71899575473691
 20
169.44980190606211
 30
0.0
 11
251.31585668478871
 21
173.8529409760103
 31
0.0
  0
LINE
  5
1700
  8
0
 62
     0
 10
251.31585668478871
 20
171.7316206324507
 30
0.0
 11
249.66585668478859
 21
173.38162063245079
 31
0.0
  0
LINE
  5
1701
  8
0
 62
     0
 10
255.81585668478871
 20
167.23162063245061
 30
0.0
 11
251.31585668478871
 21
171.7316206324507
 31
0.0
  0
LINE
  5
1702
  8
0
 62
     0
 10
248.0474773172395
 20
174.99999999999989
 30
0.0
 11
245.8566670010141
 21
177.19081031622531
 31
0.0
  0
LINE
  5
1703
  8
0
 62
     0
 10
256.31585668478863
 20
166.73162063245081
 30
0.0
 11
256.0474773172395
 21
166.99999999999989
 31
0.0
  0
LINE
  5
1704
  8
0
 62
     0
 10
250.94870808186471
 20
169.97744889181499
 30
0.0
 11
248.83467501110121
 21
172.09148196257851
 31
0.0
  0
LINE
  5
1705
  8
0
 62
     0
 10
245.92615697367989
 20
174.99999999999989
 30
0.0
 11
245.66585668478851
 21
175.26030028889119
 31
0.0
  0
LINE
  5
1706
  8
0
 62
     0
 10
255.8007373153759
 20
165.12541965830391
 30
0.0
 11
254.3158566847886
 21
166.6103002888911
 31
0.0
  0
LINE
  5
1707
  8
0
 62
     0
 10
249.45316259969729
 20
169.3516740304228
 30
0.0
 11
247.72671402517159
 21
171.0781226049485
 31
0.0
  0
LINE
  5
1708
  8
0
 62
     0
 10
248.5416603862372
 20
168.14185590032329
 30
0.0
 11
246.98667108400829
 21
169.6968452025522
 31
0.0
  0
LINE
  5
1709
  8
0
 62
     0
 10
248.3158566847886
 20
166.2463392582122
 30
0.0
 11
246.81585668478871
 21
167.74633925821209
 31
0.0
  0
LINE
  5
170A
  8
0
 62
     0
 10
247.43388574129301
 20
165.0069898581481
 30
0.0
 11
246.3158566847888
 21
166.12501891465249
 31
0.0
  0
LINE
  5
170B
  8
0
 62
     0
 10
255.03921130175431
 20
165.0390279233786
 30
0.0
 11
256.31585668478863
 21
166.315673306413
 31
0.0
  0
LINE
  5
170C
  8
0
 62
     0
 10
254.3158566847886
 20
166.43699364997261
 30
0.0
 11
255.81585668478871
 21
167.93699364997269
 31
0.0
  0
LINE
  5
170D
  8
0
 62
     0
 10
254.03179000294281
 20
168.27424731168639
 30
0.0
 11
255.5957437209822
 21
169.83820102972581
 31
0.0
  0
LINE
  5
170E
  8
0
 62
     0
 10
253.0699650860663
 20
169.4337427383696
 30
0.0
 11
254.81981265355151
 21
171.18359030585481
 31
0.0
  0
LINE
  5
170F
  8
0
 62
     0
 10
251.5086976488935
 20
169.9937956447564
 30
0.0
 11
253.67987858967351
 21
172.16497658553649
 31
0.0
  0
LINE
  5
1710
  8
0
 62
     0
 10
256.51490200413701
 20
174.99999999999989
 30
0.0
 11
256.96585668478872
 21
175.45095468065159
 31
0.0
  0
LINE
  5
1711
  8
0
 62
     0
 10
246.71531131904581
 20
165.20040931490871
 30
0.0
 11
248.3158566847886
 21
166.8009546806515
 31
0.0
  0
LINE
  5
1712
  8
0
 62
     0
 10
251.31585668478871
 20
171.92227502421119
 30
0.0
 11
252.96585668478869
 21
173.57227502421119
 31
0.0
  0
LINE
  5
1713
  8
0
 62
     0
 10
246.81585668478871
 20
167.4222750242113
 30
0.0
 11
251.31585668478871
 21
171.92227502421119
 31
0.0
  0
LINE
  5
1714
  8
0
 62
     0
 10
254.39358166057741
 20
175.0
 30
0.0
 11
256.67971917268301
 21
177.28613751210551
 31
0.0
  0
LINE
  5
1715
  8
0
 62
     0
 10
246.3158566847888
 20
166.9222750242113
 30
0.0
 11
246.3935816605773
 21
166.99999999999989
 31
0.0
  0
LINE
  5
1716
  8
0
 62
     0
 10
251.31585668478871
 20
174.04359536777091
 30
0.0
 11
254.77226131701769
 21
177.49999999999989
 31
0.0
  0
LINE
  5
1717
  8
0
 62
     0
 10
246.9954729304205
 20
169.7232116134027
 30
0.0
 11
251.31585668478871
 21
174.04359536777079
 31
0.0
  0
LINE
  5
1718
  8
0
 62
     0
 10
251.31585668478871
 20
176.16491571133051
 30
0.0
 11
252.65094097345801
 21
177.49999999999989
 31
0.0
  0
LINE
  5
1719
  8
0
 62
     0
 10
249.66585668478859
 20
174.51491571133039
 30
0.0
 11
251.31585668478871
 21
176.16491571133051
 31
0.0
  0
LINE
  5
171A
  8
0
 62
     0
 10
248.02962062989849
 20
174.99999999999989
 30
0.0
 11
250.5296206298984
 21
177.49999999999989
 31
0.0
  0
LINE
  5
171B
  8
0
 62
     0
 10
245.90830028633869
 20
174.99999999999989
 30
0.0
 11
248.4083002863388
 21
177.49999999999989
 31
0.0
  0
LINE
  5
171C
  8
0
 62
     0
 10
245.66585668478851
 20
176.87887674200931
 30
0.0
 11
246.2869799427792
 21
177.5
 31
0.0
  0
ENDBLK
  5
171E
  8
0
  0
BLOCK
  8
0
  2
*X2
 70
     1
 10
0.0
 20
0.0
 30
0.0
  3
*X2
  1

  0
LINE
  5
1720
  8
0
 62
     0
 10
377.30872448553902
 20
173.77538469034221
 30
0.0
 11
374.08410917588128
 21
176.99999999999989
 31
0.0
  0
LINE
  5
1721
  8
0
 62
     0
 10
374.75568205113501
 20
173.5
 30
0.0
 11
371.25568205113512
 21
177.0
 31
0.0
  0
LINE
  5
1722
  8
0
 62
     0
 10
369.80872448553919
 20
175.61853044084981
 30
0.0
 11
368.42725492638903
 21
177.0
 31
0.0
  0
LINE
  5
1723
  8
0
 62
     0
 10
371.92725492638891
 20
173.5
 30
0.0
 11
369.80872448553919
 21
175.6185304408497
 31
0.0
  0
LINE
  5
1724
  8
0
 62
     0
 10
369.80872448553919
 20
172.7901033161036
 30
0.0
 11
365.5988278016427
 21
177.0
 31
0.0
  0
LINE
  5
1725
  8
0
 62
     0
 10
371.30872448553907
 20
171.2901033161036
 30
0.0
 11
369.80872448553919
 21
172.79010331610351
 31
0.0
  0
LINE
  5
1726
  8
0
 62
     0
 10
369.80872448553919
 20
169.96167619135741
 30
0.0
 11
368.30872448553941
 21
171.4616761913571
 31
0.0
  0
LINE
  5
1727
  8
0
 62
     0
 10
366.27040067689649
 20
173.5
 30
0.0
 11
362.91456258121792
 21
176.85583809567859
 31
0.0
  0
LINE
  5
1728
  8
0
 62
     0
 10
371.30872448553902
 20
168.4616761913575
 30
0.0
 11
369.80872448553919
 21
169.9616761913573
 31
0.0
  0
LINE
  5
1729
  8
0
 62
     0
 10
369.80872448553919
 20
167.13324906661111
 30
0.0
 11
368.30872448553941
 21
168.63324906661089
 31
0.0
  0
LINE
  5
172A
  8
0
 62
     0
 10
363.44197355215027
 20
173.5
 30
0.0
 11
362.3087244855393
 21
174.633249066611
 31
0.0
  0
LINE
  5
172B
  8
0
 62
     0
 10
371.3087244855389
 20
165.6332490666114
 30
0.0
 11
369.80872448553919
 21
167.13324906661111
 31
0.0
  0
LINE
  5
172C
  8
0
 62
     0
 10
369.80872448553919
 20
164.30482194186499
 30
0.0
 11
368.30872448553953
 21
165.80482194186459
 31
0.0
  0
LINE
  5
172D
  8
0
 62
     0
 10
376.01160484452799
 20
158.10194158287609
 30
0.0
 11
369.80872448553919
 21
164.3048219418649
 31
0.0
  0
LINE
  5
172E
  8
0
 62
     0
 10
369.78517476191382
 20
161.49994454074411
 30
0.0
 11
368.19523754042712
 21
163.0898817622309
 31
0.0
  0
LINE
  5
172F
  8
0
 62
     0
 10
376.2037775883839
 20
155.08134171427409
 30
0.0
 11
374.8087244855393
 21
156.47639481711869
 31
0.0
  0
LINE
  5
1730
  8
0
 62
     0
 10
367.51424299894688
 20
160.94244917896489
 30
0.0
 11
366.2548035107838
 21
162.20188866712789
 31
0.0
  0
LINE
  5
1731
  8
0
 62
     0
 10
365.9493693467191
 20
159.6788957064465
 30
0.0
 11
364.80299605662123
 21
160.82526899654431
 31
0.0
  0
LINE
  5
1732
  8
0
 62
     0
 10
364.98476515679857
 20
157.81507277162069
 30
0.0
 11
363.8259389463089
 21
158.9738989821104
 31
0.0
  0
LINE
  5
1733
  8
0
 62
     0
 10
364.59248012347661
 20
155.3789306801965
 30
0.0
 11
362.97141080367311
 21
157.00000000000011
 31
0.0
  0
LINE
  5
1734
  8
0
 62
     0
 10
375.29824540708779
 20
155.14010982651061
 30
0.0
 11
376.8087244855393
 21
156.65058890496209
 31
0.0
  0
LINE
  5
1735
  8
0
 62
     0
 10
374.72746714379838
 20
157.39775868796741
 30
0.0
 11
375.9078589371166
 21
158.57815048128569
 31
0.0
  0
LINE
  5
1736
  8
0
 62
     0
 10
373.88989200877631
 20
159.38861067769159
 30
0.0
 11
375.0286527378193
 21
160.5273714067346
 31
0.0
  0
LINE
  5
1737
  8
0
 62
     0
 10
372.43040881724772
 20
160.7575546109091
 30
0.0
 11
373.65921097330852
 21
161.98635676696989
 31
0.0
  0
LINE
  5
1738
  8
0
 62
     0
 10
370.31838397749152
 20
161.47395689589911
 30
0.0
 11
371.81607280991699
 21
162.9716457283246
 31
0.0
  0
LINE
  5
1739
  8
0
 62
     0
 10
363.84508846999228
 20
155.00066138839989
 30
0.0
 11
364.8080630971391
 21
155.96363601554671
 31
0.0
  0
LINE
  5
173A
  8
0
 62
     0
 10
363.52970314157142
 20
157.51370318472519
 30
0.0
 11
369.80872448553919
 21
163.79272452869299
 31
0.0
  0
LINE
  5
173B
  8
0
 62
     0
 10
369.80872448553919
 20
163.79272452869299
 30
0.0
 11
371.3087244855389
 21
165.2927245286927
 31
0.0
  0
LINE
  5
173C
  8
0
 62
     0
 10
362.80872448553919
 20
156.7927245286931
 30
0.0
 11
363.0159999568462
 21
157.0
 31
0.0
  0
LINE
  5
173D
  8
0
 62
     0
 10
369.80872448553919
 20
166.6211516534392
 30
0.0
 11
371.30872448553902
 21
168.121151653439
 31
0.0
  0
LINE
  5
173E
  8
0
 62
     0
 10
376.68757283209999
 20
173.5
 30
0.0
 11
377.30872448553902
 21
174.121151653439
 31
0.0
  0
LINE
  5
173F
  8
0
 62
     0
 10
368.30872448553953
 20
165.12115165343951
 30
0.0
 11
369.80872448553919
 21
166.6211516534392
 31
0.0
  0
LINE
  5
1740
  8
0
 62
     0
 10
369.80872448553919
 20
169.4495787781853
 30
0.0
 11
371.30872448553902
 21
170.94957877818521
 31
0.0
  0
LINE
  5
1741
  8
0
 62
     0
 10
373.85914570735378
 20
173.5
 30
0.0
 11
376.9589350964464
 21
176.59978938909259
 31
0.0
  0
LINE
  5
1742
  8
0
 62
     0
 10
368.30872448553941
 20
167.9495787781857
 30
0.0
 11
369.80872448553919
 21
169.4495787781853
 31
0.0
  0
LINE
  5
1743
  8
0
 62
     0
 10
369.80872448553919
 20
172.27800590293151
 30
0.0
 11
374.53071858260762
 21
177.0
 31
0.0
  0
LINE
  5
1744
  8
0
 62
     0
 10
368.30872448553941
 20
170.77800590293171
 30
0.0
 11
369.80872448553919
 21
172.27800590293151
 31
0.0
  0
LINE
  5
1745
  8
0
 62
     0
 10
369.80872448553919
 20
175.1064330276777
 30
0.0
 11
371.70229145786152
 21
177.0
 31
0.0
  0
LINE
  5
1746
  8
0
 62
     0
 10
368.20229145786152
 20
173.5
 30
0.0
 11
369.80872448553919
 21
175.1064330276777
 31
0.0
  0
LINE
  5
1747
  8
0
 62
     0
 10
365.37386433311519
 20
173.5
 30
0.0
 11
368.87386433311519
 21
177.0
 31
0.0
  0
LINE
  5
1748
  8
0
 62
     0
 10
362.54543720836898
 20
173.49999999999989
 30
0.0
 11
366.04543720836909
 21
177.0
 31
0.0
  0
LINE
  5
1749
  8
0
 62
     0
 10
362.3087244855393
 20
176.09171440191639
 30
0.0
 11
363.21701008362288
 21
177.0
 31
0.0
  0
ENDBLK
  5
174B
  8
0
  0
BLOCK
  8
0
  2
*X3
 70
     1
 10
0.0
 20
0.0
 30
0.0
  3
*X3
  1

  0
LINE
  5
174D
  8
0
 62
     0
 10
534.17623157890125
 20
174.25142425498561
 30
0.0
 11
532.427655833887
 21
175.9999999999998
 31
0.0
  0
LINE
  5
174E
  8
0
 62
     0
 10
533.12859773435355
 20
172.47063097478721
 30
0.0
 11
529.5992287091409
 21
175.99999999999989
 31
0.0
  0
LINE
  5
174F
  8
0
 62
     0
 10
530.89562895165921
 20
171.87517263273531
 30
0.0
 11
526.77080158439446
 21
175.99999999999989
 31
0.0
  0
LINE
  5
1750
  8
0
 62
     0
 10
524.42623157890125
 20
175.516142880747
 30
0.0
 11
523.94237445964848
 21
175.99999999999989
 31
0.0
  0
LINE
  5
1751
  8
0
 62
     0
 10
528.66266016896475
 20
171.27971429068359
 30
0.0
 11
524.42623157890125
 21
175.516142880747
 31
0.0
  0
LINE
  5
1752
  8
0
 62
     0
 10
524.42623157890125
 20
172.68771575600081
 30
0.0
 11
521.11394733490215
 21
176.0
 31
0.0
  0
LINE
  5
1753
  8
0
 62
     0
 10
526.67623157890148
 20
170.4377157560007
 30
0.0
 11
524.42623157890125
 21
172.68771575600081
 31
0.0
  0
LINE
  5
1754
  8
0
 62
     0
 10
524.42623157890125
 20
169.8592886312546
 30
0.0
 11
518.28552021015594
 21
176.0
 31
0.0
  0
LINE
  5
1755
  8
0
 62
     0
 10
526.67623157890148
 20
167.60928863125449
 30
0.0
 11
524.42623157890125
 21
169.8592886312546
 31
0.0
  0
LINE
  5
1756
  8
0
 62
     0
 10
524.42623157890125
 20
167.03086150650839
 30
0.0
 11
522.17623157890125
 21
169.28086150650859
 31
0.0
  0
LINE
  5
1757
  8
0
 62
     0
 10
520.17286090595837
 20
171.28423217945141
 30
0.0
 11
515.45709308540972
 21
176.00000000000011
 31
0.0
  0
LINE
  5
1758
  8
0
 62
     0
 10
526.67623157890148
 20
164.7808615065083
 30
0.0
 11
524.42623157890125
 21
167.03086150650839
 31
0.0
  0
LINE
  5
1759
  8
0
 62
     0
 10
524.42623157890125
 20
164.2024343817622
 30
0.0
 11
522.17623157890125
 21
166.4524343817624
 31
0.0
  0
LINE
  5
175A
  8
0
 62
     0
 10
526.67623157890148
 20
161.95243438176209
 30
0.0
 11
524.42623157890125
 21
164.2024343817622
 31
0.0
  0
LINE
  5
175B
  8
0
 62
     0
 10
516.31591482675901
 20
172.31275113390461
 30
0.0
 11
514.67623157890148
 21
173.95243438176209
 31
0.0
  0
LINE
  5
175C
  8
0
 62
     0
 10
530.97747744931212
 20
157.65118851135151
 30
0.0
 11
528.07742009025276
 21
160.55124587041081
 31
0.0
  0
LINE
  5
175D
  8
0
 62
     0
 10
524.42623157890125
 20
161.37400725701599
 30
0.0
 11
522.17623157890125
 21
163.62400725701619
 31
0.0
  0
LINE
  5
175E
  8
0
 62
     0
 10
531.92623157890125
 20
153.8740072570161
 30
0.0
 11
524.42623157890125
 21
161.37400725701599
 31
0.0
  0
LINE
  5
175F
  8
0
 62
     0
 10
524.72947990698037
 20
158.2423318041908
 30
0.0
 11
524.42623157890125
 21
158.54558013226981
 31
0.0
  0
LINE
  5
1760
  8
0
 62
     0
 10
531.92623157890125
 20
151.04558013226989
 30
0.0
 11
530.41856338309219
 21
152.55324832807901
 31
0.0
  0
LINE
  5
1761
  8
0
 62
     0
 10
524.42623157890125
 20
158.54558013226981
 30
0.0
 11
521.90742219231925
 21
161.0643895188519
 31
0.0
  0
LINE
  5
1762
  8
0
 62
     0
 10
532.35139085017863
 20
150.62042086099251
 30
0.0
 11
531.97181171117131
 21
150.99999999999989
 31
0.0
  0
LINE
  5
1763
  8
0
 62
     0
 10
522.28750740921282
 20
157.85587717721219
 30
0.0
 11
520.05146819429467
 21
160.0919163921302
 31
0.0
  0
LINE
  5
1764
  8
0
 62
     0
 10
520.514990862221
 20
156.7999665994578
 30
0.0
 11
518.59648156557455
 21
158.71847589610431
 31
0.0
  0
LINE
  5
1765
  8
0
 62
     0
 10
519.23244181251243
 20
155.25408852442021
 30
0.0
 11
517.53249138451997
 21
156.9540389524127
 31
0.0
  0
LINE
  5
1766
  8
0
 62
     0
 10
518.49596922475735
 20
153.162133987429
 30
0.0
 11
516.95889547183879
 21
154.69920774034759
 31
0.0
  0
LINE
  5
1767
  8
0
 62
     0
 10
518.30567658779285
 20
150.5239994996474
 30
0.0
 11
516.92623157890125
 21
151.90344450853891
 31
0.0
  0
LINE
  5
1768
  8
0
 62
     0
 10
530.67269890548096
 20
150.3425895421519
 30
0.0
 11
531.92623157890125
 21
151.59612221557231
 31
0.0
  0
LINE
  5
1769
  8
0
 62
     0
 10
530.39196974823039
 20
152.89028750964761
 30
0.0
 11
531.9148428208639
 21
154.41316058228119
 31
0.0
  0
LINE
  5
176A
  8
0
 62
     0
 10
529.72952057409611
 20
155.05626546025951
 30
0.0
 11
531.40934186614675
 21
156.73608675231009
 31
0.0
  0
LINE
  5
176B
  8
0
 62
     0
 10
528.49993338770764
 20
156.65510539861739
 30
0.0
 11
530.39118350701165
 21
158.5463555179212
 31
0.0
  0
LINE
  5
176C
  8
0
 62
     0
 10
526.78381129639229
 20
157.76741043204819
 30
0.0
 11
528.97755958918799
 21
159.9611587248437
 31
0.0
  0
LINE
  5
176D
  8
0
 62
     0
 10
524.43796227215671
 20
158.2499885325586
 30
0.0
 11
527.16861401086612
 21
160.9806402712681
 31
0.0
  0
LINE
  5
176E
  8
0
 62
     0
 10
516.61010316104137
 20
150.42212942144329
 30
0.0
 11
518.42623157890125
 21
152.23825783930329
 31
0.0
  0
LINE
  5
176F
  8
0
 62
     0
 10
524.42623157890125
 20
161.0666849640495
 30
0.0
 11
526.67623157890148
 21
163.3166849640497
 31
0.0
  0
LINE
  5
1770
  8
0
 62
     0
 10
516.92623157890125
 20
153.56668496404961
 30
0.0
 11
524.42623157890125
 21
161.0666849640495
 31
0.0
  0
LINE
  5
1771
  8
0
 62
     0
 10
524.42623157890125
 20
163.89511208879571
 30
0.0
 11
526.67623157890148
 21
166.14511208879591
 31
0.0
  0
LINE
  5
1772
  8
0
 62
     0
 10
522.17623157890125
 20
161.6451120887956
 30
0.0
 11
524.42623157890125
 21
163.89511208879571
 31
0.0
  0
LINE
  5
1773
  8
0
 62
     0
 10
532.95562418508905
 20
172.4245046949834
 30
0.0
 11
534.17623157890125
 21
173.6451120887956
 31
0.0
  0
LINE
  5
1774
  8
0
 62
     0
 10
517.56904489284977
 20
157.03792540274409
 30
0.0
 11
521.38830617615713
 21
160.85718668605139
 31
0.0
  0
LINE
  5
1775
  8
0
 62
     0
 10
524.42623157890125
 20
166.7235392135419
 30
0.0
 11
526.67623157890148
 21
168.97353921354201
 31
0.0
  0
LINE
  5
1776
  8
0
 62
     0
 10
529.09867810588958
 20
171.39598574053019
 30
0.0
 11
533.56446197213029
 21
175.86176960677091
 31
0.0
  0
LINE
  5
1777
  8
0
 62
     0
 10
522.17623157890125
 20
164.47353921354181
 30
0.0
 11
524.42623157890125
 21
166.7235392135419
 31
0.0
  0
LINE
  5
1778
  8
0
 62
     0
 10
524.42623157890125
 20
169.551966338288
 30
0.0
 11
530.87426524061323
 21
175.99999999999989
 31
0.0
  0
LINE
  5
1779
  8
0
 62
     0
 10
522.17623157890125
 20
167.30196633828791
 30
0.0
 11
524.42623157890125
 21
169.551966338288
 31
0.0
  0
LINE
  5
177A
  8
0
 62
     0
 10
524.42623157890125
 20
172.3803934630343
 30
0.0
 11
528.04583811586701
 21
175.99999999999989
 31
0.0
  0
LINE
  5
177B
  8
0
 62
     0
 10
522.17623157890125
 20
170.1303934630341
 30
0.0
 11
524.42623157890125
 21
172.3803934630343
 31
0.0
  0
LINE
  5
177C
  8
0
 62
     0
 10
524.42623157890125
 20
175.20882058778051
 30
0.0
 11
525.21741099112091
 21
176.0
 31
0.0
  0
LINE
  5
177D
  8
0
 62
     0
 10
520.43242585170617
 20
171.21501486058531
 30
0.0
 11
524.42623157890125
 21
175.20882058778051
 31
0.0
  0
LINE
  5
177E
  8
0
 62
     0
 10
518.19945706901194
 20
171.81047320263721
 30
0.0
 11
522.3889838663747
 21
176.0
 31
0.0
  0
LINE
  5
177F
  8
0
 62
     0
 10
515.96648828631749
 20
172.405931544689
 30
0.0
 11
519.56055674162849
 21
176.0
 31
0.0
  0
LINE
  5
1780
  8
0
 62
     0
 10
514.67623157890148
 20
173.94410196201909
 30
0.0
 11
516.73212961688228
 21
176.0
 31
0.0
  0
ENDBLK
  5
1782
  8
0
  0
ENDSEC
  0
SECTION
  2
ENTITIES
  0
CIRCLE
  5
79
  8
0
 10
217.29761337904699
 20
179.99999999999989
 30
0.0
 40
15.0
  0
CIRCLE
  5
7A
  8
0
 10
217.29761337904699
 20
179.99999999999989
 30
0.0
 40
5.0
  0
CIRCLE
  5
7B
  8
0
 10
217.29761337904699
 20
179.99999999999989
 30
0.0
 40
2.5
  0
CIRCLE
  5
7D
  8
0
 10
217.29761337904699
 20
179.99999999999989
 30
0.0
 40
3.0
  0
ARC
  5
BD
  8
0
 10
217.29761337904699
 20
179.99999999999989
 30
0.0
 40
7.5
 50
123.82255372927391
 51
176.17744627072551
  0
CIRCLE
  5
BE
  8
0
 10
217.29761337904699
 20
179.99999999999989
 30
0.0
 40
13.0
  0
LINE
  5
155
  8
0
  6
CENTER
 10
217.29761337904699
 20
198.0
 30
0.0
 11
217.29761337904699
 21
162.0
 31
0.0
  0
LINE
  5
156
  8
0
  6
CENTER
 10
235.29761337904691
 20
180.0
 30
0.0
 11
199.29761337904691
 21
180.0
 31
0.0
  0
LINE
  5
196
  8
0
  6
CENTER
 10
242.66585668478859
 20
180.0
 30
0.0
 11
259.96585668478872
 21
180.0
 31
0.0
  0
ARC
  5
21A
  8
0
 10
251.31585668478871
 20
193.0
 30
0.0
 40
3.0
 50
180.0
 51
0.0
  0
LINE
  5
21B
  8
0
 10
248.3158566847886
 20
193.0
 30
0.0
 11
248.3158566847886
 21
193.99999999999989
 31
0.0
  0
LINE
  5
21C
  8
0
 10
254.3158566847886
 20
193.0
 30
0.0
 11
254.3158566847886
 21
193.99999999999989
 31
0.0
  0
LINE
  5
259
  8
0
  6
CENTER
 10
251.31585668478871
 20
162.0
 30
0.0
 11
251.31585668478871
 21
197.99999999999989
 31
0.0
1001
ACAD
1000
ASC_BOUNDS
1002
{
1070
    19
1005
985
1005
985
1002
}
  0
ARC
  5
260
  8
0
 10
255.31585668478871
 20
193.99999999999989
 30
0.0
 40
1.000000000000028
 50
0.0
 51
180.0
  0
LINE
  5
261
  8
0
 10
256.96585668478872
 20
174.99999999999989
 30
0.0
 11
256.96585668478872
 21
185.0
 31
0.0
1001
ACAD
1000
ASC_BOUNDS
1002
{
1070
    19
1005
985
1002
}
  0
LINE
  5
264
  8
0
 10
256.96585668478872
 20
185.0
 30
0.0
 11
256.31585668478868
 21
185.0
 31
0.0
  0
LINE
  5
265
  8
0
 10
256.96585668478872
 20
175.0
 30
0.0
 11
252.96585668478869
 21
174.99999999999989
 31
0.0
1001
ACAD
1000
ASC_BOUNDS
1002
{
1070
    19
1005
985
1002
}
  0
ARC
  5
266
  8
0
 10
247.31585668478871
 20
193.99999999999989
 30
0.0
 40
1.000000000000028
 50
0.000000000000007
 51
180.0
  0
LINE
  5
267
  8
0
 10
248.3158566847886
 20
193.0
 30
0.0
 11
248.3158566847886
 21
193.99999999999989
 31
0.0
  0
ARC
  5
268
  8
0
 10
251.31585668478871
 20
167.0
 30
0.0
 40
3.0
 50
0.0
 51
180.0
1001
ACAD
1000
ASC_BOUNDS
1002
{
1070
    19
1005
985
1005
985
1002
}
  0
ARC
  5
269
  8
0
 10
247.31585668478871
 20
166.0
 30
0.0
 40
1.000000000000028
 50
180.0
 51
0.0
1001
ACAD
1000
ASC_BOUNDS
1002
{
1070
    19
1005
985
1002
}
  0
LINE
  5
26A
  8
0
 10
248.3158566847886
 20
167.0
 30
0.0
 11
248.3158566847886
 21
166.0
 31
0.0
  0
LINE
  5
26B
  8
0
 10
248.3158566847886
 20
167.0
 30
0.0
 11
248.3158566847886
 21
166.0
 31
0.0
1001
ACAD
1000
ASC_BOUNDS
1002
{
1070
    19
1005
985
1002
}
  0
ARC
  5
26C
  8
0
 10
255.31585668478871
 20
166.0
 30
0.0
 40
1.000000000000028
 50
180.0
 51
0.0
1001
ACAD
1000
ASC_BOUNDS
1002
{
1070
    19
1005
985
1002
}
  0
LINE
  5
26D
  8
0
 10
254.3158566847886
 20
167.0
 30
0.0
 11
254.3158566847886
 21
166.0
 31
0.0
1001
ACAD
1000
ASC_BOUNDS
1002
{
1070
    19
1005
985
1002
}
  0
LINE
  5
26E
  8
0
 10
246.3158566847886
 20
193.99999999999989
 30
0.0
 11
246.3158566847886
 21
180.0
 31
0.0
  0
LINE
  5
26F
  8
0
 10
256.31585668478863
 20
193.99999999999989
 30
0.0
 11
256.31585668478863
 21
179.99999999999989
 31
0.0
  0
LINE
  5
270
  8
0
 10
245.66585668478859
 20
174.99999999999989
 30
0.0
 11
245.66585668478859
 21
185.0
 31
0.0
1001
ACAD
1000
ASC_BOUNDS
1002
{
1070
    19
1005
985
1002
}
  0
LINE
  5
272
  8
0
 10
245.66585668478859
 20
185.0
 30
0.0
 11
246.3158566847886
 21
185.0
 31
0.0
  0
LINE
  5
2B1
  8
0
 10
254.3158566847886
 20
193.0
 30
0.0
 11
254.3158566847886
 21
180.0
 31
0.0
  0
LINE
  5
2B2
  8
0
 10
248.3158566847886
 20
193.0
 30
0.0
 11
248.3158566847886
 21
180.0
 31
0.0
  0
LINE
  5
36A
  8
0
 10
256.31585668478863
 20
166.99999999999989
 30
0.0
 11
256.31585668478863
 21
166.0
 31
0.0
1001
ACAD
1000
ASC_BOUNDS
1002
{
1070
    19
1005
985
1002
}
  0
LINE
  5
36B
  8
0
 10
252.96585668478869
 20
172.51668522645201
 30
0.0
 11
252.96585668478869
 21
174.99999999999989
 31
0.0
1001
ACAD
1000
ASC_BOUNDS
1002
{
1070
    19
1005
985
1002
}
  0
CIRCLE
  5
36C
  8
0
 10
217.29761337904699
 20
179.99999999999989
 30
0.0
 40
11.0
  0
LINE
  5
36D
  8
0
  6
CENTER
 10
212.23631083698021
 20
189.7664331553371
 30
0.0
 11
215.24315748817261
 21
184.55842198490339
 31
0.0
  0
LINE
  5
36E
  8
0
  6
CENTER
 10
211.3702854331957
 20
189.2664331553371
 30
0.0
 11
214.37713208438819
 21
184.05842198490339
 31
0.0
  0
LINE
  5
371
  8
0
  6
CENTER
 10
206.30898289112901
 20
179.49999999999989
 30
0.0
 11
212.3226761935139
 21
179.49999999999989
 31
0.0
  0
LINE
  5
372
  8
0
  6
CENTER
 10
206.30898289112901
 20
180.49999999999989
 30
0.0
 11
212.3226761935139
 21
180.49999999999989
 31
0.0
  0
LINE
  5
373
  8
0
  6
CENTER
 10
212.23631083698021
 20
170.2335668446627
 30
0.0
 11
215.24315748817261
 21
175.44157801509641
 31
0.0
  0
LINE
  5
374
  8
0
  6
CENTER
 10
211.3702854331957
 20
170.73356684466279
 30
0.0
 11
214.37713208438819
 21
175.94157801509641
 31
0.0
  0
LINE
  5
375
  8
0
  6
CENTER
 10
223.22494132489811
 20
170.73356684466279
 30
0.0
 11
220.21809467370559
 21
175.9415780150965
 31
0.0
  0
LINE
  5
376
  8
0
  6
CENTER
 10
222.35891592111361
 20
170.23356684466279
 30
0.0
 11
219.3520692699212
 21
175.4415780150965
 31
0.0
  0
LINE
  5
377
  8
0
  6
CENTER
 10
228.2862438669649
 20
180.49999999999989
 30
0.0
 11
222.27255056458
 21
180.49999999999989
 31
0.0
  0
LINE
  5
378
  8
0
  6
CENTER
 10
228.2862438669649
 20
179.49999999999989
 30
0.0
 11
222.27255056458
 21
179.5
 31
0.0
  0
LINE
  5
379
  8
0
  6
CENTER
 10
222.35891592111369
 20
189.7664331553371
 30
0.0
 11
219.35206926992129
 21
184.55842198490339
 31
0.0
  0
LINE
  5
37A
  8
0
  6
CENTER
 10
223.2249413248982
 20
189.2664331553371
 30
0.0
 11
220.21809467370571
 21
184.05842198490339
 31
0.0
  0
ARC
  5
37D
  8
0
 10
217.29761337904699
 20
179.99999999999989
 30
0.0
 40
7.5
 50
183.82255372927401
 51
236.1774462707252
  0
ARC
  5
37E
  8
0
 10
217.29761337904699
 20
179.99999999999989
 30
0.0
 40
7.5
 50
243.82255372927409
 51
296.17744627072562
  0
ARC
  5
37F
  8
0
 10
217.29761337904699
 20
179.99999999999989
 30
0.0
 40
7.5
 50
63.822553729274162
 51
116.1774462707256
  0
ARC
  5
380
  8
0
 10
217.29761337904699
 20
179.99999999999989
 30
0.0
 40
7.5
 50
3.822553729274611
 51
56.177446270725511
  0
ARC
  5
381
  8
0
 10
217.29761337904699
 20
179.99999999999989
 30
0.0
 40
7.5
 50
303.82255372927409
 51
356.17744627072619
  0
LINE
  5
475
  8
0
 10
255.8158566847886
 20
175.0
 30
0.0
 11
255.81585668478871
 21
166.99999999999989
 31
0.0
1001
ACAD
1000
ASC_BOUNDS
1002
{
1070
    19
1005
985
1002
}
  0
LINE
  5
477
  8
0
 10
255.81585668478871
 20
166.99999999999989
 30
0.0
 11
256.31585668478863
 21
166.99999999999989
 31
0.0
1001
ACAD
1000
ASC_BOUNDS
1002
{
1070
    19
1005
985
1002
}
  0
LINE
  5
4B4
  8
0
 10
246.8158566847888
 20
175.0
 30
0.0
 11
246.81585668478871
 21
166.99999999999989
 31
0.0
1001
ACAD
1000
ASC_BOUNDS
1002
{
1070
    19
1005
985
1002
}
  0
LINE
  5
4B5
  8
0
 10
246.81585668478871
 20
166.99999999999989
 30
0.0
 11
246.3158566847888
 21
166.99999999999989
 31
0.0
1001
ACAD
1000
ASC_BOUNDS
1002
{
1070
    19
1005
985
1002
}
  0
LINE
  5
4B6
  8
0
 10
246.3158566847888
 20
166.99999999999989
 30
0.0
 11
246.3158566847888
 21
166.0
 31
0.0
1001
ACAD
1000
ASC_BOUNDS
1002
{
1070
    19
1005
985
1002
}
  0
ARC
  5
4F4
  8
0
 10
251.31585668478871
 20
168.26629415404631
 30
0.0
 40
4.5594214839589089
 50
9.2603479614417399
 51
68.78380902611444
1001
ACAD
1000
ASC_BOUNDS
1002
{
1070
    19
1005
985
1002
}
  0
ARC
  5
4F6
  8
0
 10
251.31585668478871
 20
168.26629415404631
 30
0.0
 40
4.5594214839589089
 50
111.2161909738855
 51
170.73965203855829
1001
ACAD
1000
ASC_BOUNDS
1002
{
1070
    19
1005
985
1002
}
  0
LINE
  5
534
  8
0
 10
246.16585668478871
 20
177.5
 30
0.0
 11
256.46585668478849
 21
177.49999999999989
 31
0.0
1001
ACAD
1000
ASC_BOUNDS
1002
{
1070
    19
1005
985
1005
985
1002
}
  0
LINE
  5
537
  8
0
 10
245.66585668478859
 20
175.0
 30
0.0
 11
249.66585668478859
 21
174.99999999999989
 31
0.0
1001
ACAD
1000
ASC_BOUNDS
1002
{
1070
    19
1005
985
1002
}
  0
LINE
  5
538
  8
0
 10
249.66585668478859
 20
172.51668522645201
 30
0.0
 11
249.66585668478859
 21
174.99999999999989
 31
0.0
1001
ACAD
1000
ASC_BOUNDS
1002
{
1070
    19
1005
985
1002
}
  0
CIRCLE
  5
95F
  8
0
 10
322.26533935974982
 20
180.0
 30
0.0
 40
25.0
  0
LINE
  5
961
  8
0
  6
CENTER
 10
322.26533935974982
 20
208.0
 30
0.0
 11
322.26533935974982
 21
152.0
 31
0.0
  0
LINE
  5
962
  8
0
  6
CENTER
 10
350.26533935974982
 20
180.0
 30
0.0
 11
294.26533935974987
 21
180.0
 31
0.0
  0
CIRCLE
  5
963
  8
0
 10
322.26533935974982
 20
180.0
 30
0.0
 40
23.0
  0
CIRCLE
  5
965
  8
0
 10
322.26533935974982
 20
180.0
 30
0.0
 40
6.5
  0
LINE
  5
967
  8
0
 10
256.96585668478872
 20
176.99999999999989
 30
0.0
 11
256.4658566847886
 21
177.49999999999989
 31
0.0
1001
ACAD
1000
ASC_BOUNDS
1002
{
1070
    19
1005
985
1002
}
  0
LINE
  5
968
  8
0
 10
256.46585668478849
 20
177.49999999999989
 30
0.0
 11
256.46585668478849
 21
180.0
 31
0.0
  0
LINE
  5
969
  8
0
 10
245.66585668478859
 20
176.99999999999989
 30
0.0
 11
246.16585668478871
 21
177.49999999999989
 31
0.0
1001
ACAD
1000
ASC_BOUNDS
1002
{
1070
    19
1005
985
1002
}
  0
LINE
  5
96A
  8
0
 10
246.16585668478879
 20
177.49999999999989
 30
0.0
 11
246.16585668478879
 21
180.0
 31
0.0
  0
INSERT
  5
985
  8
0
  6
CONTINUOUS
  2
*X1
 10
0.0
 20
0.0
 30
0.0
1001
ACAD
1000
HATCH
1002
{
1070
    19
1000
_USER
1040
1.5
1040
0.7853981633974483
1000
ASC_BOUNDS
1070
     2
1070
     1
1070
    13
1005
259
1005
268
1005
26B
1005
269
1005
4B6
1005
4B5
1005
4B4
1005
4F6
1005
538
1005
537
1005
270
1005
969
1005
534
1070
     1
1070
    13
1005
261
1005
265
1005
36B
1005
4F4
1005
475
1005
477
1005
36A
1005
26C
1005
26D
1005
268
1005
259
1005
534
1005
967
1000
ASC_SEEDPOINT
1011
252.0647463897588
1021
-1.1523552872589865E+279
1031
0.0
1021
176.38780919204581
1031
0.0
1000
R14_HATCH_DATA
1000
985
1011
1.0
1021
-1.1523552872589865E+279
1031
0.0
1021
0.0
1031
0.0
1011
0.0
1021
-1.1523552872589865E+279
1031
0.0
1021
1.0
1031
0.0
1011
0.0
1021
-1.1523552872589865E+279
1031
0.0
1021
0.0
1031
1.0
1040
0.0
1010
0.0
1020
0.0
1030
1.0
1000
_USER
1070
     0
1070
     1
1071
        2
1071
        7
1070
     1
1070
     1
1071
       13
1040
251.31585668478871
1040
170.0
1040
-0.4142135623730895
1040
254.3158566847886
1040
167.0
1040
0.0
1040
254.3158566847886
1040
166.0
1040
1.0
1040
256.31585668478863
1040
166.0
1040
0.0
1040
256.31585668478863
1040
166.99999999999989
1040
0.0
1040
255.81585668478871
1040
166.99999999999989
1040
0.0
1040
255.81585668478871
1040
168.99999999999969
1040
0.2657218502683565
1040
252.96585668478869
1040
172.51668522645201
1040
0.0
1040
252.96585668478869
1040
175.0
1040
0.0
1040
256.96585668478872
1040
175.0
1040
0.0
1040
256.96585668478872
1040
176.99999999999989
1040
0.0
1040
256.4658566847886
1040
177.49999999999989
1040
0.0
1040
251.31585668478871
1040
177.49999999999989
1040
0.0
1071
       13
1005
967
1005
534
1005
259
1005
268
1005
26D
1005
26C
1005
36A
1005
477
1005
475
1005
4F4
1005
36B
1005
265
1005
261
1071
        7
1070
     1
1070
     1
1071
       13
1040
251.31585668478871
1040
177.5
1040
0.0
1040
246.16585668478879
1040
177.5
1040
0.0
1040
245.66585668478859
1040
176.9999999999998
1040
0.0
1040
245.66585668478859
1040
174.99999999999989
1040
0.0
1040
249.66585668478859
1040
174.99999999999989
1040
0.0
1040
249.66585668478859
1040
172.5166852264519
1040
0.2657218502683447
1040
246.81585668478871
1040
168.99999999999969
1040
0.0
1040
246.81585668478871
1040
166.99999999999989
1040
0.0
1040
246.3158566847888
1040
166.99999999999989
1040
0.0
1040
246.3158566847888
1040
166.0
1040
1.0
1040
248.3158566847886
1040
166.0
1040
0.0
1040
248.3158566847886
1040
167.0
1040
-0.4142135623731006
1040
251.31585668478871
1040
170.0
1040
0.0
1071
       13
1005
534
1005
969
1005
270
1005
537
1005
538
1005
4F6
1005
4B4
1005
4B5
1005
4B6
1005
269
1005
26B
1005
268
1005
259
1070
     0
1070
     0
1040
0.7853981633974483
1040
1.5
1070
     1
1070
     2
1040
0.7853981633974483
1040
-13.94451345604687
1040
0.0
1040
-1.060660171779821
1040
1.060660171779821
1070
     0
1040
2.3561944901923439
1040
-13.94451345604687
1040
0.0
1040
-1.060660171779821
1040
-1.060660171779821
1070
     0
1040
0.067814565211006
1071
        2
1040
252.0647463897588
1040
176.38780919204581
1040
0.0
1040
250.70809407138589
1040
176.4556235952054
1040
0.0
1002
}
  0
LINE
  5
9EB
  8
0
  6
CENTER
 10
306.54086246431882
 20
196.7851370672108
 30
0.0
 11
318.2301738537023
 21
185.09582567782721
 31
0.0
  0
LINE
  5
9EC
  8
0
  6
CENTER
 10
305.48020229253899
 20
195.724476895431
 30
0.0
 11
317.16951368192252
 21
184.03516550604741
 31
0.0
  0
CIRCLE
  5
9ED
  8
0
 10
322.26533935974982
 20
180.0
 30
0.0
 40
3.0
  0
CIRCLE
  5
9EE
  8
0
 10
322.26533935974982
 20
180.0
 30
0.0
 40
3.75
  0
LINE
  5
9F7
  8
0
  6
CENTER
 10
306.54086246431882
 20
163.21486293278909
 30
0.0
 11
318.2301738537023
 21
174.90417432217259
 31
0.0
  0
LINE
  5
9F8
  8
0
  6
CENTER
 10
305.48020229253888
 20
164.27552310456889
 30
0.0
 11
317.16951368192252
 21
175.9648344939524
 31
0.0
  0
LINE
  5
9F9
  8
0
  6
CENTER
 10
339.0504764269607
 20
164.27552310456889
 30
0.0
 11
327.36116503757722
 21
175.96483449395251
 31
0.0
  0
LINE
  5
9FA
  8
0
  6
CENTER
 10
337.98981625518093
 20
163.214862932789
 30
0.0
 11
326.30050486579728
 21
174.90417432217259
 31
0.0
  0
LINE
  5
9FB
  8
0
  6
CENTER
 10
337.98981625518093
 20
196.78513706721071
 30
0.0
 11
326.30050486579728
 21
185.09582567782721
 31
0.0
  0
LINE
  5
9FC
  8
0
  6
CENTER
 10
339.05047642696081
 20
195.72447689543091
 30
0.0
 11
327.36116503757711
 21
184.03516550604741
 31
0.0
  0
LINE
  5
A03
  8
0
  6
CENTER
 10
359.80872448553907
 20
180.0
 30
0.0
 11
379.8087244855393
 21
180.0
 31
0.0
  0
ARC
  5
A05
  8
0
 10
369.80872448553919
 20
203.5
 30
0.0
 40
5.0
 50
180.0
 51
0.0
  0
LINE
  5
A06
  8
0
 10
364.80872448553919
 20
203.5
 30
0.0
 11
364.80872448553919
 21
204.0
 31
0.0
  0
LINE
  5
A07
  8
0
 10
374.80872448553919
 20
203.5
 30
0.0
 11
374.80872448553919
 21
204.0
 31
0.0
  0
LINE
  5
A08
  8
0
  6
CENTER
 10
369.80872448553919
 20
207.99999999999989
 30
0.0
 11
369.80872448553919
 21
152.0
 31
0.0
1001
ACAD
1000
ASC_BOUNDS
1002
{
1070
    19
1005
D15
1005
D15
1002
}
  0
LINE
  5
A0C
  8
0
 10
376.80872448553907
 20
204.0
 30
0.0
 11
376.80872448553919
 21
180.0
 31
0.0
  0
ARC
  5
A0E
  8
0
 10
375.80872448553919
 20
204.0
 30
0.0
 40
0.9999999999999431
 50
0.0
 51
180.0
  0
LINE
  5
A0F
  8
0
 10
362.80872448553919
 20
204.0
 30
0.0
 11
362.80872448553907
 21
180.0
 31
0.0
  0
ARC
  5
A10
  8
0
 10
363.80872448553919
 20
204.0
 30
0.0
 40
0.9999999999999431
 50
0.000000000000007
 51
180.0
  0
LINE
  5
A11
  8
0
 10
364.80872448553907
 20
203.5
 30
0.0
 11
364.80872448553907
 21
204.0
 31
0.0
  0
LINE
  5
A12
  8
0
 10
364.80872448553907
 20
203.5
 30
0.0
 11
364.80872448553907
 21
180.0
 31
0.0
  0
LINE
  5
A13
  8
0
 10
374.80872448553919
 20
203.5
 30
0.0
 11
374.80872448553919
 21
180.0
 31
0.0
  0
LINE
  5
A7D
  8
0
  6
CENTER
 10
377.30872448553907
 20
186.49999999999989
 30
0.0
 11
377.30872448553902
 21
173.5
 31
0.0
1001
ACAD
1000
ASC_BOUNDS
1002
{
1070
    19
1005
D15
1002
}
  0
LINE
  5
A7F
  8
0
 10
377.30872448553907
 20
186.49999999999989
 30
0.0
 11
376.80872448553919
 21
186.49999999999989
 31
0.0
  0
LINE
  5
A81
  8
0
  6
CENTER
 10
362.30872448553919
 20
186.49999999999989
 30
0.0
 11
362.3087244855393
 21
173.5
 31
0.0
1001
ACAD
1000
ASC_BOUNDS
1002
{
1070
    19
1005
D15
1002
}
  0
LINE
  5
A82
  8
0
 10
362.30872448553919
 20
186.49999999999989
 30
0.0
 11
362.80872448553907
 21
186.49999999999989
 31
0.0
  0
ARC
  5
AE8
  8
0
 10
375.80872448553919
 20
155.99999999999989
 30
0.0
 40
0.9999999999999431
 50
180.0
 51
0.0
1001
ACAD
1000
ASC_BOUNDS
1002
{
1070
    19
1005
D15
1002
}
  0
ARC
  5
AE9
  8
0
 10
369.80872448553919
 20
156.49999999999989
 30
0.0
 40
5.0
 50
0.0
 51
180.0
1001
ACAD
1000
ASC_BOUNDS
1002
{
1070
    19
1005
D15
1005
D15
1002
}
  0
ARC
  5
AEA
  8
0
 10
363.80872448553919
 20
155.99999999999989
 30
0.0
 40
0.9999999999999431
 50
180.0
 51
0.0
1001
ACAD
1000
ASC_BOUNDS
1002
{
1070
    19
1005
D15
1002
}
  0
LINE
  5
AEB
  8
0
 10
364.80872448553919
 20
156.49999999999989
 30
0.0
 11
364.80872448553919
 21
155.99999999999989
 31
0.0
  0
LINE
  5
AEC
  8
0
 10
364.80872448553907
 20
156.49999999999989
 30
0.0
 11
364.80872448553907
 21
155.99999999999989
 31
0.0
1001
ACAD
1000
ASC_BOUNDS
1002
{
1070
    19
1005
D15
1002
}
  0
LINE
  5
AED
  8
0
 10
374.80872448553919
 20
156.49999999999989
 30
0.0
 11
374.80872448553919
 21
155.99999999999989
 31
0.0
1001
ACAD
1000
ASC_BOUNDS
1002
{
1070
    19
1005
D15
1002
}
  0
LINE
  5
B53
  8
0
  6
CENTER
 10
371.30872448553907
 20
173.5
 30
0.0
 11
371.3087244855389
 21
163.11882341631139
 31
0.0
1001
ACAD
1000
ASC_BOUNDS
1002
{
1070
    19
1005
D15
1002
}
  0
LINE
  5
B54
  8
0
  6
CENTER
 10
363.0587244855393
 20
177.0
 30
0.0
 11
376.55872448553902
 21
177.0
 31
0.0
1001
ACAD
1000
ASC_BOUNDS
1002
{
1070
    19
1005
D15
1005
D15
1002
}
  0
LINE
  5
B56
  8
0
 10
377.30872448553902
 20
176.25
 30
0.0
 11
376.55872448553902
 21
177.0
 31
0.0
1001
ACAD
1000
ASC_BOUNDS
1002
{
1070
    19
1005
D15
1002
}
  0
LINE
  5
B57
  8
0
 10
376.55872448553902
 20
177.0
 30
0.0
 11
376.55872448553902
 21
180.0
 31
0.0
  0
LINE
  5
B58
  8
0
 10
363.0587244855393
 20
177.0
 30
0.0
 11
363.0587244855393
 21
180.0
 31
0.0
  0
LINE
  5
B59
  8
0
 10
362.3087244855393
 20
176.25
 30
0.0
 11
363.0587244855393
 21
177.0
 31
0.0
1001
ACAD
1000
ASC_BOUNDS
1002
{
1070
    19
1005
D15
1002
}
  0
ARC
  5
BC2
  8
0
 10
369.80872448553919
 20
157.0
 30
0.0
 40
6.3000000000000682
 50
0.0
 51
76.225853001976873
1001
ACAD
1000
ASC_BOUNDS
1002
{
1070
    19
1005
D15
1002
}
  0
LINE
  5
BC3
  8
0
 10
362.80872448553919
 20
155.99999999999989
 30
0.0
 11
362.80872448553919
 21
157.0
 31
0.0
1001
ACAD
1000
ASC_BOUNDS
1002
{
1070
    19
1005
D15
1002
}
  0
LINE
  5
BC4
  8
0
 10
362.80872448553919
 20
157.0
 30
0.0
 11
363.50872448553912
 21
157.0
 31
0.0
1001
ACAD
1000
ASC_BOUNDS
1002
{
1070
    19
1005
D15
1002
}
  0
LINE
  5
BC5
  8
0
 10
376.80872448553919
 20
157.0
 30
0.0
 11
376.10872448553931
 21
157.0
 31
0.0
1001
ACAD
1000
ASC_BOUNDS
1002
{
1070
    19
1005
D15
1002
}
  0
LINE
  5
BC6
  8
0
 10
376.80872448553919
 20
155.99999999999989
 30
0.0
 11
376.80872448553919
 21
157.0
 31
0.0
1001
ACAD
1000
ASC_BOUNDS
1002
{
1070
    19
1005
D15
1002
}
  0
LINE
  5
BC7
  8
0
  6
CENTER
 10
368.3087244855393
 20
173.5
 30
0.0
 11
368.30872448553959
 21
163.1188234163115
 31
0.0
1001
ACAD
1000
ASC_BOUNDS
1002
{
1070
    19
1005
D15
1002
}
  0
ARC
  5
BC9
  8
0
 10
369.80872448553919
 20
157.0
 30
0.0
 40
6.3000000000000682
 50
103.7741469980225
 51
180.0
1001
ACAD
1000
ASC_BOUNDS
1002
{
1070
    19
1005
D15
1002
}
  0
LINE
  5
C30
  8
0
 10
368.3087244855393
 20
173.5
 30
0.0
 11
362.3087244855393
 21
173.5
 31
0.0
1001
ACAD
1000
ASC_BOUNDS
1002
{
1070
    19
1005
D15
1002
}
  0
LINE
  5
C31
  8
0
 10
371.30872448553907
 20
173.5
 30
0.0
 11
377.30872448553902
 21
173.5
 31
0.0
1001
ACAD
1000
ASC_BOUNDS
1002
{
1070
    19
1005
D15
1002
}
  0
LINE
  5
C4D
  8
0
 10
363.50872448553912
 20
157.0
 30
0.0
 11
363.50872448553912
 21
173.5
 31
0.0
  0
LINE
  5
C4E
  8
0
 10
376.10872448553931
 20
157.0
 30
0.0
 11
376.10872448553931
 21
173.5
 31
0.0
  0
INSERT
  5
D15
  8
0
  6
CONTINUOUS
  2
*X2
 10
0.0
 20
0.0
 30
0.0
1001
ACAD
1000
HATCH
1002
{
1070
    19
1000
_USER
1040
2.0
1040
0.7853981633974483
1000
ASC_BOUNDS
1070
     2
1070
     1
1070
    12
1005
A08
1005
AE9
1005
AEC
1005
AEA
1005
BC3
1005
BC4
1005
BC9
1005
BC7
1005
C30
1005
A81
1005
B59
1005
B54
1070
     1
1070
    12
1005
A7D
1005
C31
1005
B53
1005
BC2
1005
BC5
1005
BC6
1005
AE8
1005
AED
1005
AE9
1005
A08
1005
B54
1005
B56
1000
ASC_SEEDPOINT
1011
371.23768675854791
1021
-1.1523552872589865E+279
1031
0.0
1021
175.5119507595316
1031
0.0
1000
R14_HATCH_DATA
1000
D15
1011
1.0
1021
-1.1523552872589865E+279
1031
0.0
1021
0.0
1031
0.0
1011
0.0
1021
-1.1523552872589865E+279
1031
0.0
1021
1.0
1031
0.0
1011
0.0
1021
-1.1523552872589865E+279
1031
0.0
1021
0.0
1031
1.0
1040
0.0
1010
0.0
1020
0.0
1030
1.0
1000
_USER
1070
     0
1070
     1
1071
        2
1071
        7
1070
     1
1070
     1
1071
       12
1040
369.80872448553919
1040
161.5
1040
-0.4142135623730951
1040
374.80872448553919
1040
156.49999999999989
1040
0.0
1040
374.80872448553919
1040
155.99999999999989
1040
1.0
1040
376.80872448553919
1040
155.99999999999989
1040
0.0
1040
376.8087244855393
1040
157.0
1040
0.0
1040
376.10872448553931
1040
157.0
1040
0.3454302962037852
1040
371.3087244855389
1040
163.11882341631139
1040
0.0
1040
371.30872448553907
1040
173.5
1040
0.0
1040
377.30872448553902
1040
173.49999999999989
1040
0.0
1040
377.30872448553902
1040
176.24999999999989
1040
0.0
1040
376.55872448553902
1040
177.0
1040
0.0
1040
369.80872448553919
1040
177.0
1040
0.0
1071
       12
1005
B56
1005
B54
1005
A08
1005
AE9
1005
AED
1005
AE8
1005
BC6
1005
BC5
1005
BC2
1005
B53
1005
C31
1005
A7D
1071
        7
1070
     1
1070
     1
1071
       12
1040
363.05872448553941
1040
177.0
1040
0.0
1040
362.3087244855393
1040
176.25
1040
0.0
1040
362.3087244855393
1040
173.49999999999989
1040
0.0
1040
368.3087244855393
1040
173.5
1040
0.0
1040
368.30872448553959
1040
163.1188234163115
1040
0.3454302962037854
1040
363.50872448553918
1040
157.0
1040
0.0
1040
362.80872448553919
1040
157.0
1040
0.0
1040
362.80872448553919
1040
155.99999999999989
1040
1.0
1040
364.80872448553907
1040
155.99999999999989
1040
0.0
1040
364.80872448553907
1040
156.49999999999989
1040
-0.4142135623730984
1040
369.80872448553919
1040
161.5
1040
0.0
1040
369.80872448553919
1040
177.0
1040
0.0
1071
       12
1005
B54
1005
B59
1005
A81
1005
C30
1005
BC7
1005
BC9
1005
BC4
1005
BC3
1005
AEA
1005
AEC
1005
AE9
1005
A08
1070
     0
1070
     0
1040
0.7853981633974483
1040
2.0
1070
     1
1070
     2
1040
0.7853981633974483
1040
-14.601315773356641
1040
0.0
1040
-1.414213562373094
1040
1.4142135623730949
1070
     0
1040
2.3561944901923439
1040
-14.601315773356641
1040
0.0
1040
-1.4142135623730949
1040
-1.414213562373094
1070
     0
1040
0.1717838768789111
1071
        2
1040
371.23768675854791
1040
175.5119507595316
1040
0.0
1040
368.1441666483048
1040
175.68373474313881
1040
0.0
1002
}
  0
ARC
  5
DA9
  8
0
 10
322.26533935974982
 20
180.0
 30
0.0
 40
16.8811765836885
 50
137.54638554065161
 51
222.4536144593483
  0
ARC
  5
DAC
  8
0
 10
322.26533935974982
 20
180.0
 30
0.0
 40
16.8811765836885
 50
47.546385540651343
 51
132.4536144593483
  0
ARC
  5
DAD
  8
0
 10
322.26533935974982
 20
180.0
 30
0.0
 40
16.8811765836885
 50
317.5463855406515
 51
42.453614459348053
  0
ARC
  5
DAE
  8
0
 10
322.26533935974982
 20
180.0
 30
0.0
 40
16.8811765836885
 50
227.54638554065161
 51
312.45361445934822
  0
CIRCLE
  5
ED4
  8
0
 10
462.00228875978991
 20
180.0
 30
0.0
 40
30.0
  0
LINE
  5
ED7
  8
0
  6
CENTER
 10
462.00228875978991
 20
215.0
 30
0.0
 11
462.00228875978991
 21
145.0
 31
0.0
  0
LINE
  5
ED8
  8
0
  6
CENTER
 10
427.00228875979002
 20
180.0
 30
0.0
 11
497.00228875978991
 21
180.0
 31
0.0
  0
CIRCLE
  5
F6B
  8
0
 10
462.00228875978991
 20
180.0
 30
0.0
 40
27.75
  0
LINE
  5
F6C
  8
0
 10
450.12855501368813
 20
193.64150069906819
 30
0.0
 11
456.4054315378653
 21
187.36462417489111
 31
0.0
  0
LINE
  5
F6D
  8
0
 10
448.3607880607197
 20
191.8737337461038
 30
0.0
 11
454.6376645848988
 21
185.59685722192461
 31
0.0
  0
ARC
  5
F6E
  8
0
 10
462.00228875978991
 20
179.99999999999989
 30
0.0
 40
9.25
 50
142.76643416851221
 51
217.2335658314872
  0
CIRCLE
  5
F6F
  8
0
 10
462.00228875978991
 20
179.99999999999989
 30
0.0
 40
7.25
  0
CIRCLE
  5
F70
  8
0
 10
462.00228875978991
 20
179.99999999999989
 30
0.0
 40
4.0
  0
CIRCLE
  5
F71
  8
0
 10
462.00228875978991
 20
179.99999999999989
 30
0.0
 40
4.75
  0
ARC
  5
F75
  8
0
 10
454.33766184858911
 20
187.66462691120071
 30
0.0
 40
2.0894193283499951
 50
278.25516709287592
 51
351.74483290712533
  0
ARC
  5
100B
  8
0
 10
449.274882862482
 20
192.7274058973079
 30
0.0
 40
1.250729966199813
 50
43.042380182766991
 51
226.95761981723311
  0
LINE
  5
100C
  8
0
 10
450.12855501368603
 20
166.35849930092959
 30
0.0
 11
456.4054315378653
 21
172.63537582510889
 31
0.0
  0
LINE
  5
100D
  8
0
 10
448.36078806072157
 20
168.12626625389811
 30
0.0
 11
454.6376645848988
 21
174.40314277807531
 31
0.0
  0
ARC
  5
100E
  8
0
 10
454.33766184858922
 20
172.3353730887992
 30
0.0
 40
2.0894193283499951
 50
8.2551670928759791
 51
81.744832907125286
  0
ARC
  5
100F
  8
0
 10
449.274882862482
 20
167.27259410269201
 30
0.0
 40
1.250729966199813
 50
133.042380182767
 51
316.95761981723302
  0
LINE
  5
1010
  8
0
 10
475.64378945886028
 20
168.12626625389609
 30
0.0
 11
469.3669129346809
 21
174.40314277807531
 31
0.0
  0
LINE
  5
1011
  8
0
 10
473.8760225058918
 20
166.3584993009317
 30
0.0
 11
467.59914598171451
 21
172.63537582510889
 31
0.0
  0
ARC
  5
1012
  8
0
 10
469.66691567099082
 20
172.33537308879909
 30
0.0
 40
2.0894193283499951
 50
98.255167092875965
 51
171.74483290712519
  0
ARC
  5
1013
  8
0
 10
474.72969465709798
 20
167.2725941026921
 30
0.0
 40
1.250729966199813
 50
223.04238018276689
 51
46.957619817233088
  0
LINE
  5
1014
  8
0
 10
473.87602250589367
 20
193.64150069907021
 30
0.0
 11
467.59914598171463
 21
187.36462417489091
 31
0.0
  0
LINE
  5
1015
  8
0
 10
475.64378945885818
 20
191.87373374610189
 30
0.0
 11
469.36691293468101
 21
185.59685722192461
 31
0.0
  0
ARC
  5
1016
  8
0
 10
469.66691567099082
 20
187.6646269112008
 30
0.0
 40
2.0894193283499951
 50
188.25516709287589
 51
261.74483290712521
  0
ARC
  5
1017
  8
0
 10
474.72969465709792
 20
192.7274058973079
 30
0.0
 40
1.250729966199813
 50
313.04238018276692
 51
136.957619817233
  0
ARC
  5
101B
  8
0
 10
462.00228875978991
 20
179.99999999999989
 30
0.0
 40
9.25
 50
232.76643416851269
 51
307.23356583148728
  0
ARC
  5
101C
  8
0
 10
462.00228875978991
 20
179.99999999999989
 30
0.0
 40
9.25
 50
52.766434168512603
 51
127.2335658314873
  0
ARC
  5
101D
  8
0
 10
462.00228875978991
 20
179.99999999999989
 30
0.0
 40
9.25
 50
322.7664341685126
 51
37.233565831487219
  0
ARC
  5
10B6
  8
0
 10
524.42623157890125
 20
207.75
 30
0.0
 40
6.0
 50
179.99999999999861
 51
0.0
  0
LINE
  5
10B8
  8
0
 10
530.42623157890137
 20
207.75
 30
0.0
 11
530.42623157890137
 21
209.0
 31
0.0
  0
LINE
  5
10BB
  8
0
  6
CENTER
 10
524.42623157890125
 20
144.99999999999989
 30
0.0
 11
524.42623157890125
 21
215.0
 31
0.0
1001
ACAD
1000
ASC_BOUNDS
1002
{
1070
    19
1005
1306
1005
1306
1002
}
  0
LINE
  5
10BC
  8
0
 10
532.42623157890125
 20
180.0
 30
0.0
 11
532.42623157890125
 21
209.0
 31
0.0
  0
ARC
  5
10BE
  8
0
 10
531.42623157890125
 20
209.0
 30
0.0
 40
1.0
 50
0.0
 51
180.0
  0
LINE
  5
10C3
  8
0
 10
518.42623157890125
 20
207.75
 30
0.0
 11
518.42623157890125
 21
209.0
 31
0.0
  0
ARC
  5
10C4
  8
0
 10
517.42623157890137
 20
209.0
 30
0.0
 40
1.0
 50
0.000000000000007
 51
180.0
  0
LINE
  5
10E6
  8
0
 10
530.42623157890137
 20
207.75
 30
0.0
 11
530.42623157890137
 21
180.0
 31
0.0
  0
LINE
  5
10E7
  8
0
 10
516.42623157890125
 20
180.0
 30
0.0
 11
516.42623157890125
 21
209.0
 31
0.0
  0
LINE
  5
10E8
  8
0
 10
518.42623157890125
 20
207.75
 30
0.0
 11
518.42623157890125
 21
180.0
 31
0.0
  0
LINE
  5
117C
  8
0
 10
534.17623157890125
 20
180.0
 30
0.0
 11
534.17623157890125
 21
187.24999999999989
 31
0.0
  0
LINE
  5
1180
  8
0
 10
526.67623157890148
 20
161.15454401062701
 30
0.0
 11
526.67623157890148
 21
170.74999999999989
 31
0.0
1001
ACAD
1000
ASC_BOUNDS
1002
{
1070
    19
1005
1306
1002
}
  0
LINE
  5
1181
  8
0
 10
532.42623157890125
 20
187.71666666666661
 30
0.0
 11
534.17623157890125
 21
187.24999999999989
 31
0.0
  0
LINE
  5
1182
  8
0
 10
516.42623157890125
 20
187.71666666666661
 30
0.0
 11
514.67623157890125
 21
187.24999999999989
 31
0.0
  0
LINE
  5
1183
  8
0
 10
514.67623157890148
 20
172.75
 30
0.0
 11
514.67623157890125
 21
187.24999999999989
 31
0.0
1001
ACAD
1000
ASC_BOUNDS
1002
{
1070
    19
1005
1306
1002
}
  0
LINE
  5
12AA
  8
0
 10
515.42623157890137
 20
176.00000000000011
 30
0.0
 11
533.42623157890159
 21
175.9999999999998
 31
0.0
1001
ACAD
1000
ASC_BOUNDS
1002
{
1070
    19
1005
1306
1005
1306
1002
}
  0
LINE
  5
12AC
  8
0
 10
534.17623157890125
 20
180.0
 30
0.0
 11
534.17623157890125
 21
172.75
 31
0.0
1001
ACAD
1000
ASC_BOUNDS
1002
{
1070
    19
1005
1306
1002
}
  0
LINE
  5
12AD
  8
0
 10
526.67623157890148
 20
170.75
 30
0.0
 11
534.17623157890125
 21
172.75
 31
0.0
1001
ACAD
1000
ASC_BOUNDS
1002
{
1070
    19
1005
1306
1002
}
  0
LINE
  5
12AE
  8
0
 10
522.17623157890125
 20
170.75
 30
0.0
 11
514.67623157890125
 21
172.75
 31
0.0
1001
ACAD
1000
ASC_BOUNDS
1002
{
1070
    19
1005
1306
1002
}
  0
LINE
  5
12AF
  8
0
 10
522.17623157890125
 20
161.15454401062701
 30
0.0
 11
522.17623157890125
 21
170.74999999999989
 31
0.0
1001
ACAD
1000
ASC_BOUNDS
1002
{
1070
    19
1005
1306
1002
}
  0
ARC
  5
12B0
  8
0
 10
531.42623157890125
 20
151.0
 30
0.0
 40
1.0
 50
180.0
 51
0.0
1001
ACAD
1000
ASC_BOUNDS
1002
{
1070
    19
1005
1306
1002
}
  0
ARC
  5
12B1
  8
0
 10
524.42623157890125
 20
152.24999999999989
 30
0.0
 40
6.0
 50
0.0
 51
180.00000000000131
1001
ACAD
1000
ASC_BOUNDS
1002
{
1070
    19
1005
1306
1005
1306
1002
}
  0
LINE
  5
12B2
  8
0
 10
518.42623157890125
 20
152.24999999999989
 30
0.0
 11
518.42623157890125
 21
151.0
 31
0.0
1001
ACAD
1000
ASC_BOUNDS
1002
{
1070
    19
1005
1306
1002
}
  0
ARC
  5
12B3
  8
0
 10
517.42623157890137
 20
151.0
 30
0.0
 40
1.0
 50
180.0
 51
0.0
1001
ACAD
1000
ASC_BOUNDS
1002
{
1070
    19
1005
1306
1002
}
  0
LINE
  5
12B4
  8
0
 10
530.42623157890137
 20
152.24999999999989
 30
0.0
 11
530.42623157890137
 21
151.0
 31
0.0
1001
ACAD
1000
ASC_BOUNDS
1002
{
1070
    19
1005
1306
1002
}
  0
LINE
  5
12B5
  8
0
 10
531.92623157890125
 20
151.0
 30
0.0
 11
531.92623157890125
 21
172.15000000000001
 31
0.0
1001
ACAD
1000
ASC_BOUNDS
1002
{
1070
    19
1005
1306
1002
}
  0
LINE
  5
12B6
  8
0
 10
532.42623157890125
 20
151.0
 30
0.0
 11
531.92623157890125
 21
151.0
 31
0.0
1001
ACAD
1000
ASC_BOUNDS
1002
{
1070
    19
1005
1306
1002
}
  0
LINE
  5
12B8
  8
0
 10
516.42623157890125
 20
151.0
 30
0.0
 11
516.92623157890125
 21
151.0
 31
0.0
1001
ACAD
1000
ASC_BOUNDS
1002
{
1070
    19
1005
1306
1002
}
  0
LINE
  5
12B9
  8
0
 10
516.92623157890125
 20
151.0
 30
0.0
 11
516.92623157890148
 21
172.15000000000001
 31
0.0
1001
ACAD
1000
ASC_BOUNDS
1002
{
1070
    19
1005
1306
1002
}
  0
ARC
  5
12C0
  8
0
 10
524.42623157890125
 20
154.0
 30
0.0
 40
7.5
 50
0.0
 51
72.54239687627701
1001
ACAD
1000
ASC_BOUNDS
1002
{
1070
    19
1005
1306
1002
}
  0
ARC
  5
12C1
  8
0
 10
524.42623157890125
 20
154.0
 30
0.0
 40
7.5
 50
107.4576031237229
 51
180.0
1001
ACAD
1000
ASC_BOUNDS
1002
{
1070
    19
1005
1306
1002
}
  0
LINE
  5
12C4
  8
0
  6
CENTER
 10
509.67623157890142
 20
179.99999999999989
 30
0.0
 11
539.17623157890125
 21
180.00000000000031
 31
0.0
  0
LINE
  5
12EA
  8
0
 10
534.17623157890125
 20
175.24999999999989
 30
0.0
 11
533.42623157890148
 21
175.9999999999998
 31
0.0
1001
ACAD
1000
ASC_BOUNDS
1002
{
1070
    19
1005
1306
1002
}
  0
LINE
  5
12EB
  8
0
 10
533.42623157890148
 20
175.9999999999998
 30
0.0
 11
533.42623157890125
 21
180.0000000000002
 31
0.0
  0
LINE
  5
12EC
  8
0
 10
514.67623157890125
 20
175.24999999999989
 30
0.0
 11
515.42623157890125
 21
175.9999999999998
 31
0.0
1001
ACAD
1000
ASC_BOUNDS
1002
{
1070
    19
1005
1306
1002
}
  0
LINE
  5
12ED
  8
0
 10
515.42623157890125
 20
175.9999999999998
 30
0.0
 11
515.42623157890125
 21
180.0000000000002
 31
0.0
  0
INSERT
  5
1306
  8
0
  6
CONTINUOUS
  2
*X3
 10
0.0
 20
0.0
 30
0.0
1001
ACAD
1000
HATCH
1002
{
1070
    19
1000
_USER
1040
2.0
1040
0.7853981633974483
1000
ASC_BOUNDS
1070
     2
1070
     1
1070
    12
1005
10BB
1005
12B1
1005
12B2
1005
12B3
1005
12B8
1005
12B9
1005
12C1
1005
12AF
1005
12AE
1005
1183
1005
12EC
1005
12AA
1070
     1
1070
    12
1005
12AC
1005
12AD
1005
1180
1005
12C0
1005
12B5
1005
12B6
1005
12B0
1005
12B4
1005
12B1
1005
10BB
1005
12AA
1005
12EA
1000
ASC_SEEDPOINT
1011
527.18054610345723
1021
-1.1523552872589865E+279
1031
0.0
1021
173.17892383409841
1031
0.0
1000
R14_HATCH_DATA
1000
1306
1011
1.0
1021
-1.1523552872589865E+279
1031
0.0
1021
0.0
1031
0.0
1011
0.0
1021
-1.1523552872589865E+279
1031
0.0
1021
1.0
1031
0.0
1011
0.0
1021
-1.1523552872589865E+279
1031
0.0
1021
0.0
1031
1.0
1040
0.0
1010
0.0
1020
0.0
1030
1.0
1000
_USER
1070
     0
1070
     1
1071
        2
1071
        7
1070
     1
1070
     1
1071
       12
1040
534.17623157890125
1040
172.75
1040
0.0
1040
534.17623157890125
1040
175.24999999999989
1040
0.0
1040
533.42623157890148
1040
175.9999999999998
1040
0.0
1040
524.42623157890125
1040
176.0
1040
0.0
1040
524.42623157890125
1040
158.25
1040
-0.4142135623730951
1040
530.42623157890137
1040
152.24999999999989
1040
0.0
1040
530.42623157890137
1040
151.0
1040
1.0
1040
532.42623157890125
1040
151.0
1040
0.0
1040
531.92623157890125
1040
151.0
1040
0.0
1040
531.92623157890125
1040
154.0
1040
0.327538221718535
1040
526.67623157890148
1040
161.15454401062701
1040
0.0
1040
526.67623157890148
1040
170.75
1040
0.0
1071
       12
1005
12EA
1005
12AA
1005
10BB
1005
12B1
1005
12B4
1005
12B0
1005
12B6
1005
12B5
1005
12C0
1005
1180
1005
12AD
1005
12AC
1071
        7
1070
     1
1070
     1
1071
       12
1040
522.17623157890125
1040
170.75
1040
0.0
1040
522.17623157890125
1040
161.15454401062701
1040
0.3275382217185341
1040
516.92623157890125
1040
154.0
1040
0.0
1040
516.92623157890125
1040
151.0
1040
0.0
1040
516.42623157890125
1040
151.0
1040
1.0
1040
518.42623157890125
1040
151.0
1040
0.0
1040
518.42623157890125
1040
152.24999999999989
1040
-0.4142135623730951
1040
524.42623157890125
1040
158.25
1040
0.0
1040
524.42623157890125
1040
176.0
1040
0.0
1040
515.42623157890137
1040
176.00000000000011
1040
0.0
1040
514.67623157890148
1040
175.25000000000011
1040
0.0
1040
514.67623157890148
1040
172.75
1040
0.0
1071
       12
1005
12AA
1005
12EC
1005
1183
1005
12AE
1005
12AF
1005
12C1
1005
12B9
1005
12B8
1005
12B3
1005
12B2
1005
12B1
1005
10BB
1070
     0
1070
     0
1040
0.7853981633974483
1040
2.0
1070
     1
1070
     2
1040
0.7853981633974483
1040
18.291437395816612
1040
0.0
1040
-1.414213562373094
1040
1.4142135623730949
1070
     0
1040
2.3561944901923439
1040
18.291437395816612
1040
0.0
1040
-1.4142135623730949
1040
-1.414213562373094
1070
     0
1040
0.1452439920063052
1071
        2
1040
527.18054610345723
1040
173.17892383409841
1040
0.0
1040
519.91641337243561
1040
173.03367973511541
1040
0.0
1002
}
  0
ARC
  5
1308
  8
0
 10
462.00228875978991
 20
180.0
 30
0.0
 40
18.84545598937293
 50
137.865566702363
 51
222.13443329763709
  0
ARC
  5
130C
  8
0
 10
462.00228875978991
 20
180.0
 30
0.0
 40
18.84545598937293
 50
47.865566702363097
 51
132.13443329763709
  0
ARC
  5
130D
  8
0
 10
462.00228875978991
 20
180.0
 30
0.0
 40
18.84545598937293
 50
317.8655667023632
 51
42.13443329763696
  0
ARC
  5
130E
  8
0
 10
462.00228875978991
 20
180.0
 30
0.0
 40
18.84545598937293
 50
227.865566702363
 51
312.13443329763732
  0
ENDSEC
  0
EOF
