  0
SECTION
  2
HEADER
  9
$ACADVER
  1
AC1009
  9
$INSBASE
 10
0.0
 20
0.0
 30
0.0
  9
$EXTMIN
 10
-115.286054
 20
-275.784888
 30
0.0
  9
$EXTMAX
 10
264.380445
 20
-23.534328
 30
0.0
  9
$LIMMIN
 10
0.0
 20
0.0
  9
$LIMMAX
 10
12.0
 20
9.0
  9
$ORTHOMODE
 70
     1
  9
$REGENMODE
 70
     1
  9
$FILLMODE
 70
     1
  9
$QTEXTMODE
 70
     0
  9
$MIRRTEXT
 70
     1
  9
$DRAGMODE
 70
     2
  9
$LTSCALE
 40
5.0
  9
$OSMODE
 70
     0
  9
$ATTMODE
 70
     1
  9
$TEXTSIZE
 40
22.0
  9
$TRACEWID
 40
0.05
  9
$TEXTSTYLE
  7
ROMAND
  9
$CLAYER
  8
0
  9
$CELTYPE
  6
BYLAYER
  9
$CECOLOR
 62
   256
  9
$DIMSCALE
 40
1.0
  9
$DIMASZ
 40
2.5
  9
$DIMEXO
 40
0.0
  9
$DIMDLI
 40
5.0
  9
$DIMRND
 40
0.0
  9
$DIMDLE
 40
0.0
  9
$DIMEXE
 40
1.0
  9
$DIMTP
 40
0.0
  9
$DIMTM
 40
0.0
  9
$DIMTXT
 40
2.5
  9
$DIMCEN
 40
0.09
  9
$DIMTSZ
 40
0.0
  9
$DIMTOL
 70
     0
  9
$DIMLIM
 70
     0
  9
$DIMTIH
 70
     0
  9
$DIMTOH
 70
     0
  9
$DIMSE1
 70
     0
  9
$DIMSE2
 70
     0
  9
$DIMTAD
 70
     1
  9
$DIMZIN
 70
     0
  9
$DIMBLK
  1

  9
$DIMASO
 70
     0
  9
$DIMSHO
 70
     0
  9
$DIMPOST
  1

  9
$DIMAPOST
  1

  9
$DIMALT
 70
     0
  9
$DIMALTD
 70
     2
  9
$DIMALTF
 40
25.4
  9
$DIMLFAC
 40
1.0
  9
$DIMTOFL
 70
     1
  9
$DIMTVP
 40
0.0
  9
$DIMTIX
 70
     0
  9
$DIMSOXD
 70
     0
  9
$DIMSAH
 70
     0
  9
$DIMBLK1
  1

  9
$DIMBLK2
  1

  9
$DIMSTYLE
  2
*UNNAMED
  9
$DIMCLRD
 70
     0
  9
$DIMCLRE
 70
     0
  9
$DIMCLRT
 70
     0
  9
$DIMTFAC
 40
1.0
  9
$DIMGAP
 40
0.09
  9
$LUNITS
 70
     2
  9
$LUPREC
 70
     4
  9
$SKETCHINC
 40
0.1
  9
$FILLETRAD
 40
20.0
  9
$AUNITS
 70
     0
  9
$AUPREC
 70
     0
  9
$MENU
  1
wiberger
  9
$ELEVATION
 40
0.0
  9
$PELEVATION
 40
0.0
  9
$THICKNESS
 40
0.0
  9
$LIMCHECK
 70
     0
  9
$BLIPMODE
 70
     1
  9
$CHAMFERA
 40
4.7
  9
$CHAMFERB
 40
4.7
  9
$SKPOLY
 70
     0
  9
$TDCREATE
 40
2450191.444109375
  9
$TDUPDATE
 40
2450218.588857175
  9
$TDINDWG
 40
0.0032903935
  9
$TDUSRTIMER
 40
0.0032903935
  9
$USRTIMER
 70
     1
  9
$ANGBASE
 50
0.0
  9
$ANGDIR
 70
     0
  9
$PDMODE
 70
     0
  9
$PDSIZE
 40
0.0
  9
$PLINEWID
 40
0.0
  9
$COORDS
 70
     2
  9
$SPLFRAME
 70
     0
  9
$SPLINETYPE
 70
     6
  9
$SPLINESEGS
 70
     8
  9
$ATTDIA
 70
     0
  9
$ATTREQ
 70
     1
  9
$HANDLING
 70
     0
  9
$HANDSEED
  5
0
  9
$SURFTAB1
 70
     6
  9
$SURFTAB2
 70
     6
  9
$SURFTYPE
 70
     6
  9
$SURFU
 70
     6
  9
$SURFV
 70
     6
  9
$UCSNAME
  2

  9
$UCSORG
 10
0.0
 20
0.0
 30
0.0
  9
$UCSXDIR
 10
1.0
 20
0.0
 30
0.0
  9
$UCSYDIR
 10
0.0
 20
1.0
 30
0.0
  9
$PUCSNAME
  2

  9
$PUCSORG
 10
0.0
 20
0.0
 30
0.0
  9
$PUCSXDIR
 10
1.0
 20
0.0
 30
0.0
  9
$PUCSYDIR
 10
0.0
 20
1.0
 30
0.0
  9
$USERI1
 70
     0
  9
$USERI2
 70
     0
  9
$USERI3
 70
     0
  9
$USERI4
 70
     0
  9
$USERI5
 70
     0
  9
$USERR1
 40
0.0
  9
$USERR2
 40
0.0
  9
$USERR3
 40
0.0
  9
$USERR4
 40
0.0
  9
$USERR5
 40
0.0
  9
$WORLDVIEW
 70
     1
  9
$SHADEDGE
 70
     3
  9
$SHADEDIF
 70
    70
  9
$TILEMODE
 70
     1
  9
$MAXACTVP
 70
    16
  9
$PINSBASE
 10
0.0
 20
0.0
 30
0.0
  9
$PLIMCHECK
 70
     0
  9
$PEXTMIN
 10
1.000000E+20
 20
1.000000E+20
 30
1.000000E+20
  9
$PEXTMAX
 10
-1.000000E+20
 20
-1.000000E+20
 30
-1.000000E+20
  9
$PLIMMIN
 10
0.0
 20
0.0
  9
$PLIMMAX
 10
12.0
 20
9.0
  9
$UNITMODE
 70
     0
  9
$VISRETAIN
 70
     0
  9
$PLINEGEN
 70
     0
  9
$PSLTSCALE
 70
     0
  9
$TREEDEPTH
 70
  3020
  9
$DWGCODEPAGE
  3
undefined
  0
ENDSEC
  0
SECTION
  2
TABLES
  0
TABLE
  2
VPORT
 70
     2
  0
VPORT
  2
*ACTIVE
 70
     0
 10
0.0
 20
0.0
 11
1.0
 21
1.0
 12
131.503568
 22
-140.05131
 13
0.0
 23
0.0
 14
1.0
 24
1.0
 15
0.0
 25
0.0
 16
0.0
 26
0.0
 36
1.0
 17
0.0
 27
0.0
 37
0.0
 40
301.293306
 41
1.767507
 42
50.0
 43
0.0
 44
0.0
 50
0.0
 51
0.0
 71
     0
 72
     0
 73
     1
 74
     0
 75
     0
 76
     0
 77
     0
 78
     0
  0
ENDTAB
  0
TABLE
  2
LTYPE
 70
     2
  0
LTYPE
  2
CONTINUOUS
 70
    64
  3
Solid line
 72
    65
 73
     0
 40
0.0
  0
LTYPE
  2
CENTER
 70
    64
  3
____ _ ____ _ ____ _ ____ _ ____ _ ____ _ ____
 72
    65
 73
     4
 40
2.0
 49
1.25
 49
-0.25
 49
0.25
 49
-0.25
  0
ENDTAB
  0
TABLE
  2
LAYER
 70
     1
  0
LAYER
  2
0
 70
    64
 62
     7
  6
CONTINUOUS
  0
ENDTAB
  0
TABLE
  2
STYLE
 70
     6
  0
STYLE
  2
STANDARD
 70
     0
 40
0.0
 41
1.0
 50
0.0
 71
     0
 42
10.0
  3
txt
  4

  0
STYLE
  2
ROMANT
 70
     0
 40
10.0
 41
1.0
 50
0.0
 71
     0
 42
10.0
  3
romant
  4

  0
STYLE
  2
ROMANC
 70
     0
 40
10.0
 41
1.0
 50
0.0
 71
     0
 42
10.0
  3
romanc
  4

  0
STYLE
  2
TXT
 70
     0
 40
10.0
 41
1.0
 50
0.0
 71
     0
 42
10.0
  3
txt
  4

  0
STYLE
  2
GREEKS
 70
     0
 40
33.0
 41
2.0
 50
0.0
 71
     0
 42
33.0
  3
greeks
  4

  0
STYLE
  2
ROMAND
 70
     0
 40
22.0
 41
1.0
 50
0.0
 71
     0
 42
22.0
  3
romand
  4

  0
ENDTAB
  0
TABLE
  2
VIEW
 70
     0
  0
ENDTAB
  0
TABLE
  2
UCS
 70
     0
  0
ENDTAB
  0
TABLE
  2
APPID
 70
     1
  0
APPID
  2
ACAD
 70
    64
  0
ENDTAB
  0
TABLE
  2
DIMSTYLE
 70
     0
  0
ENDTAB
  0
ENDSEC
  0
SECTION
  2
BLOCKS
  0
BLOCK
  8
0
  2
HAST
 70
     0
 10
0.0
 20
0.0
 30
0.0
  3
HAST
  0
ARC
  8
0
 10
5.961146
 20
3.265075
 30
0.0
 40
0.069244
 50
249.734917
 51
21.712663
  0
LINE
  8
0
 10
6.170044
 20
3.438958
 30
0.0
 11
5.78292
 21
3.041928
 31
0.0
  0
CIRCLE
  8
0
 10
5.940152
 20
3.28474
 30
0.0
 40
0.237992
  0
LINE
  8
0
 10
-5.758672
 20
1.574473
 30
0.0
 11
-10.024501
 21
-0.383546
 31
0.0
  0
LINE
  8
0
 10
-5.751943
 20
1.520645
 30
0.0
 11
-9.957217
 21
-0.531575
 31
0.0
  0
LINE
  8
0
 10
-5.624103
 20
1.715774
 30
0.0
 11
-10.111971
 21
-0.26916
 31
0.0
  0
LINE
  8
0
 10
-5.698116
 20
1.635031
 30
0.0
 11
-9.634252
 21
-0.79399
 31
0.0
  0
LINE
  8
0
 10
-5.624103
 20
1.601388
 30
0.0
 11
-9.903389
 21
-0.585404
 31
0.0
  0
LINE
  8
0
 10
-5.556818
 20
1.769603
 30
0.0
 11
-10.15907
 21
-0.094217
 31
0.0
  0
LINE
  8
0
 10
-5.624103
 20
1.709045
 30
0.0
 11
-10.058143
 21
-0.309532
 31
0.0
  0
LINE
  8
0
 10
-5.405615
 20
1.863304
 30
0.0
 11
-10.172527
 21
0.006712
 31
0.0
  0
LINE
  8
0
 10
-5.718468
 20
1.562106
 30
0.0
 11
-9.721722
 21
-0.686333
 31
0.0
  0
LINE
  8
0
 10
-5.622293
 20
1.694602
 30
0.0
 11
-9.950488
 21
-0.430646
 31
0.0
  0
LINE
  8
0
 10
-5.365503
 20
1.880943
 30
0.0
 11
-10.092687
 21
-0.197854
 31
0.0
  0
ARC
  8
0
 10
-5.053052
 20
1.180258
 30
0.0
 40
0.767194
 50
69.099916
 51
232.766376
  0
ARC
  8
0
 10
-1.688041
 20
19.612464
 30
0.0
 40
17.983183
 50
260.101648
 51
284.37818
  0
ARC
  8
0
 10
8.533751
 20
1.149649
 30
0.0
 40
0.682436
 50
174.194083
 51
118.411941
  0
LINE
  8
0
 10
5.345707
 20
1.779396
 30
0.0
 11
7.854815
 21
1.218684
 31
0.0
  0
LINE
  8
0
 10
3.072751
 20
0.421881
 30
0.0
 11
5.345707
 21
1.779396
 31
0.0
  0
LINE
  8
0
 10
5.788491
 20
3.933714
 30
0.0
 11
8.209042
 21
1.749885
 31
0.0
  0
LINE
  8
0
 10
5.611378
 20
5.291229
 30
0.0
 11
5.788491
 21
3.933714
 31
0.0
  0
LINE
  8
0
 10
5.257151
 20
3.992736
 30
0.0
 11
5.611378
 21
5.291229
 31
0.0
  0
ARC
  8
0
 10
-0.631304
 20
9.495753
 30
0.0
 40
8.059597
 50
295.021437
 51
316.937897
  0
ARC
  8
0
 10
-1.155973
 20
4.354099
 30
0.0
 40
5.774465
 50
220.951007
 51
317.080775
  0
LINE
  8
0
 10
3.072751
 20
0.421881
 30
0.0
 11
4.015434
 21
-4.865202
 31
0.0
  0
LINE
  8
0
 10
1.642448
 20
-4.999241
 30
0.0
 11
3.072751
 21
0.421881
 31
0.0
  0
LINE
  8
0
 10
-5.517255
 20
0.569437
 30
0.0
 11
-5.607734
 21
-4.865202
 31
0.0
  0
LINE
  8
0
 10
-7.619311
 20
-4.672906
 30
0.0
 11
-5.517255
 21
0.569437
 31
0.0
  0
CIRCLE
  8
0
 10
4.72581
 20
-5.155735
 30
0.0
 40
0.767492
  0
CIRCLE
  8
0
 10
2.393815
 20
-5.155735
 30
0.0
 40
0.767492
  0
CIRCLE
  8
0
 10
-4.897358
 20
-5.155735
 30
0.0
 40
0.767492
  0
CIRCLE
  8
0
 10
-7.02272
 20
-5.155735
 30
0.0
 40
0.767492
  0
ENDBLK
  8
0
  0
BLOCK
  8
0
  2
*X1
 70
    65
 10
0.0
 20
0.0
 30
0.0
  3
*X
  0
LINE
  8
0
 62
     0
 10
-109.364592
 20
-66.938185
 30
0.0
 11
-104.764592
 21
-62.338185
 31
0.0
  0
LINE
  8
0
 62
     0
 10
-109.364592
 20
-65.170418
 30
0.0
 11
-104.764592
 21
-60.570418
 31
0.0
  0
LINE
  8
0
 62
     0
 10
-109.364592
 20
-63.402651
 30
0.0
 11
-104.764592
 21
-58.802651
 31
0.0
  0
LINE
  8
0
 62
     0
 10
-109.080941
 20
-61.351233
 30
0.0
 11
-105.609806
 21
-57.880099
 31
0.0
  0
LINE
  8
0
 62
     0
 10
-109.364592
 20
-68.705952
 30
0.0
 11
-104.764592
 21
-64.105952
 31
0.0
  0
LINE
  8
0
 62
     0
 10
-108.965018
 20
-70.074145
 30
0.0
 11
-104.764592
 21
-65.873719
 31
0.0
  0
LINE
  8
0
 62
     0
 10
-107.503205
 20
-70.380099
 30
0.0
 11
-104.764592
 21
-67.641486
 31
0.0
  0
LINE
  8
0
 62
     0
 10
-105.735438
 20
-70.380099
 30
0.0
 11
-104.764592
 21
-69.409253
 31
0.0
  0
ENDBLK
  8
0
  0
BLOCK
  8
0
  2
*X2
 70
    65
 10
0.0
 20
0.0
 30
0.0
  3
*X
  0
LINE
  8
0
 62
     0
 10
-111.364592
 20
-137.881096
 30
0.0
 11
-105.614592
 21
-132.131096
 31
0.0
  0
LINE
  8
0
 62
     0
 10
-111.337895
 20
-136.086632
 30
0.0
 11
-105.614592
 21
-130.363329
 31
0.0
  0
LINE
  8
0
 62
     0
 10
-110.837752
 20
-133.818722
 30
0.0
 11
-106.172433
 21
-129.153403
 31
0.0
  0
LINE
  8
0
 62
     0
 10
-111.364592
 20
-139.648863
 30
0.0
 11
-105.614592
 21
-133.898863
 31
0.0
  0
LINE
  8
0
 62
     0
 10
-111.364592
 20
-141.41663
 30
0.0
 11
-105.614592
 21
-135.66663
 31
0.0
  0
LINE
  8
0
 62
     0
 10
-111.239994
 20
-143.059799
 30
0.0
 11
-105.614592
 21
-137.434397
 31
0.0
  0
LINE
  8
0
 62
     0
 10
-110.306959
 20
-143.894531
 30
0.0
 11
-105.614592
 21
-139.202164
 31
0.0
  0
LINE
  8
0
 62
     0
 10
-108.605905
 20
-143.961244
 30
0.0
 11
-105.614592
 21
-140.969931
 31
0.0
  0
LINE
  8
0
 62
     0
 10
-106.838138
 20
-143.961244
 30
0.0
 11
-105.614592
 21
-142.737698
 31
0.0
  0
ENDBLK
  8
0
  0
BLOCK
  8
0
  2
*X3
 70
    65
 10
0.0
 20
0.0
 30
0.0
  3
*X
  0
LINE
  8
0
 62
     0
 10
-113.864592
 20
-219.930609
 30
0.0
 11
-106.464592
 21
-212.530609
 31
0.0
  0
LINE
  8
0
 62
     0
 10
-113.858771
 20
-217.273138
 30
0.0
 11
-106.464592
 21
-209.878958
 31
0.0
  0
LINE
  8
0
 62
     0
 10
-113.099175
 20
-213.861891
 30
0.0
 11
-107.973656
 21
-208.736372
 31
0.0
  0
LINE
  8
0
 62
     0
 10
-113.864592
 20
-222.582259
 30
0.0
 11
-106.464592
 21
-215.182259
 31
0.0
  0
LINE
  8
0
 62
     0
 10
-113.854723
 20
-225.224041
 30
0.0
 11
-106.464592
 21
-217.83391
 31
0.0
  0
LINE
  8
0
 62
     0
 10
-112.930215
 20
-226.951184
 30
0.0
 11
-106.464592
 21
-220.48556
 31
0.0
  0
LINE
  8
0
 62
     0
 10
-110.829508
 20
-227.502127
 30
0.0
 11
-106.464592
 21
-223.137211
 31
0.0
  0
LINE
  8
0
 62
     0
 10
-108.177857
 20
-227.502127
 30
0.0
 11
-106.464592
 21
-225.788861
 31
0.0
  0
ENDBLK
  8
0
  0
BLOCK
  8
0
  2
*X4
 70
    65
 10
0.0
 20
0.0
 30
0.0
  3
*X
  0
LINE
  8
0
 62
     0
 10
47.719331
 20
-74.256589
 30
0.0
 11
56.719331
 21
-65.256589
 31
0.0
  0
LINE
  8
0
 62
     0
 10
47.719331
 20
-71.604938
 30
0.0
 11
56.719331
 21
-62.604938
 31
0.0
  0
LINE
  8
0
 62
     0
 10
47.995544
 20
-68.677075
 30
0.0
 11
56.405841
 21
-60.266778
 31
0.0
  0
LINE
  8
0
 62
     0
 10
50.147012
 20
-63.873956
 30
0.0
 11
52.8801
 21
-61.140868
 31
0.0
  0
LINE
  8
0
 62
     0
 10
47.719331
 20
-76.908239
 30
0.0
 11
56.719331
 21
-67.908239
 31
0.0
  0
LINE
  8
0
 62
     0
 10
47.719331
 20
-79.55989
 30
0.0
 11
56.719331
 21
-70.55989
 31
0.0
  0
LINE
  8
0
 62
     0
 10
48.034967
 20
-81.895904
 30
0.0
 11
56.719331
 21
-73.21154
 31
0.0
  0
LINE
  8
0
 62
     0
 10
49.360792
 20
-83.221729
 30
0.0
 11
56.719331
 21
-75.863191
 31
0.0
  0
LINE
  8
0
 62
     0
 10
50.686618
 20
-84.547554
 30
0.0
 11
56.719331
 21
-78.514841
 31
0.0
  0
LINE
  8
0
 62
     0
 10
53.305555
 20
-84.580268
 30
0.0
 11
56.719331
 21
-81.166491
 31
0.0
  0
ENDBLK
  8
0
  0
BLOCK
  8
0
  2
*X5
 70
    65
 10
0.0
 20
0.0
 30
0.0
  3
*X
  0
LINE
  8
0
 62
     0
 10
43.719331
 20
-210.83911
 30
0.0
 11
55.119331
 21
-199.43911
 31
0.0
  0
LINE
  8
0
 62
     0
 10
43.719331
 20
-207.303576
 30
0.0
 11
55.119331
 21
-195.903576
 31
0.0
  0
LINE
  8
0
 62
     0
 10
43.824429
 20
-203.662945
 30
0.0
 11
54.947576
 21
-192.539797
 31
0.0
  0
LINE
  8
0
 62
     0
 10
45.482943
 20
-198.468897
 30
0.0
 11
51.773571
 21
-192.178269
 31
0.0
  0
LINE
  8
0
 62
     0
 10
43.719331
 20
-214.374644
 30
0.0
 11
55.119331
 21
-202.974644
 31
0.0
  0
LINE
  8
0
 62
     0
 10
43.868644
 20
-217.760865
 30
0.0
 11
55.119331
 21
-206.510178
 31
0.0
  0
LINE
  8
0
 62
     0
 10
45.636411
 20
-219.528632
 30
0.0
 11
55.119331
 21
-210.045712
 31
0.0
  0
LINE
  8
0
 62
     0
 10
47.404178
 20
-221.296399
 30
0.0
 11
55.119331
 21
-213.581246
 31
0.0
  0
LINE
  8
0
 62
     0
 10
49.924559
 20
-222.311552
 30
0.0
 11
55.119331
 21
-217.11678
 31
0.0
  0
LINE
  8
0
 62
     0
 10
53.460093
 20
-222.311552
 30
0.0
 11
55.119331
 21
-220.652314
 31
0.0
  0
ENDBLK
  8
0
  0
ENDSEC
  0
SECTION
  2
ENTITIES
  0
LINE
  8
0
  6
CENTER
 10
-101.364592
 20
-72.258379
 30
0.0
 11
-101.364592
 21
-55.293033
 31
0.0
  0
LINE
  8
0
 10
-109.364592
 20
-69.180099
 30
0.0
 11
-109.364592
 21
-62.880099
 31
0.0
  0
LINE
  8
0
 10
-93.364592
 20
-69.180099
 30
0.0
 11
-93.364592
 21
-67.503267
 31
0.0
  0
LINE
  8
0
 10
-108.164592
 20
-70.380099
 30
0.0
 11
-94.564592
 21
-70.380099
 31
0.0
  0
LINE
  8
0
 10
-105.943318
 20
-57.880099
 30
0.0
 11
-96.785865
 21
-57.880099
 31
0.0
  0
LINE
  8
0
 10
-105.364592
 20
-70.380099
 30
0.0
 11
-105.364592
 21
-57.880099
 31
0.0
  0
ARC
  8
0
 10
-103.59033
 20
-63.160653
 30
0.0
 40
5.781073
 50
114.017509
 51
177.218356
  0
LINE
  8
0
 10
-96.200828
 20
-58.224479
 30
0.0
 11
-95.637013
 21
-58.019267
 31
0.0
  0
LINE
  8
0
 10
-93.239929
 20
-67.256488
 30
0.0
 11
-92.387821
 21
-66.946347
 31
0.0
  0
ARC
  8
0
 10
-46.627497
 20
-45.236106
 30
0.0
 40
4.75
 50
290.0
 51
110.0
  0
LINE
  8
0
 10
-89.598568
 20
-55.821452
 30
0.0
 11
-86.349376
 21
-64.748532
 31
0.0
  0
LINE
  8
0
 10
-89.598568
 20
-55.821452
 30
0.0
 11
-93.725561
 21
-58.000175
 31
0.0
  0
LINE
  8
0
 10
-86.349376
 20
-64.748532
 30
0.0
 11
-90.911292
 21
-65.732315
 31
0.0
  0
LINE
  8
0
 10
-95.265418
 20
-58.137445
 30
0.0
 11
-95.637013
 21
-58.019267
 31
0.0
  0
LINE
  8
0
 10
-92.179126
 20
-66.61696
 30
0.0
 11
-92.387821
 21
-66.946347
 31
0.0
  0
LINE
  8
0
 10
-95.637013
 20
-58.019267
 30
0.0
 11
-92.387821
 21
-66.946347
 31
0.0
  0
LINE
  8
0
 10
-96.200828
 20
-58.224479
 30
0.0
 11
-92.951637
 21
-67.151559
 31
0.0
  0
LINE
  8
0
 10
-89.598568
 20
-55.821452
 30
0.0
 11
-48.252092
 21
-40.772566
 31
0.0
  0
LINE
  8
0
 10
-86.349376
 20
-64.748532
 30
0.0
 11
-45.002901
 21
-49.699646
 31
0.0
  0
ARC
  8
0
 10
-94.659275
 20
-56.231509
 30
0.0
 40
2.0
 50
252.357832
 51
297.830466
  0
ARC
  8
0
 10
-90.489682
 20
-67.687371
 30
0.0
 40
2.0
 50
102.169534
 51
147.642168
  0
LINE
  8
0
 10
-104.764592
 20
-58.480099
 30
0.0
 11
-104.764592
 21
-69.780099
 31
0.0
  0
LINE
  8
0
 10
-105.364592
 20
-70.380099
 30
0.0
 11
-104.764592
 21
-69.780099
 31
0.0
  0
LINE
  8
0
 10
-104.764592
 20
-69.780099
 30
0.0
 11
-101.364592
 21
-69.780099
 31
0.0
  0
LINE
  8
0
 10
-105.364592
 20
-57.880099
 30
0.0
 11
-104.764592
 21
-58.480099
 31
0.0
  0
LINE
  8
0
 10
-104.764592
 20
-58.480099
 30
0.0
 11
-101.364592
 21
-58.480099
 31
0.0
  0
LINE
  8
0
 10
-93.239929
 20
-67.256488
 30
0.0
 11
-93.364592
 21
-67.503267
 31
0.0
  0
LINE
  8
0
 10
-96.785865
 20
-57.880099
 30
0.0
 11
-96.200828
 21
-58.224479
 31
0.0
  0
ARC
  8
0
 10
-28.102502
 20
-63.160653
 30
0.0
 40
5.781073
 50
114.017509
 51
177.218356
  0
LINE
  8
0
 10
-30.45549
 20
-57.880099
 30
0.0
 11
-21.298037
 21
-57.880099
 31
0.0
  0
LINE
  8
0
 10
-32.676763
 20
-70.380099
 30
0.0
 11
-19.076763
 21
-70.380099
 31
0.0
  0
LINE
  8
0
 10
-33.876763
 20
-69.180099
 30
0.0
 11
-33.876763
 21
-62.880099
 31
0.0
  0
ARC
  8
0
 10
-23.651025
 20
-63.160653
 30
0.0
 40
5.781073
 50
2.781644
 51
65.982491
  0
LINE
  8
0
 10
-17.876763
 20
-69.180099
 30
0.0
 11
-17.876763
 21
-62.880099
 31
0.0
  0
ARC
  8
0
 10
-25.876763
 20
-45.236106
 30
0.0
 40
4.75
 50
359.999993
 51
180.000003
  0
LINE
  8
0
 10
-30.626763
 20
-45.236106
 30
0.0
 11
-30.626763
 21
-57.959796
 31
0.0
  0
LINE
  8
0
 10
-21.126763
 20
-45.236106
 30
0.0
 11
-21.126763
 21
-57.959796
 31
0.0
  0
ARC
  8
0
 10
-108.164592
 20
-69.180099
 30
0.0
 40
1.2
 50
180.0
 51
270.0
  0
ARC
  8
0
 10
-94.564592
 20
-69.180099
 30
0.0
 40
1.2
 50
270.0
 51
0.0
  0
ARC
  8
0
 10
-32.676763
 20
-69.180099
 30
0.0
 40
1.2
 50
180.0
 51
270.0
  0
ARC
  8
0
 10
-19.076763
 20
-69.180099
 30
0.0
 40
1.2
 50
270.0
 51
0.0
  0
ARC
  8
0
 10
-101.364592
 20
-85.053101
 30
0.0
 40
8.0
 50
36.423574
 51
323.576426
  0
CIRCLE
  8
0
 10
-101.364592
 20
-85.053101
 30
0.0
 40
3.4
  0
CIRCLE
  8
0
 10
-101.364592
 20
-85.053101
 30
0.0
 40
4.0
  0
ARC
  8
0
 10
-46.627497
 20
-85.053101
 30
0.0
 40
4.75
 50
270.0
 51
90.0
  0
LINE
  8
0
 10
-94.927395
 20
-80.303101
 30
0.0
 11
-94.012417
 21
-80.303101
 31
0.0
  0
ARC
  8
0
 10
-88.444495
 20
-85.053101
 30
0.0
 40
7.756333
 50
142.236558
 51
217.763442
  0
ARC
  8
0
 10
-87.880679
 20
-85.053101
 30
0.0
 40
7.756333
 50
142.236558
 51
217.763442
  0
LINE
  8
0
 10
-89.598568
 20
-80.303101
 30
0.0
 11
-92.237621
 21
-80.801339
 31
0.0
  0
LINE
  8
0
 10
-93.721257
 20
-80.498019
 30
0.0
 11
-94.012417
 21
-80.303101
 31
0.0
  0
ARC
  8
0
 10
-92.608655
 20
-78.836057
 30
0.0
 40
2.0
 50
236.199633
 51
280.691266
  0
LINE
  8
0
 10
-89.598568
 20
-80.303101
 30
0.0
 11
-46.627497
 21
-80.303101
 31
0.0
  0
LINE
  8
0
 10
-94.927395
 20
-89.803101
 30
0.0
 11
-94.012417
 21
-89.803101
 31
0.0
  0
ARC
  8
0
 10
-92.608655
 20
-91.270146
 30
0.0
 40
2.0
 50
79.308734
 51
123.800367
  0
LINE
  8
0
 10
-93.721257
 20
-89.608184
 30
0.0
 11
-94.012417
 21
-89.803101
 31
0.0
  0
LINE
  8
0
 10
-89.598568
 20
-89.803101
 30
0.0
 11
-92.237621
 21
-89.304864
 31
0.0
  0
LINE
  8
0
 10
-89.598568
 20
-89.803101
 30
0.0
 11
-46.627497
 21
-89.803101
 31
0.0
  0
ARC
  8
0
 10
-81.842234
 20
-85.053101
 30
0.0
 40
7.756333
 50
142.236558
 51
217.763442
  0
LINE
  8
0
  6
CENTER
 10
-101.364592
 20
-146.190577
 30
0.0
 11
-101.364592
 21
-126.478577
 31
0.0
  0
LINE
  8
0
 10
-111.364592
 20
-142.461244
 30
0.0
 11
-111.364592
 21
-136.461244
 31
0.0
  0
LINE
  8
0
 10
-91.364592
 20
-142.461244
 30
0.0
 11
-91.364592
 21
-140.759019
 31
0.0
  0
LINE
  8
0
 10
-109.864592
 20
-143.961244
 30
0.0
 11
-92.864592
 21
-143.961244
 31
0.0
  0
LINE
  8
0
 10
-106.83507
 20
-128.961244
 30
0.0
 11
-95.894114
 21
-128.961244
 31
0.0
  0
LINE
  8
0
 10
-106.364592
 20
-143.961244
 30
0.0
 11
-106.364592
 21
-128.961244
 31
0.0
  0
ARC
  8
0
 10
-102.110252
 20
-136.932504
 30
0.0
 40
9.266331
 50
120.65656
 51
177.084836
  0
ARC
  8
0
 10
-109.864592
 20
-142.461244
 30
0.0
 40
1.5
 50
180.0
 51
270.0
  0
ARC
  8
0
 10
-92.864592
 20
-142.461244
 30
0.0
 40
1.5
 50
270.0
 51
0.0
  0
LINE
  8
0
 10
-94.852659
 20
-130.144542
 30
0.0
 11
-93.838478
 21
-129.775411
 31
0.0
  0
LINE
  8
0
 10
-81.355167
 20
-136.937812
 30
0.0
 11
-29.202226
 21
-117.955694
 31
0.0
  0
LINE
  8
0
 10
-85.117388
 20
-126.601194
 30
0.0
 11
-81.355167
 21
-136.937812
 31
0.0
  0
LINE
  8
0
 10
-85.117388
 20
-126.601194
 30
0.0
 11
-91.487789
 21
-129.632081
 31
0.0
  0
LINE
  8
0
 10
-92.41656
 20
-129.824861
 30
0.0
 11
-93.838478
 21
-129.775411
 31
0.0
  0
LINE
  8
0
 10
-85.117388
 20
-126.601194
 30
0.0
 11
-32.964448
 21
-107.619076
 31
0.0
  0
ARC
  8
0
 10
-92.347047
 20
-127.82607
 30
0.0
 40
2.0
 50
268.008196
 51
295.444009
  0
LINE
  8
0
 10
-91.180893
 20
-140.514084
 30
0.0
 11
-90.076257
 21
-140.112029
 31
0.0
  0
LINE
  8
0
 10
-89.018791
 20
-139.160157
 30
0.0
 11
-90.076257
 21
-140.112029
 31
0.0
  0
ARC
  8
0
 10
-87.680742
 20
-140.646638
 30
0.0
 40
2.0
 50
104.555991
 51
131.991804
  0
LINE
  8
0
 10
-81.355167
 20
-136.937812
 30
0.0
 11
-88.183394
 21
-138.710833
 31
0.0
  0
LINE
  8
0
 10
-93.838478
 20
-129.775411
 30
0.0
 11
-90.076257
 21
-140.112029
 31
0.0
  0
LINE
  8
0
 10
-94.852659
 20
-130.144542
 30
0.0
 11
-91.090437
 21
-140.481161
 31
0.0
  0
ARC
  8
0
 10
-31.083337
 20
-112.787385
 30
0.0
 40
5.5
 50
290.0
 51
110.0
  0
LINE
  8
0
 10
-105.614592
 20
-143.211244
 30
0.0
 11
-105.614592
 21
-129.711244
 31
0.0
  0
LINE
  8
0
 10
-106.364592
 20
-143.961244
 30
0.0
 11
-105.614592
 21
-143.211244
 31
0.0
  0
LINE
  8
0
 10
-105.614592
 20
-143.211244
 30
0.0
 11
-101.364592
 21
-143.211244
 31
0.0
  0
LINE
  8
0
 10
-106.364592
 20
-128.961244
 30
0.0
 11
-105.614592
 21
-129.711244
 31
0.0
  0
LINE
  8
0
 10
-105.614592
 20
-129.711244
 30
0.0
 11
-101.364592
 21
-129.711244
 31
0.0
  0
ARC
  8
0
 10
-101.364592
 20
-162.617244
 30
0.0
 40
10.0
 50
33.367013
 51
326.83172
  0
ARC
  8
0
 10
-31.357492
 20
-162.617244
 30
0.0
 40
5.5
 50
270.0
 51
90.0
  0
CIRCLE
  8
0
 10
-101.364592
 20
-162.617244
 30
0.0
 40
4.25
  0
CIRCLE
  8
0
 10
-101.364592
 20
-162.617244
 30
0.0
 40
5.0
  0
LINE
  8
0
 10
-93.012945
 20
-157.117244
 30
0.0
 11
-91.957367
 21
-157.117244
 31
0.0
  0
LINE
  8
0
 10
-85.117388
 20
-168.117244
 30
0.0
 11
-31.357492
 21
-168.117244
 31
0.0
  0
ARC
  8
0
 10
-76.410525
 20
-162.617244
 30
0.0
 40
8.981017
 50
142.236558
 51
217.763442
  0
LINE
  8
0
 10
-85.117388
 20
-157.117244
 30
0.0
 11
-89.821822
 21
-157.663203
 31
0.0
  0
ARC
  8
0
 10
-84.857461
 20
-162.617244
 30
0.0
 40
8.981017
 50
142.236558
 51
217.763442
  0
LINE
  8
0
 10
-85.117388
 20
-157.117244
 30
0.0
 11
-31.357492
 21
-157.117244
 31
0.0
  0
LINE
  8
0
 10
-90.728662
 20
-157.558726
 30
0.0
 11
-91.957367
 21
-157.117244
 31
0.0
  0
ARC
  8
0
 10
-90.052378
 20
-155.676536
 30
0.0
 40
2.0
 50
250.23628
 51
276.619676
  0
ARC
  8
0
 10
-85.871642
 20
-162.617242
 30
0.0
 40
8.981017
 50
142.236571
 51
217.763456
  0
LINE
  8
0
 10
-90.728662
 20
-167.675762
 30
0.0
 11
-91.957367
 21
-168.117244
 31
0.0
  0
LINE
  8
0
 10
-92.971547
 20
-168.117244
 30
0.0
 11
-91.957367
 21
-168.117244
 31
0.0
  0
ARC
  8
0
 10
-90.052378
 20
-169.557952
 30
0.0
 40
2.0
 50
83.380324
 51
109.76372
  0
LINE
  8
0
 10
-85.117388
 20
-168.117244
 30
0.0
 11
-89.821822
 21
-167.571285
 31
0.0
  0
LINE
  8
0
 10
-95.894114
 20
-128.961244
 30
0.0
 11
-94.466028
 21
-130.00382
 31
0.0
  0
LINE
  8
0
 10
-91.180893
 20
-140.514084
 30
0.0
 11
-91.364592
 21
-140.759019
 31
0.0
  0
ARC
  8
0
 10
-18.230341
 20
-142.461244
 30
0.0
 40
1.5
 50
180.0
 51
270.0
  0
ARC
  8
0
 10
-10.476002
 20
-136.932504
 30
0.0
 40
9.266331
 50
120.65656
 51
177.084836
  0
LINE
  8
0
 10
-15.200819
 20
-128.961244
 30
0.0
 11
-4.259863
 21
-128.961244
 31
0.0
  0
LINE
  8
0
 10
-18.230341
 20
-143.961244
 30
0.0
 11
-1.230341
 21
-143.961244
 31
0.0
  0
LINE
  8
0
 10
-19.730341
 20
-142.461244
 30
0.0
 11
-19.730341
 21
-136.461244
 31
0.0
  0
LINE
  8
0
 10
0.269659
 20
-142.461244
 30
0.0
 11
0.269659
 21
-136.461244
 31
0.0
  0
ARC
  8
0
 10
-8.984681
 20
-136.932504
 30
0.0
 40
9.266331
 50
2.915164
 51
59.34344
  0
ARC
  8
0
 10
-1.230341
 20
-142.461244
 30
0.0
 40
1.5
 50
270.0
 51
0.0
  0
ARC
  8
0
 10
-9.730341
 20
-112.787385
 30
0.0
 40
5.5
 50
0.0
 51
180.0
  0
LINE
  8
0
 10
-15.230341
 20
-128.978817
 30
0.0
 11
-15.230341
 21
-112.787385
 31
0.0
  0
LINE
  8
0
 10
-4.230341
 20
-128.978817
 30
0.0
 11
-4.230341
 21
-112.787385
 31
0.0
  0
LINE
  8
0
  6
CENTER
 10
-101.364592
 20
-231.227933
 30
0.0
 11
-101.364592
 21
-205.856965
 31
0.0
  0
LINE
  8
0
 10
-113.864592
 20
-225.002127
 30
0.0
 11
-113.864592
 21
-217.502127
 31
0.0
  0
LINE
  8
0
 10
-88.864592
 20
-225.002127
 30
0.0
 11
-88.864592
 21
-224.269811
 31
0.0
  0
LINE
  8
0
 10
-111.364592
 20
-227.502127
 30
0.0
 11
-91.364592
 21
-227.502127
 31
0.0
  0
LINE
  8
0
 10
-107.364592
 20
-208.502127
 30
0.0
 11
-95.364592
 21
-208.502127
 31
0.0
  0
LINE
  8
0
 10
-107.364592
 20
-227.502127
 30
0.0
 11
-107.364592
 21
-208.502127
 31
0.0
  0
LINE
  8
0
 10
-106.464592
 20
-226.602127
 30
0.0
 11
-106.464592
 21
-209.402127
 31
0.0
  0
ARC
  8
0
 10
-104.202376
 20
-217.633171
 30
0.0
 40
9.663104
 50
109.101725
 51
179.222969
  0
ARC
  8
0
 10
-98.526807
 20
-217.633171
 30
0.0
 40
9.663104
 50
51.51188
 51
70.898275
  0
LINE
  8
0
 10
-92.512952
 20
-210.0695
 30
0.0
 11
-91.573259
 21
-209.72748
 31
0.0
  0
LINE
  8
0
 10
-88.252167
 20
-223.41719
 30
0.0
 11
-86.784977
 21
-222.883177
 31
0.0
  0
ARC
  8
0
 10
-13.973178
 20
-188.932605
 30
0.0
 40
7.0
 50
290.0
 51
110.0
  0
LINE
  8
0
 10
-82.145802
 20
-206.296166
 30
0.0
 11
-77.35752
 21
-219.451863
 31
0.0
  0
ARC
  8
0
 10
-91.364592
 20
-225.002127
 30
0.0
 40
2.5
 50
270.0
 51
0.0
  0
ARC
  8
0
 10
-111.364592
 20
-225.002127
 30
0.0
 40
2.5
 50
180.0
 51
270.0
  0
LINE
  8
0
 10
-92.512952
 20
-210.0695
 30
0.0
 11
-87.72467
 21
-223.225197
 31
0.0
  0
LINE
  8
0
 10
-91.573259
 20
-209.72748
 30
0.0
 11
-86.784977
 21
-222.883177
 31
0.0
  0
LINE
  8
0
 10
-82.145802
 20
-206.296166
 30
0.0
 11
-16.367319
 21
-182.354756
 31
0.0
  0
LINE
  8
0
 10
-77.35752
 20
-219.451863
 30
0.0
 11
-11.579038
 21
-195.510453
 31
0.0
  0
LINE
  8
0
 10
-91.573259
 20
-209.72748
 30
0.0
 11
-89.261163
 21
-209.577661
 31
0.0
  0
LINE
  8
0
 10
-89.261163
 20
-209.577661
 30
0.0
 11
-82.145802
 21
-206.296166
 31
0.0
  0
LINE
  8
0
 10
-86.784977
 20
-222.883177
 30
0.0
 11
-84.917507
 21
-221.511757
 31
0.0
  0
LINE
  8
0
 10
-84.917507
 20
-221.511757
 30
0.0
 11
-77.35752
 21
-219.451863
 31
0.0
  0
LINE
  8
0
 10
-88.252167
 20
-223.41719
 30
0.0
 11
-88.864592
 21
-224.269811
 31
0.0
  0
ARC
  8
0
 10
-101.364592
 20
-256.204636
 30
0.0
 40
12.5
 50
34.055798
 51
325.944202
  0
CIRCLE
  8
0
 10
-101.364592
 20
-256.204636
 30
0.0
 40
6.0
  0
CIRCLE
  8
0
 10
-101.364592
 20
-256.204636
 30
0.0
 40
5.1
  0
ARC
  8
0
 10
-13.973178
 20
-256.204636
 30
0.0
 40
7.0
 50
270.000015
 51
90.000015
  0
LINE
  8
0
 10
-91.008434
 20
-249.204636
 30
0.0
 11
-89.179118
 21
-249.204636
 31
0.0
  0
LINE
  8
0
 10
-91.008434
 20
-263.204636
 30
0.0
 11
-89.179118
 21
-263.204636
 31
0.0
  0
ARC
  8
0
 10
-70.715417
 20
-256.204636
 30
0.0
 40
11.430386
 50
142.236558
 51
217.763442
  0
ARC
  8
0
 10
-80.142873
 20
-256.204636
 30
0.0
 40
11.430386
 50
142.236558
 51
217.763442
  0
ARC
  8
0
 10
-81.082566
 20
-256.204636
 30
0.0
 40
11.430386
 50
142.236558
 51
217.763442
  0
LINE
  8
0
 10
-89.261163
 20
-209.577661
 30
0.0
 11
-84.917507
 21
-221.511757
 31
0.0
  0
LINE
  8
0
 10
-89.179118
 20
-249.204636
 30
0.0
 11
-87.089335
 21
-249.854636
 31
0.0
  0
LINE
  8
0
 10
-87.089335
 20
-249.854636
 30
0.0
 11
-79.751661
 21
-249.204636
 31
0.0
  0
LINE
  8
0
 10
-89.179118
 20
-263.204636
 30
0.0
 11
-87.089335
 21
-262.554636
 31
0.0
  0
LINE
  8
0
 10
-87.089335
 20
-262.554636
 30
0.0
 11
-79.751661
 21
-263.204636
 31
0.0
  0
LINE
  8
0
 10
-79.751661
 20
-249.204636
 30
0.0
 11
-13.97318
 21
-249.204636
 31
0.0
  0
LINE
  8
0
 10
-79.751661
 20
-263.204636
 30
0.0
 11
-13.97318
 21
-263.204636
 31
0.0
  0
ARC
  8
0
 10
0.27895
 20
-225.002127
 30
0.0
 40
2.5
 50
180.0
 51
270.0
  0
ARC
  8
0
 10
7.441165
 20
-217.633171
 30
0.0
 40
9.663104
 50
109.101725
 51
179.222969
  0
LINE
  8
0
 10
4.27895
 20
-208.502127
 30
0.0
 11
16.27895
 21
-208.502127
 31
0.0
  0
LINE
  8
0
 10
0.27895
 20
-227.502127
 30
0.0
 11
20.27895
 21
-227.502127
 31
0.0
  0
LINE
  8
0
 10
-2.22105
 20
-225.002127
 30
0.0
 11
-2.22105
 21
-217.502127
 31
0.0
  0
LINE
  8
0
 10
22.77895
 20
-225.002127
 30
0.0
 11
22.77895
 21
-217.502127
 31
0.0
  0
ARC
  8
0
 10
13.116734
 20
-217.633171
 30
0.0
 40
9.663104
 50
0.777031
 51
70.898275
  0
ARC
  8
0
 10
20.27895
 20
-225.002127
 30
0.0
 40
2.5
 50
270.0
 51
0.0
  0
ARC
  8
0
 10
10.27895
 20
-188.932605
 30
0.0
 40
7.0
 50
0.0
 51
180.0
  0
LINE
  8
0
 10
3.27895
 20
-208.912418
 30
0.0
 11
3.27895
 21
-188.932605
 31
0.0
  0
LINE
  8
0
 10
17.27895
 20
-208.912418
 30
0.0
 11
17.27895
 21
-188.932605
 31
0.0
  0
LINE
  8
0
 10
-107.364592
 20
-227.502127
 30
0.0
 11
-106.464592
 21
-226.602127
 31
0.0
  0
LINE
  8
0
 10
-106.464592
 20
-226.602127
 30
0.0
 11
-101.364592
 21
-226.602127
 31
0.0
  0
LINE
  8
0
 10
-107.364592
 20
-208.502127
 30
0.0
 11
-106.464592
 21
-209.402127
 31
0.0
  0
LINE
  8
0
 10
-106.464592
 20
-209.402127
 30
0.0
 11
-101.364592
 21
-209.402127
 31
0.0
  0
LINE
  8
0
 10
47.719331
 20
-71.04859
 30
0.0
 11
47.719331
 21
-81.580268
 31
0.0
  0
LINE
  8
0
 10
79.719331
 20
-78.498156
 30
0.0
 11
79.719331
 21
-81.580268
 31
0.0
  0
LINE
  8
0
 10
50.719331
 20
-84.580268
 30
0.0
 11
76.719331
 21
-84.580268
 31
0.0
  0
LINE
  8
0
 10
55.719331
 20
-59.580268
 30
0.0
 11
71.719331
 21
-59.580268
 31
0.0
  0
LINE
  8
0
 10
55.719331
 20
-59.580268
 30
0.0
 11
55.719331
 21
-84.580268
 31
0.0
  0
LINE
  8
0
 10
56.719331
 20
-60.580268
 30
0.0
 11
56.719331
 21
-83.580268
 31
0.0
  0
ARC
  8
0
 10
60.320573
 20
-71.314429
 30
0.0
 40
12.604046
 50
111.411319
 51
181.208546
  0
ARC
  8
0
 10
67.118089
 20
-71.314429
 30
0.0
 40
12.604046
 50
53.407308
 51
68.588681
  0
LINE
  8
0
 10
47.719331
 20
-81.580268
 30
0.0
 11
50.719331
 21
-84.580268
 31
0.0
  0
LINE
  8
0
 10
79.719331
 20
-81.580268
 30
0.0
 11
76.719331
 21
-84.580268
 31
0.0
  0
LINE
  8
0
 10
79.719331
 20
-81.580268
 30
0.0
 11
63.719331
 21
-81.580268
 31
0.0
  0
LINE
  8
0
 10
74.063809
 20
-61.401398
 30
0.0
 11
75.473347
 21
-60.888367
 31
0.0
  0
LINE
  8
0
 10
79.719331
 20
-78.498156
 30
0.0
 11
81.62971
 21
-77.802835
 31
0.0
  0
ARC
  8
0
 10
172.723675
 20
-35.069743
 30
0.0
 40
9.0
 50
290.0
 51
110.0
  0
LINE
  8
0
 10
88.831928
 20
-56.026242
 30
0.0
 11
94.988291
 21
-72.940709
 31
0.0
  0
LINE
  8
0
 10
81.62971
 20
-77.802835
 30
0.0
 11
75.473347
 21
-60.888367
 31
0.0
  0
LINE
  8
0
 10
80.220171
 20
-78.315865
 30
0.0
 11
74.063809
 21
-61.401398
 31
0.0
  0
LINE
  8
0
 10
94.988291
 20
-72.940709
 30
0.0
 11
83.404278
 21
-76.092767
 31
0.0
  0
LINE
  8
0
 10
83.404278
 20
-76.092767
 30
0.0
 11
81.62971
 21
-77.802835
 31
0.0
  0
LINE
  8
0
 10
77.931956
 20
-61.057685
 30
0.0
 11
75.473347
 21
-60.888367
 31
0.0
  0
LINE
  8
0
 10
88.831928
 20
-56.026242
 30
0.0
 11
77.931956
 21
-61.057685
 31
0.0
  0
LINE
  8
0
 10
94.988291
 20
-72.940709
 30
0.0
 11
175.801856
 21
-43.526976
 31
0.0
  0
LINE
  8
0
 10
88.831928
 20
-56.026242
 30
0.0
 11
169.645494
 21
-26.612509
 31
0.0
  0
ARC
  8
0
 10
63.719331
 20
-117.647346
 30
0.0
 40
16.0
 50
34.228866
 51
325.771134
  0
CIRCLE
  8
0
 10
63.719331
 20
-117.647346
 30
0.0
 40
8.0
  0
CIRCLE
  8
0
 10
63.719331
 20
-117.647346
 30
0.0
 40
7.0
  0
ARC
  8
0
 10
172.723675
 20
-117.647346
 30
0.0
 40
9.0
 50
270.0
 51
90.0
  0
LINE
  8
0
 10
76.948087
 20
-108.647346
 30
0.0
 11
78.551529
 21
-108.647346
 31
0.0
  0
LINE
  8
0
 10
76.948087
 20
-126.647346
 30
0.0
 11
78.551529
 21
-126.647346
 31
0.0
  0
ARC
  8
0
 10
103.528139
 20
-117.647346
 30
0.0
 40
14.69621
 50
142.236558
 51
217.763442
  0
LINE
  8
0
 10
91.91011
 20
-108.647346
 30
0.0
 11
80.668117
 21
-109.647346
 31
0.0
  0
LINE
  8
0
 10
91.91011
 20
-126.647346
 30
0.0
 11
80.668117
 21
-125.647346
 31
0.0
  0
LINE
  8
0
 10
80.668117
 20
-109.647346
 30
0.0
 11
78.551529
 21
-108.647346
 31
0.0
  0
LINE
  8
0
 10
80.668117
 20
-125.647346
 30
0.0
 11
78.551529
 21
-126.647346
 31
0.0
  0
ARC
  8
0
 10
90.169558
 20
-117.647346
 30
0.0
 40
14.69621
 50
142.236558
 51
217.763442
  0
ARC
  8
0
 10
88.566117
 20
-117.647346
 30
0.0
 40
14.69621
 50
142.236558
 51
217.763442
  0
LINE
  8
0
 10
91.91011
 20
-108.647346
 30
0.0
 11
172.723675
 21
-108.647346
 31
0.0
  0
LINE
  8
0
 10
91.91011
 20
-126.647346
 30
0.0
 11
172.723675
 21
-126.647346
 31
0.0
  0
LINE
  8
0
  6
CENTER
 10
63.719331
 20
-56.356965
 30
0.0
 11
63.719331
 21
-86.354477
 31
0.0
  0
LINE
  8
0
 10
55.719331
 20
-84.580268
 30
0.0
 11
56.719331
 21
-83.580268
 31
0.0
  0
LINE
  8
0
 10
56.719331
 20
-83.580268
 30
0.0
 11
63.719331
 21
-83.580268
 31
0.0
  0
LINE
  8
0
 10
55.719331
 20
-59.580268
 30
0.0
 11
56.719331
 21
-60.580268
 31
0.0
  0
LINE
  8
0
 10
56.719331
 20
-60.580268
 30
0.0
 11
63.719331
 21
-60.580268
 31
0.0
  0
LINE
  8
0
 10
223.607073
 20
-81.580268
 30
0.0
 11
191.607073
 21
-81.580268
 31
0.0
  0
LINE
  8
0
 10
191.607073
 20
-81.580268
 30
0.0
 11
194.607073
 21
-84.580268
 31
0.0
  0
ARC
  8
0
 10
204.208314
 20
-71.314429
 30
0.0
 40
12.604046
 50
111.411319
 51
181.208546
  0
LINE
  8
0
 10
199.607073
 20
-59.580268
 30
0.0
 11
215.607073
 21
-59.580268
 31
0.0
  0
LINE
  8
0
 10
194.607073
 20
-84.580268
 30
0.0
 11
220.607073
 21
-84.580268
 31
0.0
  0
LINE
  8
0
 10
191.607073
 20
-71.04859
 30
0.0
 11
191.607073
 21
-81.580268
 31
0.0
  0
ARC
  8
0
 10
211.005831
 20
-71.314429
 30
0.0
 40
12.604046
 50
358.791454
 51
68.588681
  0
LINE
  8
0
 10
223.607073
 20
-71.04859
 30
0.0
 11
223.607073
 21
-81.580268
 31
0.0
  0
LINE
  8
0
 10
223.607073
 20
-81.580268
 30
0.0
 11
220.607073
 21
-84.580268
 31
0.0
  0
ARC
  8
0
 10
207.607073
 20
-35.069743
 30
0.0
 40
9.0
 50
0.0
 51
180.0
  0
LINE
  8
0
 10
216.607073
 20
-60.023368
 30
0.0
 11
216.607073
 21
-35.069743
 31
0.0
  0
LINE
  8
0
 10
198.607073
 20
-60.023368
 30
0.0
 11
198.607073
 21
-35.069743
 31
0.0
  0
LINE
  8
0
 10
43.719331
 20
-204.811552
 30
0.0
 11
43.719331
 21
-217.611552
 31
0.0
  0
LINE
  8
0
 10
83.719331
 20
-212.245583
 30
0.0
 11
83.719331
 21
-217.611552
 31
0.0
  0
LINE
  8
0
 10
48.419331
 20
-222.311552
 30
0.0
 11
79.019331
 21
-222.311552
 31
0.0
  0
LINE
  8
0
 10
53.719331
 20
-191.311552
 30
0.0
 11
73.719331
 21
-191.311552
 31
0.0
  0
LINE
  8
0
 10
53.719331
 20
-191.311552
 30
0.0
 11
53.719331
 21
-222.311552
 31
0.0
  0
LINE
  8
0
 10
55.119331
 20
-192.711552
 30
0.0
 11
55.119331
 21
-220.911552
 31
0.0
  0
ARC
  8
0
 10
58.928783
 20
-205.624109
 30
0.0
 40
15.231142
 50
110.00038
 51
176.941909
  0
LINE
  8
0
 10
43.719331
 20
-217.611552
 30
0.0
 11
48.419331
 21
-222.311552
 31
0.0
  0
LINE
  8
0
 10
83.719331
 20
-217.611552
 30
0.0
 11
79.019331
 21
-222.311552
 31
0.0
  0
LINE
  8
0
 10
83.719331
 20
-217.611552
 30
0.0
 11
63.719331
 21
-217.611552
 31
0.0
  0
ARC
  8
0
 10
68.509878
 20
-205.624109
 30
0.0
 40
15.231142
 50
54.267062
 51
69.99962
  0
LINE
  8
0
 10
77.404987
 20
-193.260261
 30
0.0
 11
79.275457
 21
-192.579466
 31
0.0
  0
LINE
  8
0
 10
83.719331
 20
-212.245583
 30
0.0
 11
86.115859
 21
-211.373318
 31
0.0
  0
ARC
  8
0
 10
204.673224
 20
-157.580189
 30
0.0
 40
10.0
 50
290.0
 51
110.0
  0
LINE
  8
0
 10
92.248679
 20
-187.857599
 30
0.0
 11
99.089081
 21
-206.651451
 31
0.0
  0
LINE
  8
0
 10
92.248679
 20
-187.857599
 30
0.0
 11
81.382791
 21
-193.089472
 31
0.0
  0
LINE
  8
0
 10
81.382791
 20
-193.089472
 30
0.0
 11
79.275457
 21
-192.579466
 31
0.0
  0
LINE
  8
0
 10
87.402346
 20
-209.628062
 30
0.0
 11
86.115859
 21
-211.373318
 31
0.0
  0
LINE
  8
0
 10
99.089081
 20
-206.651451
 30
0.0
 11
87.402346
 21
-209.628062
 31
0.0
  0
LINE
  8
0
 10
79.275457
 20
-192.579466
 30
0.0
 11
86.115859
 21
-211.373318
 31
0.0
  0
LINE
  8
0
 10
77.404987
 20
-193.260261
 30
0.0
 11
84.24539
 21
-212.054113
 31
0.0
  0
LINE
  8
0
 10
92.248679
 20
-187.857599
 30
0.0
 11
201.253023
 21
-148.183262
 31
0.0
  0
LINE
  8
0
 10
99.089081
 20
-206.651451
 30
0.0
 11
208.093425
 21
-166.977115
 31
0.0
  0
ARC
  8
0
 10
63.719331
 20
-255.784888
 30
0.0
 40
20.0
 50
30.0
 51
330.0
  0
ARC
  8
0
 10
204.673224
 20
-255.784888
 30
0.0
 40
10.0
 50
269.999977
 51
90.000023
  0
CIRCLE
  8
0
 10
63.719331
 20
-255.784888
 30
0.0
 40
8.6
  0
LINE
  8
0
 10
81.039839
 20
-245.784888
 30
0.0
 11
82.910309
 21
-245.784888
 31
0.0
  0
LINE
  8
0
 10
81.039839
 20
-265.784888
 30
0.0
 11
82.910309
 21
-265.784888
 31
0.0
  0
CIRCLE
  8
0
 10
63.719331
 20
-255.784888
 30
0.0
 40
10.0
  0
ARC
  8
0
 10
108.577801
 20
-255.784888
 30
0.0
 40
16.329123
 50
142.236558
 51
217.763442
  0
LINE
  8
0
 10
95.66888
 20
-245.784888
 30
0.0
 11
84.392569
 21
-246.984888
 31
0.0
  0
LINE
  8
0
 10
95.66888
 20
-265.784888
 30
0.0
 11
84.392569
 21
-264.584888
 31
0.0
  0
ARC
  8
0
 10
95.81923
 20
-255.784888
 30
0.0
 40
16.329123
 50
142.236558
 51
217.763442
  0
ARC
  8
0
 10
93.94876
 20
-255.784888
 30
0.0
 40
16.329123
 50
142.236558
 51
217.763442
  0
LINE
  8
0
 10
82.910309
 20
-245.784888
 30
0.0
 11
84.392569
 21
-246.984888
 31
0.0
  0
LINE
  8
0
 10
84.392569
 20
-264.584888
 30
0.0
 11
82.910309
 21
-265.784888
 31
0.0
  0
LINE
  8
0
 10
95.66888
 20
-245.784888
 30
0.0
 11
204.67322
 21
-245.784888
 31
0.0
  0
LINE
  8
0
 10
95.66888
 20
-265.784888
 30
0.0
 11
204.67322
 21
-265.784888
 31
0.0
  0
LINE
  8
0
 10
53.719331
 20
-222.311552
 30
0.0
 11
55.119331
 21
-220.911552
 31
0.0
  0
LINE
  8
0
 10
55.119331
 20
-220.911552
 30
0.0
 11
63.719331
 21
-220.911552
 31
0.0
  0
LINE
  8
0
 10
53.719331
 20
-191.311552
 30
0.0
 11
55.119331
 21
-192.711552
 31
0.0
  0
LINE
  8
0
 10
55.119331
 20
-192.711552
 30
0.0
 11
63.719331
 21
-192.711552
 31
0.0
  0
LINE
  8
0
  6
CENTER
 10
63.719331
 20
-187.399482
 30
0.0
 11
63.719331
 21
-228.440877
 31
0.0
  0
LINE
  8
0
 10
222.350803
 20
-217.611552
 30
0.0
 11
227.050803
 21
-222.311552
 31
0.0
  0
ARC
  8
0
 10
237.560256
 20
-205.624109
 30
0.0
 40
15.231142
 50
110.00038
 51
176.941909
  0
LINE
  8
0
 10
232.350803
 20
-191.311552
 30
0.0
 11
252.350803
 21
-191.311552
 31
0.0
  0
LINE
  8
0
 10
227.050803
 20
-222.311552
 30
0.0
 11
257.650803
 21
-222.311552
 31
0.0
  0
LINE
  8
0
 10
222.350803
 20
-204.811552
 30
0.0
 11
222.350803
 21
-217.611552
 31
0.0
  0
ARC
  8
0
 10
242.350803
 20
-157.580189
 30
0.0
 40
10.0
 50
0.0
 51
180.0
  0
LINE
  8
0
 10
232.350803
 20
-157.580189
 30
0.0
 11
232.350803
 21
-191.311552
 31
0.0
  0
LINE
  8
0
 10
252.350803
 20
-157.580189
 30
0.0
 11
252.350803
 21
-191.311552
 31
0.0
  0
ARC
  8
0
 10
247.141351
 20
-205.624109
 30
0.0
 40
15.231142
 50
3.058091
 51
69.99962
  0
LINE
  8
0
 10
262.350803
 20
-204.811552
 30
0.0
 11
262.350803
 21
-217.611552
 31
0.0
  0
LINE
  8
0
 10
262.350803
 20
-217.611552
 30
0.0
 11
257.650803
 21
-222.311552
 31
0.0
  0
LINE
  8
0
 10
262.350803
 20
-217.611552
 30
0.0
 11
222.350803
 21
-217.611552
 31
0.0
  0
INSERT
  8
0
  2
*X1
 10
0.0
 20
0.0
 30
0.0
1001
ACAD
1000
HATCH
1002
{
1070
    16
1000
ANSI31
1040
10.0
1040
0.0
1002
}
  0
INSERT
  8
0
  2
*X2
 10
0.0
 20
0.0
 30
0.0
1001
ACAD
1000
HATCH
1002
{
1070
    16
1000
ANSI31
1040
10.0
1040
0.0
1002
}
  0
INSERT
  8
0
  2
*X3
 10
0.0
 20
0.0
 30
0.0
1001
ACAD
1000
HATCH
1002
{
1070
    16
1000
ANSI31
1040
15.0
1040
0.0
1002
}
  0
INSERT
  8
0
  2
*X4
 10
0.0
 20
0.0
 30
0.0
1001
ACAD
1000
HATCH
1002
{
1070
    16
1000
ANSI31
1040
15.0
1040
0.0
1002
}
  0
INSERT
  8
0
  2
*X5
 10
0.0
 20
0.0
 30
0.0
1001
ACAD
1000
HATCH
1002
{
1070
    16
1000
ANSI31
1040
20.0
1040
0.0
1002
}
  0
ENDSEC
  0
EOF
