  0
SECTION
  2
HEADER
  9
$ACADVER
  1
AC1009
  9
$INSBASE
 10
0.0
 20
0.0
 30
0.0
  9
$EXTMIN
 10
-97.109422
 20
-190.097978
 30
0.0
  9
$EXTMAX
 10
325.281848
 20
60.64543
 30
0.0
  9
$LIMMIN
 10
0.0
 20
0.0
  9
$LIMMAX
 10
12.0
 20
9.0
  9
$ORTHOMODE
 70
     1
  9
$REGENMODE
 70
     1
  9
$FILLMODE
 70
     1
  9
$QTEXTMODE
 70
     0
  9
$MIRRTEXT
 70
     1
  9
$DRAGMODE
 70
     2
  9
$LTSCALE
 40
5.0
  9
$OSMODE
 70
     0
  9
$ATTMODE
 70
     1
  9
$TEXTSIZE
 40
0.2
  9
$TRACEWID
 40
0.05
  9
$TEXTSTYLE
  7
STANDARD
  9
$CLAYER
  8
0
  9
$CELTYPE
  6
BYLAYER
  9
$CECOLOR
 62
   256
  9
$DIMSCALE
 40
1.0
  9
$DIMASZ
 40
2.5
  9
$DIMEXO
 40
0.0
  9
$DIMDLI
 40
5.0
  9
$DIMRND
 40
0.0
  9
$DIMDLE
 40
0.0
  9
$DIMEXE
 40
1.0
  9
$DIMTP
 40
0.0
  9
$DIMTM
 40
0.0
  9
$DIMTXT
 40
2.5
  9
$DIMCEN
 40
0.09
  9
$DIMTSZ
 40
0.0
  9
$DIMTOL
 70
     0
  9
$DIMLIM
 70
     0
  9
$DIMTIH
 70
     0
  9
$DIMTOH
 70
     0
  9
$DIMSE1
 70
     0
  9
$DIMSE2
 70
     0
  9
$DIMTAD
 70
     1
  9
$DIMZIN
 70
     0
  9
$DIMBLK
  1

  9
$DIMASO
 70
     0
  9
$DIMSHO
 70
     0
  9
$DIMPOST
  1

  9
$DIMAPOST
  1

  9
$DIMALT
 70
     0
  9
$DIMALTD
 70
     2
  9
$DIMALTF
 40
25.4
  9
$DIMLFAC
 40
1.0
  9
$DIMTOFL
 70
     1
  9
$DIMTVP
 40
0.0
  9
$DIMTIX
 70
     0
  9
$DIMSOXD
 70
     0
  9
$DIMSAH
 70
     0
  9
$DIMBLK1
  1

  9
$DIMBLK2
  1

  9
$DIMSTYLE
  2
*UNNAMED
  9
$DIMCLRD
 70
     0
  9
$DIMCLRE
 70
     0
  9
$DIMCLRT
 70
     0
  9
$DIMTFAC
 40
1.0
  9
$DIMGAP
 40
0.09
  9
$LUNITS
 70
     2
  9
$LUPREC
 70
     4
  9
$SKETCHINC
 40
0.1
  9
$FILLETRAD
 40
4.0
  9
$AUNITS
 70
     0
  9
$AUPREC
 70
     0
  9
$MENU
  1
wiberger
  9
$ELEVATION
 40
0.0
  9
$PELEVATION
 40
0.0
  9
$THICKNESS
 40
0.0
  9
$LIMCHECK
 70
     0
  9
$BLIPMODE
 70
     1
  9
$CHAMFERA
 40
2.0
  9
$CHAMFERB
 40
2.0
  9
$SKPOLY
 70
     0
  9
$TDCREATE
 40
2450191.427211574
  9
$TDUPDATE
 40
2450210.621776272
  9
$TDINDWG
 40
0.0003032407
  9
$TDUSRTIMER
 40
0.0003032407
  9
$USRTIMER
 70
     1
  9
$ANGBASE
 50
0.0
  9
$ANGDIR
 70
     0
  9
$PDMODE
 70
     0
  9
$PDSIZE
 40
0.0
  9
$PLINEWID
 40
0.0
  9
$COORDS
 70
     2
  9
$SPLFRAME
 70
     0
  9
$SPLINETYPE
 70
     6
  9
$SPLINESEGS
 70
     8
  9
$ATTDIA
 70
     0
  9
$ATTREQ
 70
     1
  9
$HANDLING
 70
     0
  9
$HANDSEED
  5
0
  9
$SURFTAB1
 70
     6
  9
$SURFTAB2
 70
     6
  9
$SURFTYPE
 70
     6
  9
$SURFU
 70
     6
  9
$SURFV
 70
     6
  9
$UCSNAME
  2

  9
$UCSORG
 10
0.0
 20
0.0
 30
0.0
  9
$UCSXDIR
 10
1.0
 20
0.0
 30
0.0
  9
$UCSYDIR
 10
0.0
 20
1.0
 30
0.0
  9
$PUCSNAME
  2

  9
$PUCSORG
 10
0.0
 20
0.0
 30
0.0
  9
$PUCSXDIR
 10
1.0
 20
0.0
 30
0.0
  9
$PUCSYDIR
 10
0.0
 20
1.0
 30
0.0
  9
$USERI1
 70
     0
  9
$USERI2
 70
     0
  9
$USERI3
 70
     0
  9
$USERI4
 70
     0
  9
$USERI5
 70
     0
  9
$USERR1
 40
0.0
  9
$USERR2
 40
0.0
  9
$USERR3
 40
0.0
  9
$USERR4
 40
0.0
  9
$USERR5
 40
0.0
  9
$WORLDVIEW
 70
     1
  9
$SHADEDGE
 70
     3
  9
$SHADEDIF
 70
    70
  9
$TILEMODE
 70
     1
  9
$MAXACTVP
 70
    16
  9
$PINSBASE
 10
0.0
 20
0.0
 30
0.0
  9
$PLIMCHECK
 70
     0
  9
$PEXTMIN
 10
1.000000E+20
 20
1.000000E+20
 30
1.000000E+20
  9
$PEXTMAX
 10
-1.000000E+20
 20
-1.000000E+20
 30
-1.000000E+20
  9
$PLIMMIN
 10
0.0
 20
0.0
  9
$PLIMMAX
 10
12.0
 20
9.0
  9
$UNITMODE
 70
     0
  9
$VISRETAIN
 70
     0
  9
$PLINEGEN
 70
     0
  9
$PSLTSCALE
 70
     0
  9
$TREEDEPTH
 70
  3020
  9
$DWGCODEPAGE
  3
undefined
  0
ENDSEC
  0
SECTION
  2
TABLES
  0
TABLE
  2
VPORT
 70
     2
  0
VPORT
  2
*ACTIVE
 70
     0
 10
0.0
 20
0.0
 11
1.0
 21
1.0
 12
178.374702
 22
-37.874946
 13
0.0
 23
0.0
 14
1.0
 24
1.0
 15
0.0
 25
0.0
 16
0.0
 26
0.0
 36
1.0
 17
0.0
 27
0.0
 37
0.0
 40
338.273404
 41
1.767507
 42
50.0
 43
0.0
 44
0.0
 50
0.0
 51
0.0
 71
     0
 72
   100
 73
     1
 74
     0
 75
     0
 76
     0
 77
     0
 78
     0
  0
ENDTAB
  0
TABLE
  2
LTYPE
 70
     2
  0
LTYPE
  2
CONTINUOUS
 70
    64
  3
Solid line
 72
    65
 73
     0
 40
0.0
  0
LTYPE
  2
CENTER
 70
    64
  3
____ _ ____ _ ____ _ ____ _ ____ _ ____ _ ____
 72
    65
 73
     4
 40
2.0
 49
1.25
 49
-0.25
 49
0.25
 49
-0.25
  0
ENDTAB
  0
TABLE
  2
LAYER
 70
     1
  0
LAYER
  2
0
 70
    64
 62
     7
  6
CONTINUOUS
  0
ENDTAB
  0
TABLE
  2
STYLE
 70
     1
  0
STYLE
  2
STANDARD
 70
     0
 40
0.0
 41
1.0
 50
0.0
 71
     0
 42
0.2
  3
txt
  4

  0
ENDTAB
  0
TABLE
  2
VIEW
 70
     0
  0
ENDTAB
  0
TABLE
  2
UCS
 70
     0
  0
ENDTAB
  0
TABLE
  2
APPID
 70
     1
  0
APPID
  2
ACAD
 70
    64
  0
ENDTAB
  0
TABLE
  2
DIMSTYLE
 70
     0
  0
ENDTAB
  0
ENDSEC
  0
SECTION
  2
BLOCKS
  0
BLOCK
  8
0
  2
*X0
 70
    65
 10
0.0
 20
0.0
 30
0.0
  3
*X
  0
LINE
  8
0
 62
     0
 10
-97.109422
 20
-97.109422
 30
0.0
 11
-82.21118
 21
-82.21118
 31
0.0
  0
LINE
  8
0
 62
     0
 10
-97.109422
 20
-94.280995
 30
0.0
 11
-85.039607
 21
-82.21118
 31
0.0
  0
LINE
  8
0
 62
     0
 10
-97.109422
 20
-91.452568
 30
0.0
 11
-87.868034
 21
-82.21118
 31
0.0
  0
LINE
  8
0
 62
     0
 10
-97.109422
 20
-88.624141
 30
0.0
 11
-90.696461
 21
-82.21118
 31
0.0
  0
LINE
  8
0
 62
     0
 10
-97.109422
 20
-85.795713
 30
0.0
 11
-93.109422
 21
-81.795713
 31
0.0
  0
LINE
  8
0
 62
     0
 10
-97.109422
 20
-82.967286
 30
0.0
 11
-93.109422
 21
-78.967286
 31
0.0
  0
LINE
  8
0
 62
     0
 10
-97.109422
 20
-80.138859
 30
0.0
 11
-93.109422
 21
-76.138859
 31
0.0
  0
LINE
  8
0
 62
     0
 10
-97.109422
 20
-99.937849
 30
0.0
 11
-82.109422
 21
-84.937849
 31
0.0
  0
LINE
  8
0
 62
     0
 10
-95.454325
 20
-101.11118
 30
0.0
 11
-82.109422
 21
-87.766276
 31
0.0
  0
LINE
  8
0
 62
     0
 10
-92.625898
 20
-101.11118
 30
0.0
 11
-82.109422
 21
-90.594703
 31
0.0
  0
LINE
  8
0
 62
     0
 10
-89.797471
 20
-101.11118
 30
0.0
 11
-82.109422
 21
-93.42313
 31
0.0
  0
LINE
  8
0
 62
     0
 10
-86.969044
 20
-101.11118
 30
0.0
 11
-82.109422
 21
-96.251558
 31
0.0
  0
LINE
  8
0
 62
     0
 10
-84.140617
 20
-101.11118
 30
0.0
 11
-82.109422
 21
-99.079985
 31
0.0
  0
ENDBLK
  8
0
  0
BLOCK
  8
0
  2
*X1
 70
    65
 10
0.0
 20
0.0
 30
0.0
  3
*X
  0
LINE
  8
0
 62
     0
 10
-85.780889
 20
48.569399
 30
0.0
 11
-75.035048
 21
59.315241
 31
0.0
  0
LINE
  8
0
 62
     0
 10
-85.780889
 20
52.104933
 30
0.0
 11
-78.570582
 21
59.315241
 31
0.0
  0
LINE
  8
0
 62
     0
 10
-85.780889
 20
55.640467
 30
0.0
 11
-82.106116
 21
59.315241
 31
0.0
  0
LINE
  8
0
 62
     0
 10
-85.780889
 20
59.176001
 30
0.0
 11
-82.280889
 21
62.676001
 31
0.0
  0
LINE
  8
0
 62
     0
 10
-85.780889
 20
62.711535
 30
0.0
 11
-83.277183
 21
65.215241
 31
0.0
  0
LINE
  8
0
 62
     0
 10
-85.780889
 20
45.033865
 30
0.0
 11
-74.780889
 21
56.033865
 31
0.0
  0
LINE
  8
0
 62
     0
 10
-83.06398
 20
44.215241
 30
0.0
 11
-74.780889
 21
52.498331
 31
0.0
  0
LINE
  8
0
 62
     0
 10
-79.528446
 20
44.215241
 30
0.0
 11
-74.780889
 21
48.962798
 31
0.0
  0
LINE
  8
0
 62
     0
 10
-75.992912
 20
44.215241
 30
0.0
 11
-74.780889
 21
45.427264
 31
0.0
  0
ENDBLK
  8
0
  0
BLOCK
  8
0
  2
*X2
 70
    65
 10
0.0
 20
0.0
 30
0.0
  3
*X
  0
LINE
  8
0
 62
     0
 10
102.484515
 20
24.702769
 30
0.0
 11
117.749537
 21
39.967791
 31
0.0
  0
LINE
  8
0
 62
     0
 10
102.484515
 20
28.238303
 30
0.0
 11
114.214003
 21
39.967791
 31
0.0
  0
LINE
  8
0
 62
     0
 10
102.484515
 20
31.773837
 30
0.0
 11
110.678469
 21
39.967791
 31
0.0
  0
LINE
  8
0
 62
     0
 10
102.484515
 20
35.309371
 30
0.0
 11
107.484515
 21
40.309371
 31
0.0
  0
LINE
  8
0
 62
     0
 10
102.484515
 20
38.844905
 30
0.0
 11
107.484515
 21
43.844905
 31
0.0
  0
LINE
  8
0
 62
     0
 10
102.484515
 20
42.380439
 30
0.0
 11
106.571868
 21
46.467791
 31
0.0
  0
LINE
  8
0
 62
     0
 10
102.484515
 20
21.167235
 30
0.0
 11
120.484515
 21
39.167235
 31
0.0
  0
LINE
  8
0
 62
     0
 10
103.320605
 20
18.467791
 30
0.0
 11
120.484515
 21
35.631701
 31
0.0
  0
LINE
  8
0
 62
     0
 10
106.856139
 20
18.467791
 30
0.0
 11
120.484515
 21
32.096167
 31
0.0
  0
LINE
  8
0
 62
     0
 10
110.391673
 20
18.467791
 30
0.0
 11
120.484515
 21
28.560634
 31
0.0
  0
LINE
  8
0
 62
     0
 10
113.927207
 20
18.467791
 30
0.0
 11
120.484515
 21
25.0251
 31
0.0
  0
LINE
  8
0
 62
     0
 10
117.462741
 20
18.467791
 30
0.0
 11
120.484515
 21
21.489566
 31
0.0
  0
ENDBLK
  8
0
  0
ENDSEC
  0
SECTION
  2
ENTITIES
  0
LINE
  8
0
  6
CENTER
 10
-70.685259
 20
12.781702
 30
0.0
 11
-70.685259
 21
41.205202
 31
0.0
  0
LINE
  8
0
 10
-86.685259
 20
17.421327
 30
0.0
 11
-86.685259
 21
36.521327
 31
0.0
  0
LINE
  8
0
 10
-54.685259
 20
17.421327
 30
0.0
 11
-54.685259
 21
24.464616
 31
0.0
  0
LINE
  8
0
 10
-85.985259
 20
16.721327
 30
0.0
 11
-55.385259
 21
16.721327
 31
0.0
  0
LINE
  8
0
 10
-85.485259
 20
37.721327
 30
0.0
 11
-55.885259
 21
37.721327
 31
0.0
  0
LINE
  8
0
 10
-86.685259
 20
17.421327
 30
0.0
 11
-85.985259
 21
16.721327
 31
0.0
  0
LINE
  8
0
 10
-55.385259
 20
16.721327
 30
0.0
 11
-54.685259
 21
17.421327
 31
0.0
  0
LINE
  8
0
 10
-86.685259
 20
36.521327
 30
0.0
 11
-85.485259
 21
37.721327
 31
0.0
  0
LINE
  8
0
 10
-55.885259
 20
37.721327
 30
0.0
 11
-54.685259
 21
36.521327
 31
0.0
  0
LINE
  8
0
 10
-28.102985
 20
45.414749
 30
0.0
 11
-23.591731
 21
33.02018
 31
0.0
  0
LINE
  8
0
 10
-14.83015
 20
52.805001
 30
0.0
 11
4.403215
 21
59.805373
 31
0.0
  0
LINE
  8
0
 10
-8.673787
 20
35.890533
 30
0.0
 11
10.559578
 21
42.890906
 31
0.0
  0
LINE
  8
0
 10
-14.83015
 20
52.805001
 30
0.0
 11
-8.673787
 21
35.890533
 31
0.0
  0
LINE
  8
0
 10
-27.597118
 20
46.657766
 30
0.0
 11
-14.83015
 21
52.805001
 31
0.0
  0
LINE
  8
0
 10
-22.405218
 20
32.393139
 30
0.0
 11
-8.673787
 21
35.890533
 31
0.0
  0
ARC
  8
0
 10
-14.336123
 20
43.407212
 30
0.0
 40
27.75
 50
7.846803
 51
32.153197
  0
ARC
  8
0
 10
-27.163292
 20
45.756769
 30
0.0
 40
1.0
 50
115.710593
 51
200.0
  0
ARC
  8
0
 10
-22.652038
 20
33.3622
 30
0.0
 40
1.0
 50
200.0
 51
284.289407
  0
LINE
  8
0
 10
-54.685259
 20
32.978038
 30
0.0
 11
-27.215438
 21
42.976235
 31
0.0
  0
LINE
  8
0
 10
-54.685259
 20
24.464616
 30
0.0
 11
-24.479277
 21
35.458694
 31
0.0
  0
LINE
  8
0
 10
-54.685259
 20
36.521327
 30
0.0
 11
-70.685259
 21
36.521327
 31
0.0
  0
LINE
  8
0
 10
-54.685259
 20
17.421327
 30
0.0
 11
-70.685259
 21
17.421327
 31
0.0
  0
LINE
  8
0
 10
-75.685259
 20
16.721327
 30
0.0
 11
-75.685259
 21
31.821327
 31
0.0
  0
LINE
  8
0
 10
-83.185259
 20
31.821327
 30
0.0
 11
-70.685259
 21
31.821327
 31
0.0
  0
LINE
  8
0
 10
-83.185259
 20
31.821327
 30
0.0
 11
-83.185259
 21
37.721327
 31
0.0
  0
LINE
  8
0
 10
-82.185259
 20
36.021327
 30
0.0
 11
-70.685259
 21
36.021327
 31
0.0
  0
LINE
  8
0
 10
-82.185259
 20
31.821327
 30
0.0
 11
-82.185259
 21
36.021327
 31
0.0
  0
LINE
  8
0
 10
-83.185259
 20
37.021327
 30
0.0
 11
-70.685259
 21
37.021327
 31
0.0
  0
CIRCLE
  8
0
 10
-70.685259
 20
-17.696288
 30
0.0
 40
14.8
  0
CIRCLE
  8
0
 10
-70.685259
 20
-17.696288
 30
0.0
 40
16.0
  0
CIRCLE
  8
0
 10
-70.685259
 20
-17.696288
 30
0.0
 40
12.5
  0
LINE
  8
0
 10
-55.193326
 20
-13.696288
 30
0.0
 11
-27.740862
 21
-13.696288
 31
0.0
  0
LINE
  8
0
 10
-55.193326
 20
-21.696288
 30
0.0
 11
-27.740862
 21
-21.696288
 31
0.0
  0
ARC
  8
0
 10
-37.141042
 20
28.721327
 30
0.0
 40
18.053231
 50
166.362001
 51
193.637999
  0
LINE
  8
0
 10
-54.685259
 20
32.978038
 30
0.0
 11
-54.685259
 21
36.521327
 31
0.0
  0
ARC
  8
0
 10
-16.165667
 20
-17.696288
 30
0.0
 40
12.246842
 50
144.36987
 51
215.63013
  0
LINE
  8
0
 10
-11.751969
 20
-8.696288
 30
0.0
 11
8.074159
 21
-8.696288
 31
0.0
  0
LINE
  8
0
 10
-11.751969
 20
-26.696288
 30
0.0
 11
8.074159
 21
-26.696288
 31
0.0
  0
ARC
  8
0
 10
-0.133939
 20
-17.696288
 30
0.0
 40
14.69621
 50
142.236558
 51
217.763442
  0
LINE
  8
0
 10
-25.412859
 20
-10.15005
 30
0.0
 11
-11.751969
 21
-8.696288
 31
0.0
  0
LINE
  8
0
 10
-25.412859
 20
-25.242526
 30
0.0
 11
-11.751969
 21
-26.696288
 31
0.0
  0
ARC
  8
0
 10
5.771296
 20
56.046602
 30
0.0
 40
4.0
 50
32.153197
 51
110.0
  0
ARC
  8
0
 10
9.191497
 20
46.649676
 30
0.0
 40
4.0
 50
290.0
 51
7.846803
  0
LINE
  8
0
 10
4.403215
 20
59.805373
 30
0.0
 11
10.559578
 21
42.890906
 31
0.0
  0
ARC
  8
0
 10
-1.38147
 20
-17.696288
 30
0.0
 40
14.69621
 50
332.130761
 51
27.869239
  0
ARC
  8
0
 10
8.074159
 20
-12.696288
 30
0.0
 40
4.0
 50
27.869239
 51
90.0
  0
ARC
  8
0
 10
8.074159
 20
-22.696288
 30
0.0
 40
4.0
 50
270.0
 51
332.130761
  0
ARC
  8
0
 10
9.643797
 20
-12.696288
 30
0.0
 40
4.0
 50
101.315105
 51
152.130761
  0
ARC
  8
0
 10
19.099426
 20
-17.696288
 30
0.0
 40
14.69621
 50
152.130761
 51
207.869239
  0
ARC
  8
0
 10
9.643797
 20
-22.696288
 30
0.0
 40
4.0
 50
207.869239
 51
258.684895
  0
ARC
  8
0
 10
-25.307039
 20
-11.144435
 30
0.0
 40
1.0
 50
96.074428
 51
144.36987
  0
ARC
  8
0
 10
-25.307039
 20
-24.248141
 30
0.0
 40
1.0
 50
215.63013
 51
263.925572
  0
LINE
  8
0
 10
62.326741
 20
17.421327
 30
0.0
 11
30.326741
 21
17.421327
 31
0.0
  0
LINE
  8
0
 10
62.326741
 20
36.521327
 30
0.0
 11
30.326741
 21
36.521327
 31
0.0
  0
LINE
  8
0
 10
61.126741
 20
37.721327
 30
0.0
 11
62.326741
 21
36.521327
 31
0.0
  0
LINE
  8
0
 10
30.326741
 20
36.521327
 30
0.0
 11
31.526741
 21
37.721327
 31
0.0
  0
LINE
  8
0
 10
61.626741
 20
16.721327
 30
0.0
 11
62.326741
 21
17.421327
 31
0.0
  0
LINE
  8
0
 10
30.326741
 20
17.421327
 30
0.0
 11
31.026741
 21
16.721327
 31
0.0
  0
LINE
  8
0
 10
31.526741
 20
37.721327
 30
0.0
 11
61.126741
 21
37.721327
 31
0.0
  0
LINE
  8
0
 10
31.026741
 20
16.721327
 30
0.0
 11
61.626741
 21
16.721327
 31
0.0
  0
LINE
  8
0
 10
62.326741
 20
17.421327
 30
0.0
 11
62.326741
 21
36.521327
 31
0.0
  0
LINE
  8
0
 10
30.326741
 20
17.421327
 30
0.0
 11
30.326741
 21
36.521327
 31
0.0
  0
LINE
  8
0
 10
42.326741
 20
37.721327
 30
0.0
 11
42.326741
 21
39.217465
 31
0.0
  0
LINE
  8
0
 10
50.326741
 20
37.721327
 30
0.0
 11
50.326741
 21
39.217465
 31
0.0
  0
ARC
  8
0
 10
46.326741
 20
38.968495
 30
0.0
 40
4.007741
 50
3.561642
 51
176.438358
  0
ARC
  8
0
 10
46.326741
 20
38.750646
 30
0.0
 40
7.514514
 50
352.127023
 51
187.872977
  0
LINE
  8
0
 10
37.326741
 20
44.347767
 30
0.0
 11
37.326741
 21
51.589369
 31
0.0
  0
LINE
  8
0
 10
55.326741
 20
44.347767
 30
0.0
 11
55.326741
 21
51.589369
 31
0.0
  0
ARC
  8
0
 10
46.326741
 20
43.787584
 30
0.0
 40
9.017417
 50
3.561642
 51
176.438358
  0
ARC
  8
0
 10
46.326741
 20
51.029186
 30
0.0
 40
9.017417
 50
3.561642
 51
176.438358
  0
LINE
  8
0
 10
38.830996
 20
37.721327
 30
0.0
 11
37.326741
 21
44.347767
 31
0.0
  0
LINE
  8
0
 10
53.770424
 20
37.721327
 30
0.0
 11
55.326741
 21
44.347767
 31
0.0
  0
LINE
  8
0
  6
CENTER
 10
-77.109422
 20
-134.954331
 30
0.0
 11
-77.109422
 21
-104.055718
 31
0.0
  0
LINE
  8
0
 10
-97.109422
 20
-130.983311
 30
0.0
 11
-97.109422
 21
-107.883311
 31
0.0
  0
LINE
  8
0
 10
-57.109422
 20
-130.983311
 30
0.0
 11
-57.109422
 21
-121.972111
 31
0.0
  0
LINE
  8
0
 10
-96.409422
 20
-131.683311
 30
0.0
 11
-57.809422
 21
-131.683311
 31
0.0
  0
LINE
  8
0
 10
-95.909422
 20
-106.683311
 30
0.0
 11
-58.309422
 21
-106.683311
 31
0.0
  0
LINE
  8
0
 10
-97.109422
 20
-107.883311
 30
0.0
 11
-95.909422
 21
-106.683311
 31
0.0
  0
LINE
  8
0
 10
-58.309422
 20
-106.683311
 30
0.0
 11
-57.109422
 21
-107.883311
 31
0.0
  0
LINE
  8
0
 10
-97.109422
 20
-130.983311
 30
0.0
 11
-96.409422
 21
-131.683311
 31
0.0
  0
LINE
  8
0
 10
-57.809422
 20
-131.683311
 30
0.0
 11
-57.109422
 21
-130.983311
 31
0.0
  0
LINE
  8
0
 10
-57.109422
 20
-112.394511
 30
0.0
 11
-21.255907
 21
-99.344899
 31
0.0
  0
LINE
  8
0
 10
-57.109422
 20
-121.972111
 30
0.0
 11
-18.177725
 21
-107.802132
 31
0.0
  0
LINE
  8
0
 10
-22.153012
 20
-96.880123
 30
0.0
 11
-17.28062
 21
-110.266908
 31
0.0
  0
LINE
  8
0
 10
-5.453868
 20
-87.20836
 30
0.0
 11
19.094982
 21
-78.27331
 31
0.0
  0
LINE
  8
0
 10
1.728555
 20
-106.941905
 30
0.0
 11
26.277405
 21
-98.006855
 31
0.0
  0
LINE
  8
0
 10
-5.453868
 20
-87.20836
 30
0.0
 11
1.728555
 21
-106.941905
 31
0.0
  0
LINE
  8
0
 10
-21.675004
 20
-95.651059
 30
0.0
 11
-5.453868
 21
-87.20836
 31
0.0
  0
LINE
  8
0
 10
-16.124418
 20
-110.901168
 30
0.0
 11
1.728555
 21
-106.941905
 31
0.0
  0
ARC
  8
0
 10
0.427844
 20
-96.241459
 30
0.0
 40
28.5625
 50
4.65497
 51
35.34503
  0
ARC
  8
0
 10
20.463063
 20
-82.03208
 30
0.0
 40
4.0
 50
35.34503
 51
110.0
  0
ARC
  8
0
 10
24.909324
 20
-94.248084
 30
0.0
 40
4.0
 50
290.0
 51
4.65497
  0
LINE
  8
0
 10
19.094982
 20
-78.27331
 30
0.0
 11
26.277405
 21
-98.006855
 31
0.0
  0
LINE
  8
0
 10
-93.109422
 20
-112.783311
 30
0.0
 11
-93.109422
 21
-106.683311
 31
0.0
  0
LINE
  8
0
 10
-93.109422
 20
-112.783311
 30
0.0
 11
-77.109422
 21
-112.783311
 31
0.0
  0
LINE
  8
0
 10
-92.109422
 20
-112.783311
 30
0.0
 11
-92.109422
 21
-108.783311
 31
0.0
  0
LINE
  8
0
 10
-92.109422
 20
-108.783311
 30
0.0
 11
-77.109422
 21
-108.783311
 31
0.0
  0
LINE
  8
0
 10
-93.109422
 20
-107.783311
 30
0.0
 11
-77.109422
 21
-107.783311
 31
0.0
  0
LINE
  8
0
 10
-57.109422
 20
-107.883311
 30
0.0
 11
-77.109422
 21
-107.883311
 31
0.0
  0
LINE
  8
0
 10
-57.109422
 20
-130.983311
 30
0.0
 11
-77.109422
 21
-130.983311
 31
0.0
  0
LINE
  8
0
 10
-82.109422
 20
-131.683311
 30
0.0
 11
-82.109422
 21
-112.783311
 31
0.0
  0
CIRCLE
  8
0
 10
-77.109422
 20
-170.097978
 30
0.0
 40
18.8
  0
CIRCLE
  8
0
 10
-77.109422
 20
-170.097978
 30
0.0
 40
20.0
  0
CIRCLE
  8
0
 10
-77.109422
 20
-170.097978
 30
0.0
 40
16.0
  0
LINE
  8
0
 10
-57.622247
 20
-165.597978
 30
0.0
 11
-21.653437
 21
-165.597978
 31
0.0
  0
LINE
  8
0
 10
-57.622247
 20
-174.597978
 30
0.0
 11
-21.653437
 21
-174.597978
 31
0.0
  0
ARC
  8
0
 10
-35.006728
 20
-117.183311
 30
0.0
 40
22.615519
 50
167.775167
 51
192.224833
  0
LINE
  8
0
 10
-57.109422
 20
-112.394511
 30
0.0
 11
-57.109422
 21
-107.883311
 31
0.0
  0
ARC
  8
0
 10
-9.389679
 20
-170.097978
 30
0.0
 40
13.063298
 50
144.136374
 51
215.863626
  0
LINE
  8
0
 10
-1.862656
 20
-159.597978
 30
0.0
 11
23.17112
 21
-159.597978
 31
0.0
  0
LINE
  8
0
 10
-1.862656
 20
-180.597978
 30
0.0
 11
23.17112
 21
-180.597978
 31
0.0
  0
ARC
  8
0
 10
11.691711
 20
-170.097978
 30
0.0
 40
17.145579
 50
142.236558
 51
217.763442
  0
ARC
  8
0
 10
11.744999
 20
-170.097978
 30
0.0
 40
17.145579
 50
330.365666
 51
29.634334
  0
ARC
  8
0
 10
23.17112
 20
-163.597978
 30
0.0
 40
4.0
 50
29.634334
 51
90.0
  0
ARC
  8
0
 10
23.17112
 20
-176.597978
 30
0.0
 40
4.0
 50
270.0
 51
330.365666
  0
ARC
  8
0
 10
24.81444
 20
-163.597978
 30
0.0
 40
4.0
 50
101.85379
 51
150.365666
  0
ARC
  8
0
 10
36.240561
 20
-170.097978
 30
0.0
 40
17.145579
 50
150.365666
 51
209.634334
  0
ARC
  8
0
 10
24.81444
 20
-176.597978
 30
0.0
 40
4.0
 50
209.634334
 51
258.14621
  0
LINE
  8
0
 10
-19.304612
 20
-162.04026
 30
0.0
 11
-1.862656
 21
-159.597978
 31
0.0
  0
LINE
  8
0
 10
-19.304612
 20
-178.155696
 30
0.0
 11
-1.862656
 21
-180.597978
 31
0.0
  0
ARC
  8
0
 10
-19.165942
 20
-163.030598
 30
0.0
 40
1.0
 50
97.970925
 51
144.136374
  0
ARC
  8
0
 10
-19.165942
 20
-177.165357
 30
0.0
 40
1.0
 50
215.863626
 51
262.029075
  0
LINE
  8
0
 10
88.294578
 20
-130.983311
 30
0.0
 11
48.294578
 21
-130.983311
 31
0.0
  0
LINE
  8
0
 10
88.294578
 20
-107.883311
 30
0.0
 11
48.294578
 21
-107.883311
 31
0.0
  0
LINE
  8
0
 10
87.594578
 20
-131.683311
 30
0.0
 11
88.294578
 21
-130.983311
 31
0.0
  0
LINE
  8
0
 10
48.294578
 20
-130.983311
 30
0.0
 11
48.994578
 21
-131.683311
 31
0.0
  0
LINE
  8
0
 10
87.094578
 20
-106.683311
 30
0.0
 11
88.294578
 21
-107.883311
 31
0.0
  0
LINE
  8
0
 10
48.294578
 20
-107.883311
 30
0.0
 11
49.494578
 21
-106.683311
 31
0.0
  0
LINE
  8
0
 10
49.494578
 20
-106.683311
 30
0.0
 11
87.094578
 21
-106.683311
 31
0.0
  0
LINE
  8
0
 10
48.994578
 20
-131.683311
 30
0.0
 11
87.594578
 21
-131.683311
 31
0.0
  0
LINE
  8
0
 10
88.294578
 20
-130.983311
 30
0.0
 11
88.294578
 21
-107.883311
 31
0.0
  0
LINE
  8
0
 10
48.294578
 20
-130.983311
 30
0.0
 11
48.294578
 21
-107.883311
 31
0.0
  0
LINE
  8
0
 10
57.794578
 20
-97.075133
 30
0.0
 11
57.794578
 21
-87.898853
 31
0.0
  0
LINE
  8
0
 10
78.794578
 20
-97.075133
 30
0.0
 11
78.794578
 21
-87.898853
 31
0.0
  0
LINE
  8
0
 10
63.794578
 20
-106.683311
 30
0.0
 11
63.794578
 21
-103.573516
 31
0.0
  0
LINE
  8
0
 10
72.794578
 20
-106.683311
 30
0.0
 11
72.794578
 21
-103.573516
 31
0.0
  0
ARC
  8
0
 10
68.294578
 20
-103.853607
 30
0.0
 40
4.508708
 50
3.561642
 51
176.438358
  0
ARC
  8
0
 10
68.294578
 20
-104.071456
 30
0.0
 40
8.015482
 50
340.982843
 51
199.017157
  0
ARC
  8
0
 10
68.294578
 20
-97.72868
 30
0.0
 40
10.52032
 50
3.561642
 51
176.438358
  0
ARC
  8
0
 10
68.294578
 20
-88.5524
 30
0.0
 40
10.52032
 50
3.561642
 51
176.438358
  0
LINE
  8
0
 10
57.794578
 20
-97.075133
 30
0.0
 11
60.716573
 21
-106.683311
 31
0.0
  0
LINE
  8
0
 10
75.872583
 20
-106.683311
 30
0.0
 11
78.794578
 21
-97.075133
 31
0.0
  0
ARC
  8
0
 10
-21.213319
 20
-96.538103
 30
0.0
 40
1.0
 50
117.495858
 51
200.0
  0
ARC
  8
0
 10
-16.340928
 20
-109.924888
 30
0.0
 40
1.0
 50
200.0
 51
282.504142
  0
INSERT
  8
0
  2
*X0
 10
0.0
 20
-30.572132
 30
0.0
  0
LINE
  8
0
 10
102.484515
 20
-18.428354
 30
0.0
 11
102.484515
 21
6.771646
 31
0.0
  0
LINE
  8
0
 10
152.484515
 20
-18.428354
 30
0.0
 11
152.484515
 21
-8.581332
 31
0.0
  0
LINE
  8
0
 10
103.284515
 20
-19.228354
 30
0.0
 11
151.684515
 21
-19.228354
 31
0.0
  0
LINE
  8
0
 10
104.484515
 20
8.771646
 30
0.0
 11
150.484515
 21
8.771646
 31
0.0
  0
LINE
  8
0
 10
102.484515
 20
-18.428354
 30
0.0
 11
103.284515
 21
-19.228354
 31
0.0
  0
LINE
  8
0
 10
151.684515
 20
-19.228354
 30
0.0
 11
152.484515
 21
-18.428354
 31
0.0
  0
LINE
  8
0
 10
102.484515
 20
6.771646
 30
0.0
 11
104.484515
 21
8.771646
 31
0.0
  0
LINE
  8
0
 10
150.484515
 20
8.771646
 30
0.0
 11
152.484515
 21
6.771646
 31
0.0
  0
LINE
  8
0
 10
152.484515
 20
3.124623
 30
0.0
 11
192.744487
 21
17.778055
 31
0.0
  0
LINE
  8
0
 10
152.484515
 20
-8.581332
 30
0.0
 11
196.506708
 21
7.441436
 31
0.0
  0
LINE
  8
0
 10
191.376406
 20
21.536825
 30
0.0
 11
197.874789
 21
3.682665
 31
0.0
  0
LINE
  8
0
 10
216.064067
 20
32.650754
 30
0.0
 11
223.93053
 21
11.037824
 31
0.0
  0
LINE
  8
0
 10
216.064067
 20
32.650754
 30
0.0
 11
247.120363
 21
43.954322
 31
0.0
  0
LINE
  8
0
 10
223.93053
 20
11.037824
 30
0.0
 11
254.986827
 21
22.341392
 31
0.0
  0
LINE
  8
0
 10
191.376406
 20
21.536825
 30
0.0
 11
216.064067
 21
32.650754
 31
0.0
  0
LINE
  8
0
 10
197.874789
 20
3.682665
 30
0.0
 11
223.93053
 21
11.037824
 31
0.0
  0
ARC
  8
0
 10
223.697338
 20
23.190994
 30
0.0
 40
34.0625
 50
5.553242
 51
34.446758
  0
ARC
  8
0
 10
248.488444
 20
40.195551
 30
0.0
 40
4.0
 50
34.446758
 51
110.0
  0
ARC
  8
0
 10
253.618746
 20
26.100162
 30
0.0
 40
4.0
 50
290.0
 51
5.553242
  0
LINE
  8
0
 10
247.120363
 20
43.954322
 30
0.0
 11
254.986827
 21
22.341392
 31
0.0
  0
LINE
  8
0
 10
107.484515
 20
2.271646
 30
0.0
 11
107.484515
 21
8.771646
 31
0.0
  0
LINE
  8
0
 10
107.484515
 20
2.271646
 30
0.0
 11
127.484515
 21
2.271646
 31
0.0
  0
LINE
  8
0
 10
108.484515
 20
2.271646
 30
0.0
 11
108.484515
 21
6.571646
 31
0.0
  0
LINE
  8
0
 10
108.484515
 20
6.571646
 30
0.0
 11
127.484515
 21
6.571646
 31
0.0
  0
LINE
  8
0
 10
107.484515
 20
7.571646
 30
0.0
 11
127.484515
 21
7.571646
 31
0.0
  0
CIRCLE
  8
0
 10
127.484515
 20
-67.804354
 30
0.0
 40
20.0
  0
CIRCLE
  8
0
 10
127.484515
 20
-67.804354
 30
0.0
 40
23.0
  0
CIRCLE
  8
0
 10
127.484515
 20
-67.804354
 30
0.0
 40
25.0
  0
LINE
  8
0
 10
151.872012
 20
-62.304354
 30
0.0
 11
192.384149
 21
-62.304354
 31
0.0
  0
LINE
  8
0
 10
151.872012
 20
-73.304354
 30
0.0
 11
192.384149
 21
-73.304354
 31
0.0
  0
ARC
  8
0
 10
206.889073
 20
-67.804354
 30
0.0
 40
15.512667
 50
142.236558
 51
217.763442
  0
LINE
  8
0
 10
219.997298
 20
-56.304354
 30
0.0
 11
251.439988
 21
-56.304354
 31
0.0
  0
LINE
  8
0
 10
219.997298
 20
-79.304354
 30
0.0
 11
251.439985
 21
-79.304354
 31
0.0
  0
ARC
  8
0
 10
234.842558
 20
-67.804354
 30
0.0
 40
18.778491
 50
142.236558
 51
217.763442
  0
LINE
  8
0
 10
194.625598
 20
-58.304354
 30
0.0
 11
219.997298
 21
-56.304354
 31
0.0
  0
LINE
  8
0
 10
194.625598
 20
-77.304354
 30
0.0
 11
219.997298
 21
-79.304354
 31
0.0
  0
ARC
  8
0
 10
238.706024
 20
-67.804351
 30
0.0
 40
18.778491
 50
329.502917
 51
30.497056
  0
ARC
  8
0
 10
251.439988
 20
-60.304354
 30
0.0
 40
4.0
 50
30.497056
 51
90.0
  0
ARC
  8
0
 10
251.439985
 20
-75.304354
 30
0.0
 40
4.0
 50
270.0
 51
329.502917
  0
ARC
  8
0
 10
253.164887
 20
-60.304354
 30
0.0
 40
4.0
 50
102.451452
 51
149.502944
  0
ARC
  8
0
 10
265.898851
 20
-67.804351
 30
0.0
 40
18.778491
 50
149.502944
 51
210.497083
  0
ARC
  8
0
 10
253.16489
 20
-75.304354
 30
0.0
 40
4.0
 50
210.497083
 51
257.548496
  0
ARC
  8
0
 10
180.1433
 20
-2.728354
 30
0.0
 40
28.271288
 50
168.051697
 51
191.948303
  0
LINE
  8
0
 10
152.484515
 20
3.124623
 30
0.0
 11
152.484515
 21
6.771646
 31
0.0
  0
LINE
  8
0
 10
120.484515
 20
-19.228354
 30
0.0
 11
120.484515
 21
2.271646
 31
0.0
  0
LINE
  8
0
 10
325.281848
 20
-18.428354
 30
0.0
 11
325.281848
 21
6.771646
 31
0.0
  0
LINE
  8
0
 10
323.281848
 20
8.771646
 30
0.0
 11
325.281848
 21
6.771646
 31
0.0
  0
LINE
  8
0
 10
275.281848
 20
6.771646
 30
0.0
 11
277.281848
 21
8.771646
 31
0.0
  0
LINE
  8
0
 10
324.481848
 20
-19.228354
 30
0.0
 11
325.281848
 21
-18.428354
 31
0.0
  0
LINE
  8
0
 10
275.281848
 20
-18.428354
 30
0.0
 11
276.081848
 21
-19.228354
 31
0.0
  0
LINE
  8
0
 10
277.281848
 20
8.771646
 30
0.0
 11
323.281848
 21
8.771646
 31
0.0
  0
LINE
  8
0
 10
276.081848
 20
-19.228354
 30
0.0
 11
324.481848
 21
-19.228354
 31
0.0
  0
LINE
  8
0
 10
275.281848
 20
-18.428354
 30
0.0
 11
275.281848
 21
6.771646
 31
0.0
  0
LINE
  8
0
 10
325.281848
 20
6.771646
 30
0.0
 11
275.281848
 21
6.771646
 31
0.0
  0
LINE
  8
0
 10
275.281848
 20
-18.428354
 30
0.0
 11
325.281848
 21
-18.428354
 31
0.0
  0
LINE
  8
0
 10
152.484515
 20
6.771646
 30
0.0
 11
127.484515
 21
6.771646
 31
0.0
  0
LINE
  8
0
 10
152.484515
 20
-18.428354
 30
0.0
 11
127.484515
 21
-18.428354
 31
0.0
  0
LINE
  8
0
 10
294.781848
 20
8.771646
 30
0.0
 11
294.781848
 21
12.609745
 31
0.0
  0
LINE
  8
0
 10
305.781848
 20
8.771646
 30
0.0
 11
305.781848
 21
12.609745
 31
0.0
  0
ARC
  8
0
 10
300.281848
 20
12.267411
 30
0.0
 40
5.510644
 50
3.561642
 51
176.438358
  0
ARC
  8
0
 10
300.281848
 20
12.018441
 30
0.0
 40
9.518384
 50
340.055618
 51
199.944382
  0
LINE
  8
0
 10
288.781848
 20
21.844289
 30
0.0
 11
288.781848
 21
33.389086
 31
0.0
  0
LINE
  8
0
 10
311.781848
 20
21.844289
 30
0.0
 11
311.781848
 21
33.389086
 31
0.0
  0
ARC
  8
0
 10
300.281848
 20
21.1285
 30
0.0
 40
11.522255
 50
3.561642
 51
176.438358
  0
ARC
  8
0
 10
300.281848
 20
32.673297
 30
0.0
 40
11.522255
 50
3.561642
 51
176.438358
  0
LINE
  8
0
 10
291.334337
 20
8.771646
 30
0.0
 11
288.781848
 21
21.844289
 31
0.0
  0
LINE
  8
0
 10
309.22936
 20
8.771646
 30
0.0
 11
311.781848
 21
21.844289
 31
0.0
  0
LINE
  8
0
  6
CENTER
 10
127.484515
 20
-23.130961
 30
0.0
 11
127.484515
 21
11.594764
 31
0.0
  0
INSERT
  8
0
  2
*X1
 10
-0.90437
 20
-27.493913
 30
0.0
  0
INSERT
  8
0
  2
*X2
 10
0.0
 20
-37.696146
 30
0.0
  0
ENDSEC
  0
EOF
