  0
SECTION
  2
HEADER
  9
$ACADVER
  1
AC1009
  9
$INSBASE
 10
0.0
 20
0.0
 30
0.0
  9
$EXTMIN
 10
-84.398279
 20
-93.924756
 30
0.0
  9
$EXTMAX
 10
78.881467
 20
118.272491
 30
0.0
  9
$LIMMIN
 10
0.0
 20
0.0
  9
$LIMMAX
 10
12.0
 20
9.0
  9
$ORTHOMODE
 70
     1
  9
$REGENMODE
 70
     1
  9
$FILLMODE
 70
     1
  9
$QTEXTMODE
 70
     0
  9
$MIRRTEXT
 70
     1
  9
$DRAGMODE
 70
     2
  9
$LTSCALE
 40
7.0
  9
$OSMODE
 70
     0
  9
$ATTMODE
 70
     1
  9
$TEXTSIZE
 40
0.2
  9
$TRACEWID
 40
0.05
  9
$TEXTSTYLE
  7
STANDARD
  9
$CLAYER
  8
0
  9
$CELTYPE
  6
BYLAYER
  9
$CECOLOR
 62
   256
  9
$DIMSCALE
 40
1.0
  9
$DIMASZ
 40
2.5
  9
$DIMEXO
 40
0.0
  9
$DIMDLI
 40
5.0
  9
$DIMRND
 40
0.0
  9
$DIMDLE
 40
0.0
  9
$DIMEXE
 40
1.0
  9
$DIMTP
 40
0.0
  9
$DIMTM
 40
0.0
  9
$DIMTXT
 40
2.5
  9
$DIMCEN
 40
0.09
  9
$DIMTSZ
 40
0.0
  9
$DIMTOL
 70
     0
  9
$DIMLIM
 70
     0
  9
$DIMTIH
 70
     0
  9
$DIMTOH
 70
     0
  9
$DIMSE1
 70
     0
  9
$DIMSE2
 70
     0
  9
$DIMTAD
 70
     1
  9
$DIMZIN
 70
     0
  9
$DIMBLK
  1

  9
$DIMASO
 70
     0
  9
$DIMSHO
 70
     0
  9
$DIMPOST
  1

  9
$DIMAPOST
  1

  9
$DIMALT
 70
     0
  9
$DIMALTD
 70
     2
  9
$DIMALTF
 40
25.4
  9
$DIMLFAC
 40
1.0
  9
$DIMTOFL
 70
     1
  9
$DIMTVP
 40
0.0
  9
$DIMTIX
 70
     0
  9
$DIMSOXD
 70
     0
  9
$DIMSAH
 70
     0
  9
$DIMBLK1
  1

  9
$DIMBLK2
  1

  9
$DIMSTYLE
  2
*UNNAMED
  9
$DIMCLRD
 70
     0
  9
$DIMCLRE
 70
     0
  9
$DIMCLRT
 70
     0
  9
$DIMTFAC
 40
1.0
  9
$DIMGAP
 40
0.09
  9
$LUNITS
 70
     2
  9
$LUPREC
 70
     4
  9
$SKETCHINC
 40
0.1
  9
$FILLETRAD
 40
0.0
  9
$AUNITS
 70
     0
  9
$AUPREC
 70
     0
  9
$MENU
  1
wiberger
  9
$ELEVATION
 40
0.0
  9
$PELEVATION
 40
0.0
  9
$THICKNESS
 40
0.0
  9
$LIMCHECK
 70
     0
  9
$BLIPMODE
 70
     1
  9
$CHAMFERA
 40
0.0
  9
$CHAMFERB
 40
0.0
  9
$SKPOLY
 70
     0
  9
$TDCREATE
 40
2450190.363532986
  9
$TDUPDATE
 40
2450218.495307754
  9
$TDINDWG
 40
0.0274881944
  9
$TDUSRTIMER
 40
0.0274881944
  9
$USRTIMER
 70
     1
  9
$ANGBASE
 50
0.0
  9
$ANGDIR
 70
     0
  9
$PDMODE
 70
     0
  9
$PDSIZE
 40
0.0
  9
$PLINEWID
 40
0.0
  9
$COORDS
 70
     0
  9
$SPLFRAME
 70
     0
  9
$SPLINETYPE
 70
     6
  9
$SPLINESEGS
 70
     8
  9
$ATTDIA
 70
     0
  9
$ATTREQ
 70
     1
  9
$HANDLING
 70
     0
  9
$HANDSEED
  5
0
  9
$SURFTAB1
 70
     6
  9
$SURFTAB2
 70
     6
  9
$SURFTYPE
 70
     6
  9
$SURFU
 70
     6
  9
$SURFV
 70
     6
  9
$UCSNAME
  2

  9
$UCSORG
 10
0.0
 20
0.0
 30
0.0
  9
$UCSXDIR
 10
1.0
 20
0.0
 30
0.0
  9
$UCSYDIR
 10
0.0
 20
1.0
 30
0.0
  9
$PUCSNAME
  2

  9
$PUCSORG
 10
0.0
 20
0.0
 30
0.0
  9
$PUCSXDIR
 10
1.0
 20
0.0
 30
0.0
  9
$PUCSYDIR
 10
0.0
 20
1.0
 30
0.0
  9
$USERI1
 70
     0
  9
$USERI2
 70
     0
  9
$USERI3
 70
     0
  9
$USERI4
 70
     0
  9
$USERI5
 70
     0
  9
$USERR1
 40
0.0
  9
$USERR2
 40
0.0
  9
$USERR3
 40
0.0
  9
$USERR4
 40
0.0
  9
$USERR5
 40
0.0
  9
$WORLDVIEW
 70
     1
  9
$SHADEDGE
 70
     3
  9
$SHADEDIF
 70
    70
  9
$TILEMODE
 70
     1
  9
$MAXACTVP
 70
    16
  9
$PINSBASE
 10
0.0
 20
0.0
 30
0.0
  9
$PLIMCHECK
 70
     0
  9
$PEXTMIN
 10
1.000000E+20
 20
1.000000E+20
 30
1.000000E+20
  9
$PEXTMAX
 10
-1.000000E+20
 20
-1.000000E+20
 30
-1.000000E+20
  9
$PLIMMIN
 10
0.0
 20
0.0
  9
$PLIMMAX
 10
12.0
 20
9.0
  9
$UNITMODE
 70
     0
  9
$VISRETAIN
 70
     0
  9
$PLINEGEN
 70
     0
  9
$PSLTSCALE
 70
     0
  9
$TREEDEPTH
 70
  3020
  9
$DWGCODEPAGE
  3
undefined
  0
ENDSEC
  0
SECTION
  2
TABLES
  0
TABLE
  2
VPORT
 70
     2
  0
VPORT
  2
*ACTIVE
 70
     0
 10
0.0
 20
0.0
 11
1.0
 21
1.0
 12
72.279566
 22
12.173868
 13
0.0
 23
0.0
 14
1.0
 24
1.0
 15
0.0
 25
0.0
 16
0.0
 26
0.0
 36
1.0
 17
0.0
 27
0.0
 37
0.0
 40
235.774719
 41
1.767507
 42
50.0
 43
0.0
 44
0.0
 50
0.0
 51
0.0
 71
     0
 72
   100
 73
     1
 74
     0
 75
     0
 76
     0
 77
     0
 78
     0
  0
ENDTAB
  0
TABLE
  2
LTYPE
 70
     2
  0
LTYPE
  2
CONTINUOUS
 70
    64
  3
Solid line
 72
    65
 73
     0
 40
0.0
  0
LTYPE
  2
CENTER
 70
    64
  3
____ _ ____ _ ____ _ ____ _ ____ _ ____ _ ____
 72
    65
 73
     4
 40
2.0
 49
1.25
 49
-0.25
 49
0.25
 49
-0.25
  0
ENDTAB
  0
TABLE
  2
LAYER
 70
     1
  0
LAYER
  2
0
 70
    64
 62
     7
  6
CONTINUOUS
  0
ENDTAB
  0
TABLE
  2
STYLE
 70
     1
  0
STYLE
  2
STANDARD
 70
     0
 40
0.0
 41
1.0
 50
0.0
 71
     0
 42
0.2
  3
txt
  4

  0
ENDTAB
  0
TABLE
  2
VIEW
 70
     0
  0
ENDTAB
  0
TABLE
  2
UCS
 70
     0
  0
ENDTAB
  0
TABLE
  2
APPID
 70
     1
  0
APPID
  2
ACAD
 70
    64
  0
ENDTAB
  0
TABLE
  2
DIMSTYLE
 70
     0
  0
ENDTAB
  0
ENDSEC
  0
SECTION
  2
BLOCKS
  0
BLOCK
  8
0
  2
*X0
 70
    65
 10
0.0
 20
0.0
 30
0.0
  3
*X
  0
LINE
  8
0
 62
     0
 10
-75.503137
 20
90.666957
 30
0.0
 11
-71.711949
 21
94.458145
 31
0.0
  0
LINE
  8
0
 62
     0
 10
-75.541755
 20
92.396105
 30
0.0
 11
-71.711949
 21
96.225912
 31
0.0
  0
LINE
  8
0
 62
     0
 10
-75.976045
 20
93.729582
 30
0.0
 11
-71.711949
 21
97.993679
 31
0.0
  0
LINE
  8
0
 62
     0
 10
-76.662092
 20
94.811302
 30
0.0
 11
-71.711949
 21
99.761446
 31
0.0
  0
LINE
  8
0
 62
     0
 10
-77.56001
 20
95.681151
 30
0.0
 11
-71.78653
 21
101.454631
 31
0.0
  0
LINE
  8
0
 62
     0
 10
-78.659185
 20
96.349743
 30
0.0
 11
-73.64744
 21
101.361488
 31
0.0
  0
LINE
  8
0
 62
     0
 10
-79.492058
 20
97.284637
 30
0.0
 11
-75.726345
 21
101.05035
 31
0.0
  0
LINE
  8
0
 62
     0
 10
-79.605352
 20
98.93911
 30
0.0
 11
-78.14575
 21
100.398713
 31
0.0
  0
LINE
  8
0
 62
     0
 10
-76.711949
 20
87.690378
 30
0.0
 11
-73.811949
 21
90.590378
 31
0.0
  0
LINE
  8
0
 62
     0
 10
-76.711949
 20
85.922611
 30
0.0
 11
-73.811949
 21
88.822611
 31
0.0
  0
LINE
  8
0
 62
     0
 10
-76.711949
 20
84.154844
 30
0.0
 11
-73.811949
 21
87.054844
 31
0.0
  0
LINE
  8
0
 62
     0
 10
-75.644256
 20
83.45477
 30
0.0
 11
-73.811949
 21
85.287077
 31
0.0
  0
ENDBLK
  8
0
  0
BLOCK
  8
0
  2
*X1
 70
    65
 10
0.0
 20
0.0
 30
0.0
  3
*X
  0
LINE
  8
0
 62
     0
 10
-52.741866
 20
92.215024
 30
0.0
 11
-48.140055
 21
96.816835
 31
0.0
  0
LINE
  8
0
 62
     0
 10
-53.007721
 20
93.716936
 30
0.0
 11
-48.140055
 21
98.584602
 31
0.0
  0
LINE
  8
0
 62
     0
 10
-53.477395
 20
95.015029
 30
0.0
 11
-48.140055
 21
100.352369
 31
0.0
  0
LINE
  8
0
 62
     0
 10
-54.107497
 20
96.152694
 30
0.0
 11
-48.140055
 21
102.120136
 31
0.0
  0
LINE
  8
0
 62
     0
 10
-54.877544
 20
97.150414
 30
0.0
 11
-48.140055
 21
103.887903
 31
0.0
  0
LINE
  8
0
 62
     0
 10
-55.779505
 20
98.01622
 30
0.0
 11
-49.021455
 21
104.77427
 31
0.0
  0
LINE
  8
0
 62
     0
 10
-56.819238
 20
98.744253
 30
0.0
 11
-50.968185
 21
104.595307
 31
0.0
  0
LINE
  8
0
 62
     0
 10
-57.771616
 20
99.559642
 30
0.0
 11
-53.171831
 21
104.159428
 31
0.0
  0
LINE
  8
0
 62
     0
 10
-58.133461
 20
100.965565
 30
0.0
 11
-55.812669
 21
103.286357
 31
0.0
  0
LINE
  8
0
 62
     0
 10
-52.78196
 20
90.407163
 30
0.0
 11
-48.140055
 21
95.049068
 31
0.0
  0
LINE
  8
0
 62
     0
 10
-53.508512
 20
87.912845
 30
0.0
 11
-50.640055
 21
90.781301
 31
0.0
  0
LINE
  8
0
 62
     0
 10
-48.766567
 20
92.654789
 30
0.0
 11
-48.140055
 21
93.281301
 31
0.0
  0
LINE
  8
0
 62
     0
 10
-54.140055
 20
85.513534
 30
0.0
 11
-50.640055
 21
89.013534
 31
0.0
  0
LINE
  8
0
 62
     0
 10
-54.140055
 20
83.745767
 30
0.0
 11
-50.640055
 21
87.245767
 31
0.0
  0
LINE
  8
0
 62
     0
 10
-54.140055
 20
81.978
 30
0.0
 11
-50.640055
 21
85.478
 31
0.0
  0
LINE
  8
0
 62
     0
 10
-53.55686
 20
80.793429
 30
0.0
 11
-50.640055
 21
83.710233
 31
0.0
  0
LINE
  8
0
 62
     0
 10
-51.789093
 20
80.793429
 30
0.0
 11
-50.640055
 21
81.942466
 31
0.0
  0
ENDBLK
  8
0
  0
BLOCK
  8
0
  2
*X2
 70
    65
 10
0.0
 20
0.0
 30
0.0
  3
*X
  0
LINE
  8
0
 62
     0
 10
-25.629726
 20
91.042893
 30
0.0
 11
-20.061727
 21
96.610892
 31
0.0
  0
LINE
  8
0
 62
     0
 10
-25.912313
 20
92.528073
 30
0.0
 11
-20.061727
 21
98.378659
 31
0.0
  0
LINE
  8
0
 62
     0
 10
-26.353424
 20
93.854729
 30
0.0
 11
-20.061727
 21
100.146426
 31
0.0
  0
LINE
  8
0
 62
     0
 10
-26.924712
 20
95.051207
 30
0.0
 11
-20.061727
 21
101.914192
 31
0.0
  0
LINE
  8
0
 62
     0
 10
-27.610183
 20
96.133503
 30
0.0
 11
-20.061727
 21
103.681959
 31
0.0
  0
LINE
  8
0
 62
     0
 10
-28.401044
 20
97.11041
 30
0.0
 11
-20.061727
 21
105.449726
 31
0.0
  0
LINE
  8
0
 62
     0
 10
-29.293486
 20
97.985734
 30
0.0
 11
-20.588802
 21
106.690418
 31
0.0
  0
LINE
  8
0
 62
     0
 10
-30.287853
 20
98.759135
 30
0.0
 11
-22.470624
 21
106.576364
 31
0.0
  0
LINE
  8
0
 62
     0
 10
-31.378584
 20
99.43617
 30
0.0
 11
-24.533993
 21
106.280761
 31
0.0
  0
LINE
  8
0
 62
     0
 10
-32.217886
 20
100.364636
 30
0.0
 11
-26.856325
 21
105.726196
 31
0.0
  0
LINE
  8
0
 62
     0
 10
-32.560119
 20
101.790169
 30
0.0
 11
-29.610187
 21
104.740101
 31
0.0
  0
LINE
  8
0
 62
     0
 10
-25.559628
 20
89.345223
 30
0.0
 11
-20.061727
 21
94.843125
 31
0.0
  0
LINE
  8
0
 62
     0
 10
-25.826019
 20
87.311066
 30
0.0
 11
-20.061727
 21
93.075358
 31
0.0
  0
LINE
  8
0
 62
     0
 10
-26.914295
 20
84.455023
 30
0.0
 11
-20.061727
 21
91.307591
 31
0.0
  0
LINE
  8
0
 62
     0
 10
-27.061727
 20
82.539824
 30
0.0
 11
-22.561727
 21
87.039824
 31
0.0
  0
LINE
  8
0
 62
     0
 10
-27.061727
 20
80.772057
 30
0.0
 11
-22.561727
 21
85.272057
 31
0.0
  0
LINE
  8
0
 62
     0
 10
-27.061727
 20
79.00429
 30
0.0
 11
-22.561727
 21
83.50429
 31
0.0
  0
LINE
  8
0
 62
     0
 10
-26.602111
 20
77.696139
 30
0.0
 11
-22.561727
 21
81.736523
 31
0.0
  0
LINE
  8
0
 62
     0
 10
-24.834344
 20
77.696139
 30
0.0
 11
-22.561727
 21
79.968756
 31
0.0
  0
LINE
  8
0
 62
     0
 10
-23.066577
 20
77.696139
 30
0.0
 11
-22.561727
 21
78.200989
 31
0.0
  0
ENDBLK
  8
0
  0
BLOCK
  8
0
  2
*X3
 70
    65
 10
0.0
 20
0.0
 30
0.0
  3
*X
  0
LINE
  8
0
 62
     0
 10
10.531662
 20
92.732826
 30
0.0
 11
17.139202
 21
99.340365
 31
0.0
  0
LINE
  8
0
 62
     0
 10
10.000957
 20
94.853771
 30
0.0
 11
17.139202
 21
101.992016
 31
0.0
  0
LINE
  8
0
 62
     0
 10
9.228865
 20
96.733329
 30
0.0
 11
17.139202
 21
104.643666
 31
0.0
  0
LINE
  8
0
 62
     0
 10
8.255038
 20
98.411152
 30
0.0
 11
17.139202
 21
107.295316
 31
0.0
  0
LINE
  8
0
 62
     0
 10
7.100173
 20
99.907938
 30
0.0
 11
17.139202
 21
109.946967
 31
0.0
  0
LINE
  8
0
 62
     0
 10
5.773286
 20
101.232702
 30
0.0
 11
15.959774
 21
111.419189
 31
0.0
  0
LINE
  8
0
 62
     0
 10
4.274324
 20
102.385389
 30
0.0
 11
13.112356
 21
111.223422
 31
0.0
  0
LINE
  8
0
 62
     0
 10
2.599841
 20
103.362557
 30
0.0
 11
9.997211
 21
110.759927
 31
0.0
  0
LINE
  8
0
 62
     0
 10
1.369772
 20
104.784139
 30
0.0
 11
6.503506
 21
109.917873
 31
0.0
  0
LINE
  8
0
 62
     0
 10
10.742706
 20
90.292219
 30
0.0
 11
17.139202
 21
96.688715
 31
0.0
  0
LINE
  8
0
 62
     0
 10
10.449455
 20
87.347317
 30
0.0
 11
17.139202
 21
94.037064
 31
0.0
  0
LINE
  8
0
 62
     0
 10
8.884191
 20
83.130403
 30
0.0
 11
13.739202
 21
87.985414
 31
0.0
  0
LINE
  8
0
 62
     0
 10
8.139202
 20
79.733763
 30
0.0
 11
13.739202
 21
85.333763
 31
0.0
  0
LINE
  8
0
 62
     0
 10
8.139202
 20
77.082113
 30
0.0
 11
13.739202
 21
82.682113
 31
0.0
  0
LINE
  8
0
 62
     0
 10
8.146247
 20
74.437507
 30
0.0
 11
13.739202
 21
80.030463
 31
0.0
  0
LINE
  8
0
 62
     0
 10
10.797897
 20
74.437507
 30
0.0
 11
13.739202
 21
77.378812
 31
0.0
  0
ENDBLK
  8
0
  0
BLOCK
  8
0
  2
*X4
 70
    65
 10
0.0
 20
0.0
 30
0.0
  3
*X
  0
LINE
  8
0
 62
     0
 10
53.611211
 20
90.734317
 30
0.0
 11
60.837715
 21
97.960821
 31
0.0
  0
LINE
  8
0
 62
     0
 10
53.160817
 20
92.935573
 30
0.0
 11
60.837715
 21
100.612472
 31
0.0
  0
LINE
  8
0
 62
     0
 10
52.46485
 20
94.891257
 30
0.0
 11
60.837715
 21
103.264122
 31
0.0
  0
LINE
  8
0
 62
     0
 10
51.567244
 20
96.645301
 30
0.0
 11
60.837715
 21
105.915772
 31
0.0
  0
LINE
  8
0
 62
     0
 10
50.491932
 20
98.22164
 30
0.0
 11
60.837715
 21
108.567423
 31
0.0
  0
LINE
  8
0
 62
     0
 10
49.251152
 20
99.632511
 30
0.0
 11
60.837715
 21
111.219073
 31
0.0
  0
LINE
  8
0
 62
     0
 10
47.848798
 20
100.881807
 30
0.0
 11
59.166675
 21
112.199683
 31
0.0
  0
LINE
  8
0
 62
     0
 10
46.281372
 20
101.966031
 30
0.0
 11
56.279558
 21
111.964218
 31
0.0
  0
LINE
  8
0
 62
     0
 10
44.541294
 20
102.877603
 30
0.0
 11
53.113785
 21
111.450095
 31
0.0
  0
LINE
  8
0
 62
     0
 10
43.219607
 20
104.207567
 30
0.0
 11
49.548599
 21
110.536559
 31
0.0
  0
LINE
  8
0
 62
     0
 10
42.952457
 20
106.592067
 30
0.0
 11
45.313044
 21
108.952654
 31
0.0
  0
LINE
  8
0
 62
     0
 10
53.729887
 20
88.201343
 30
0.0
 11
60.837715
 21
95.309171
 31
0.0
  0
LINE
  8
0
 62
     0
 10
53.309766
 20
85.129571
 30
0.0
 11
60.837715
 21
92.65752
 31
0.0
  0
LINE
  8
0
 62
     0
 10
51.388176
 20
80.556331
 30
0.0
 11
56.587715
 21
85.75587
 31
0.0
  0
LINE
  8
0
 62
     0
 10
50.837715
 20
77.354219
 30
0.0
 11
56.587715
 21
83.104219
 31
0.0
  0
LINE
  8
0
 62
     0
 10
50.837715
 20
74.702569
 30
0.0
 11
56.587715
 21
80.452569
 31
0.0
  0
LINE
  8
0
 62
     0
 10
50.837715
 20
72.050919
 30
0.0
 11
56.587715
 21
77.800919
 31
0.0
  0
LINE
  8
0
 62
     0
 10
51.674561
 20
70.236114
 30
0.0
 11
56.587715
 21
75.149268
 31
0.0
  0
LINE
  8
0
 62
     0
 10
54.326211
 20
70.236114
 30
0.0
 11
56.587715
 21
72.497618
 31
0.0
  0
ENDBLK
  8
0
  0
ENDSEC
  0
SECTION
  2
ENTITIES
  0
LINE
  8
0
 10
-81.271057
 20
83.45477
 30
0.0
 11
-71.271057
 21
83.45477
 31
0.0
  0
LINE
  8
0
 10
-81.271057
 20
83.45477
 30
0.0
 11
-81.271057
 21
87.95477
 31
0.0
  0
LINE
  8
0
 10
-76.271057
 20
87.95477
 30
0.0
 11
-71.271057
 21
87.95477
 31
0.0
  0
ARC
  8
0
 10
-82.021057
 20
98.25477
 30
0.0
 40
2.25
 50
108.72405
 51
244.01676
  0
ARC
  8
0
 10
-76.271057
 20
81.328462
 30
0.0
 40
20.126307
 50
71.232613
 51
108.767387
  0
ARC
  8
0
 10
-85.383443
 20
91.41312
 30
0.0
 40
5.373258
 50
319.937518
 51
63.748681
  0
ARC
  8
0
 10
-70.521057
 20
98.25477
 30
0.0
 40
2.25
 50
295.98324
 51
71.27595
  0
ARC
  8
0
 10
-67.158671
 20
91.41312
 30
0.0
 40
5.373258
 50
116.251319
 51
220.062482
  0
LINE
  8
0
 10
-71.271057
 20
83.45477
 30
0.0
 11
-71.271057
 21
87.95477
 31
0.0
  0
LINE
  8
0
  6
CENTER
 10
-50.989498
 20
107.461617
 30
0.0
 11
-50.989498
 21
78.483586
 31
0.0
  0
LINE
  8
0
 10
-56.989498
 20
80.793429
 30
0.0
 11
-44.989498
 21
80.793429
 31
0.0
  0
LINE
  8
0
 10
-56.989498
 20
86.793429
 30
0.0
 11
-56.989498
 21
80.793429
 31
0.0
  0
LINE
  8
0
 10
-50.989498
 20
86.793429
 30
0.0
 11
-44.989498
 21
86.793429
 31
0.0
  0
ARC
  8
0
 10
-58.739498
 20
100.793429
 30
0.0
 40
2.25
 50
114.817292
 51
246.866465
  0
ARC
  8
0
 10
-50.989498
 20
84.508973
 30
0.0
 40
20.284456
 50
64.619798
 51
115.380202
  0
ARC
  8
0
 10
-64.019773
 20
91.497574
 30
0.0
 40
8.458945
 50
326.21246
 51
58.68635
  0
ARC
  8
0
 10
-43.239498
 20
100.793429
 30
0.0
 40
2.25
 50
293.133535
 51
65.182708
  0
ARC
  8
0
 10
-37.959223
 20
91.497574
 30
0.0
 40
8.458945
 50
121.31365
 51
213.78754
  0
LINE
  8
0
 10
-44.989498
 20
86.793429
 30
0.0
 11
-44.989498
 21
80.793429
 31
0.0
  0
LINE
  8
0
  6
CENTER
 10
-20.061727
 20
76.278735
 30
0.0
 11
-20.061727
 21
109.193999
 31
0.0
  0
LINE
  8
0
 10
-27.061727
 20
77.696139
 30
0.0
 11
-13.061727
 21
77.696139
 31
0.0
  0
LINE
  8
0
 10
-27.061727
 20
77.696139
 30
0.0
 11
-27.061727
 21
84.196139
 31
0.0
  0
LINE
  8
0
 10
-13.061727
 20
77.696139
 30
0.0
 11
-13.061727
 21
84.196139
 31
0.0
  0
LINE
  8
0
 10
-20.061727
 20
84.196139
 30
0.0
 11
-13.061727
 21
84.196139
 31
0.0
  0
ARC
  8
0
 10
-29.811727
 20
101.696139
 30
0.0
 40
2.75
 50
102.614515
 51
242.778005
  0
ARC
  8
0
 10
-20.061727
 20
82.412567
 30
0.0
 40
24.283572
 50
64.77097
 51
115.22903
  0
ARC
  8
0
 10
-36.501949
 20
89.743694
 30
0.0
 40
10.949573
 50
329.559334
 51
61.26872
  0
ARC
  8
0
 10
-10.311727
 20
101.696139
 30
0.0
 40
2.75
 50
297.221995
 51
77.385485
  0
ARC
  8
0
 10
-3.621506
 20
89.743694
 30
0.0
 40
10.949573
 50
118.73128
 51
210.440666
  0
LINE
  8
0
  6
CENTER
 10
17.139202
 20
116.22463
 30
0.0
 11
17.139202
 21
71.974612
 31
0.0
  0
LINE
  8
0
 10
8.139202
 20
74.437507
 30
0.0
 11
26.139202
 21
74.437507
 31
0.0
  0
LINE
  8
0
 10
8.139202
 20
81.937507
 30
0.0
 11
8.139202
 21
74.437507
 31
0.0
  0
LINE
  8
0
 10
17.139202
 20
81.937507
 30
0.0
 11
26.139202
 21
81.937507
 31
0.0
  0
ARC
  8
0
 10
4.139202
 20
105.937507
 30
0.0
 40
3.0
 50
108.33286
 51
243.946488
  0
ARC
  8
0
 10
-3.857996
 20
90.259097
 30
0.0
 40
14.60074
 50
325.25375
 51
62.775296
  0
ARC
  8
0
 10
17.139202
 20
73.458866
 30
0.0
 40
37.978641
 50
68.460444
 51
111.539556
  0
ARC
  8
0
 10
30.139202
 20
105.937507
 30
0.0
 40
3.0
 50
296.053512
 51
71.66714
  0
ARC
  8
0
 10
38.136399
 20
90.259097
 30
0.0
 40
14.60074
 50
117.224704
 51
214.74625
  0
LINE
  8
0
 10
26.139202
 20
81.937507
 30
0.0
 11
26.139202
 21
74.437507
 31
0.0
  0
LINE
  8
0
 10
50.837715
 20
70.236114
 30
0.0
 11
70.837715
 21
70.236114
 31
0.0
  0
LINE
  8
0
  6
CENTER
 10
60.837715
 20
66.198725
 30
0.0
 11
60.837715
 21
118.272491
 31
0.0
  0
LINE
  8
0
 10
50.837715
 20
70.236114
 30
0.0
 11
50.837715
 21
79.736114
 31
0.0
  0
LINE
  8
0
 10
70.837715
 20
70.236114
 30
0.0
 11
70.837715
 21
79.736114
 31
0.0
  0
ARC
  8
0
 10
46.087715
 20
105.736114
 30
0.0
 40
3.25
 50
114.073666
 51
247.618716
  0
ARC
  8
0
 10
60.837715
 20
73.892938
 30
0.0
 40
38.343176
 50
65.079937
 51
114.920063
  0
LINE
  8
0
 10
60.837715
 20
79.736114
 30
0.0
 11
70.837715
 21
79.736114
 31
0.0
  0
ARC
  8
0
 10
38.296537
 20
88.747521
 30
0.0
 40
15.443011
 50
324.301035
 51
64.888674
  0
ARC
  8
0
 10
75.587715
 20
105.736114
 30
0.0
 40
3.25
 50
292.381284
 51
65.926334
  0
ARC
  8
0
 10
83.378893
 20
88.747521
 30
0.0
 40
15.443011
 50
115.111326
 51
215.698965
  0
LINE
  8
0
  6
CENTER
 10
-76.271057
 20
80.877901
 30
0.0
 11
-76.271057
 21
104.567466
 31
0.0
  0
LINE
  8
0
 10
-78.371057
 20
83.85477
 30
0.0
 11
-78.371057
 21
91.982011
 31
0.0
  0
LINE
  8
0
 10
-78.771057
 20
83.45477
 30
0.0
 11
-78.771057
 21
90.45477
 31
0.0
  0
LINE
  8
0
 10
-78.771057
 20
90.45477
 30
0.0
 11
-76.271057
 21
90.45477
 31
0.0
  0
LINE
  8
0
 10
-78.371057
 20
91.982011
 30
0.0
 11
-76.271057
 21
93.194447
 31
0.0
  0
LINE
  8
0
 10
-53.989498
 20
80.793429
 30
0.0
 11
-53.989498
 21
89.793429
 31
0.0
  0
LINE
  8
0
 10
-53.989498
 20
89.793429
 30
0.0
 11
-50.989498
 21
89.793429
 31
0.0
  0
LINE
  8
0
 10
-53.489498
 20
91.57313
 30
0.0
 11
-50.989498
 21
93.016506
 31
0.0
  0
LINE
  8
0
 10
-53.489498
 20
91.57313
 30
0.0
 11
-53.489498
 21
81.293429
 31
0.0
  0
LINE
  8
0
 10
-23.061727
 20
77.696139
 30
0.0
 11
-23.061727
 21
86.696139
 31
0.0
  0
LINE
  8
0
 10
-22.561727
 20
88.475841
 30
0.0
 11
-22.561727
 21
78.196139
 31
0.0
  0
LINE
  8
0
 10
-23.061727
 20
86.696139
 30
0.0
 11
-20.061727
 21
86.696139
 31
0.0
  0
LINE
  8
0
 10
-22.561727
 20
88.475841
 30
0.0
 11
-20.061727
 21
89.919216
 31
0.0
  0
LINE
  8
0
 10
13.739202
 20
89.735787
 30
0.0
 11
17.139202
 21
91.698778
 31
0.0
  0
LINE
  8
0
 10
13.139202
 20
74.437507
 30
0.0
 11
13.139202
 21
86.437507
 31
0.0
  0
LINE
  8
0
 10
13.139202
 20
86.437507
 30
0.0
 11
17.139202
 21
86.437507
 31
0.0
  0
LINE
  8
0
 10
13.739202
 20
75.037507
 30
0.0
 11
13.739202
 21
89.735787
 31
0.0
  0
LINE
  8
0
 10
56.587715
 20
87.968164
 30
0.0
 11
60.837715
 21
90.421903
 31
0.0
  0
LINE
  8
0
 10
55.837715
 20
70.236114
 30
0.0
 11
55.837715
 21
85.236114
 31
0.0
  0
LINE
  8
0
 10
55.837715
 20
85.236114
 30
0.0
 11
60.837715
 21
85.236114
 31
0.0
  0
LINE
  8
0
 10
56.587715
 20
70.986114
 30
0.0
 11
56.587715
 21
87.968164
 31
0.0
  0
LINE
  8
0
  6
CENTER
 10
-76.271057
 20
-29.559912
 30
0.0
 11
-76.271057
 21
4.100799
 31
0.0
  0
ARC
  8
0
 10
83.378893
 20
-11.719146
 30
0.0
 40
15.443011
 50
115.111326
 51
215.698965
  0
ARC
  8
0
 10
75.587715
 20
5.269447
 30
0.0
 40
3.25
 50
292.381284
 51
65.926334
  0
ARC
  8
0
 10
38.296537
 20
-11.719146
 30
0.0
 40
15.443011
 50
324.301035
 51
64.888674
  0
LINE
  8
0
 10
50.837715
 20
-20.730553
 30
0.0
 11
70.837715
 21
-20.730553
 31
0.0
  0
ARC
  8
0
 10
60.837715
 20
-26.573729
 30
0.0
 40
38.343176
 50
65.079937
 51
114.920063
  0
ARC
  8
0
 10
46.087715
 20
5.269447
 30
0.0
 40
3.25
 50
114.073666
 51
247.618716
  0
LINE
  8
0
 10
70.837715
 20
-30.230553
 30
0.0
 11
70.837715
 21
-20.730553
 31
0.0
  0
LINE
  8
0
 10
50.837715
 20
-30.230553
 30
0.0
 11
50.837715
 21
-20.730553
 31
0.0
  0
LINE
  8
0
  6
CENTER
 10
60.837715
 20
-51.224672
 30
0.0
 11
60.837715
 21
17.805825
 31
0.0
  0
LINE
  8
0
 10
50.837715
 20
-30.230553
 30
0.0
 11
70.837715
 21
-30.230553
 31
0.0
  0
LINE
  8
0
 10
26.139202
 20
-18.529159
 30
0.0
 11
26.139202
 21
-26.029159
 31
0.0
  0
ARC
  8
0
 10
38.136399
 20
-10.20757
 30
0.0
 40
14.60074
 50
117.224704
 51
214.74625
  0
ARC
  8
0
 10
30.139202
 20
5.470841
 30
0.0
 40
3.0
 50
296.053512
 51
71.66714
  0
ARC
  8
0
 10
17.139202
 20
-27.0078
 30
0.0
 40
37.978641
 50
68.460444
 51
111.539556
  0
ARC
  8
0
 10
-3.857996
 20
-10.20757
 30
0.0
 40
14.60074
 50
325.25375
 51
62.775296
  0
ARC
  8
0
 10
4.139202
 20
5.470841
 30
0.0
 40
3.0
 50
108.33286
 51
243.946488
  0
LINE
  8
0
 10
8.139202
 20
-18.529159
 30
0.0
 11
26.139202
 21
-18.529159
 31
0.0
  0
LINE
  8
0
 10
8.139202
 20
-18.529159
 30
0.0
 11
8.139202
 21
-26.029159
 31
0.0
  0
LINE
  8
0
 10
8.139202
 20
-26.029159
 30
0.0
 11
26.139202
 21
-26.029159
 31
0.0
  0
LINE
  8
0
  6
CENTER
 10
17.139202
 20
15.757964
 30
0.0
 11
17.139202
 21
-44.21992
 31
0.0
  0
ARC
  8
0
 10
-3.621506
 20
-10.722972
 30
0.0
 40
10.949573
 50
118.73128
 51
210.440666
  0
ARC
  8
0
 10
-10.311727
 20
1.229473
 30
0.0
 40
2.75
 50
297.221995
 51
77.385485
  0
ARC
  8
0
 10
-36.501949
 20
-10.722972
 30
0.0
 40
10.949573
 50
329.559334
 51
61.26872
  0
ARC
  8
0
 10
-20.061727
 20
-18.0541
 30
0.0
 40
24.283572
 50
64.77097
 51
115.22903
  0
ARC
  8
0
 10
-29.811727
 20
1.229473
 30
0.0
 40
2.75
 50
102.614515
 51
242.778005
  0
LINE
  8
0
 10
-27.061727
 20
-16.270528
 30
0.0
 11
-13.061727
 21
-16.270528
 31
0.0
  0
LINE
  8
0
 10
-13.061727
 20
-22.770528
 30
0.0
 11
-13.061727
 21
-16.270528
 31
0.0
  0
LINE
  8
0
 10
-27.061727
 20
-22.770528
 30
0.0
 11
-27.061727
 21
-16.270528
 31
0.0
  0
LINE
  8
0
 10
-27.061727
 20
-22.770528
 30
0.0
 11
-13.061727
 21
-22.770528
 31
0.0
  0
LINE
  8
0
  6
CENTER
 10
-20.061727
 20
-39.046358
 30
0.0
 11
-20.061727
 21
8.727333
 31
0.0
  0
LINE
  8
0
 10
-44.989498
 20
-13.673238
 30
0.0
 11
-44.989498
 21
-19.673238
 31
0.0
  0
ARC
  8
0
 10
-37.959223
 20
-8.969093
 30
0.0
 40
8.458945
 50
121.31365
 51
213.78754
  0
ARC
  8
0
 10
-43.239498
 20
0.326762
 30
0.0
 40
2.25
 50
293.133535
 51
65.182708
  0
ARC
  8
0
 10
-64.019773
 20
-8.969093
 30
0.0
 40
8.458945
 50
326.21246
 51
58.68635
  0
ARC
  8
0
 10
-50.989498
 20
-15.957694
 30
0.0
 40
20.284456
 50
64.619798
 51
115.380202
  0
ARC
  8
0
 10
-58.739498
 20
0.326762
 30
0.0
 40
2.25
 50
114.817292
 51
246.866465
  0
LINE
  8
0
 10
-56.989498
 20
-13.673238
 30
0.0
 11
-44.989498
 21
-13.673238
 31
0.0
  0
LINE
  8
0
 10
-56.989498
 20
-13.673238
 30
0.0
 11
-56.989498
 21
-19.673238
 31
0.0
  0
LINE
  8
0
 10
-56.989498
 20
-19.673238
 30
0.0
 11
-44.989498
 21
-19.673238
 31
0.0
  0
LINE
  8
0
  6
CENTER
 10
-50.989498
 20
6.99495
 30
0.0
 11
-50.989498
 21
-33.87234
 31
0.0
  0
LINE
  8
0
 10
-71.271057
 20
-17.011897
 30
0.0
 11
-71.271057
 21
-12.511897
 31
0.0
  0
ARC
  8
0
 10
-67.158671
 20
-9.053547
 30
0.0
 40
5.373258
 50
116.251319
 51
220.062482
  0
ARC
  8
0
 10
-70.521057
 20
-2.211897
 30
0.0
 40
2.25
 50
295.98324
 51
71.27595
  0
ARC
  8
0
 10
-85.383443
 20
-9.053547
 30
0.0
 40
5.373258
 50
319.937518
 51
63.748681
  0
ARC
  8
0
 10
-76.271057
 20
-19.138204
 30
0.0
 40
20.126307
 50
71.232613
 51
108.767387
  0
ARC
  8
0
 10
-82.021057
 20
-2.211897
 30
0.0
 40
2.25
 50
108.72405
 51
244.01676
  0
LINE
  8
0
 10
-81.271057
 20
-12.511897
 30
0.0
 11
-71.271057
 21
-12.511897
 31
0.0
  0
LINE
  8
0
 10
-81.271057
 20
-17.011897
 30
0.0
 11
-81.271057
 21
-12.511897
 31
0.0
  0
LINE
  8
0
 10
-81.271057
 20
-17.011897
 30
0.0
 11
-71.271057
 21
-17.011897
 31
0.0
  0
LINE
  8
0
 10
-78.771057
 20
-27.011897
 30
0.0
 11
-73.771057
 21
-27.011897
 31
0.0
  0
LINE
  8
0
 10
-79.271057
 20
-26.511897
 30
0.0
 11
-79.271057
 21
-17.011897
 31
0.0
  0
LINE
  8
0
 10
-78.771057
 20
-27.011897
 30
0.0
 11
-78.771057
 21
-17.011897
 31
0.0
  0
LINE
  8
0
 10
-78.771057
 20
-27.011897
 30
0.0
 11
-79.271057
 21
-26.511897
 31
0.0
  0
LINE
  8
0
 10
-73.771057
 20
-27.011897
 30
0.0
 11
-73.271057
 21
-26.511897
 31
0.0
  0
LINE
  8
0
 10
-73.771057
 20
-27.011897
 30
0.0
 11
-73.771057
 21
-17.011897
 31
0.0
  0
LINE
  8
0
 10
-73.271057
 20
-26.511897
 30
0.0
 11
-73.271057
 21
-17.011897
 31
0.0
  0
LINE
  8
0
 10
-54.389498
 20
-31.673238
 30
0.0
 11
-47.589498
 21
-31.673238
 31
0.0
  0
LINE
  8
0
 10
-54.989498
 20
-19.673238
 30
0.0
 11
-54.989498
 21
-31.073238
 31
0.0
  0
LINE
  8
0
 10
-54.389498
 20
-19.673238
 30
0.0
 11
-54.389498
 21
-31.673238
 31
0.0
  0
LINE
  8
0
 10
-54.389498
 20
-31.673238
 30
0.0
 11
-54.989498
 21
-31.073238
 31
0.0
  0
LINE
  8
0
 10
-47.589498
 20
-31.673238
 30
0.0
 11
-46.989498
 21
-31.073238
 31
0.0
  0
LINE
  8
0
 10
-47.589498
 20
-19.673238
 30
0.0
 11
-47.589498
 21
-31.673238
 31
0.0
  0
LINE
  8
0
 10
-46.989498
 20
-19.673238
 30
0.0
 11
-46.989498
 21
-31.073238
 31
0.0
  0
LINE
  8
0
 10
-16.061727
 20
-22.770528
 30
0.0
 11
-16.061727
 21
-36.170528
 31
0.0
  0
LINE
  8
0
 10
-16.661727
 20
-22.770528
 30
0.0
 11
-16.661727
 21
-36.770528
 31
0.0
  0
LINE
  8
0
 10
-16.661727
 20
-36.770528
 30
0.0
 11
-16.061727
 21
-36.170528
 31
0.0
  0
LINE
  8
0
 10
-23.461727
 20
-36.770528
 30
0.0
 11
-24.061727
 21
-36.170528
 31
0.0
  0
LINE
  8
0
 10
-23.461727
 20
-22.770528
 30
0.0
 11
-23.461727
 21
-36.770528
 31
0.0
  0
LINE
  8
0
 10
-24.061727
 20
-22.770528
 30
0.0
 11
-24.061727
 21
-36.170528
 31
0.0
  0
LINE
  8
0
 10
-23.461727
 20
-36.770528
 30
0.0
 11
-16.661727
 21
-36.770528
 31
0.0
  0
LINE
  8
0
 10
12.889202
 20
-42.029159
 30
0.0
 11
21.389202
 21
-42.029159
 31
0.0
  0
LINE
  8
0
 10
12.139202
 20
-26.029159
 30
0.0
 11
12.139202
 21
-41.279159
 31
0.0
  0
LINE
  8
0
 10
12.889202
 20
-26.029159
 30
0.0
 11
12.889202
 21
-42.029159
 31
0.0
  0
LINE
  8
0
 10
12.889202
 20
-42.029159
 30
0.0
 11
12.139202
 21
-41.279159
 31
0.0
  0
LINE
  8
0
 10
21.389202
 20
-42.029159
 30
0.0
 11
22.139202
 21
-41.279159
 31
0.0
  0
LINE
  8
0
 10
21.389202
 20
-26.029159
 30
0.0
 11
21.389202
 21
-42.029159
 31
0.0
  0
LINE
  8
0
 10
22.139202
 20
-26.029159
 30
0.0
 11
22.139202
 21
-41.279159
 31
0.0
  0
LINE
  8
0
 10
55.737715
 20
-48.230553
 30
0.0
 11
65.937715
 21
-48.230553
 31
0.0
  0
LINE
  8
0
 10
54.837715
 20
-47.330553
 30
0.0
 11
54.837715
 21
-30.230553
 31
0.0
  0
LINE
  8
0
 10
55.737715
 20
-48.230553
 30
0.0
 11
55.737715
 21
-30.230553
 31
0.0
  0
LINE
  8
0
 10
55.737715
 20
-48.230553
 30
0.0
 11
54.837715
 21
-47.330553
 31
0.0
  0
LINE
  8
0
 10
65.937715
 20
-48.230553
 30
0.0
 11
66.837715
 21
-47.330553
 31
0.0
  0
LINE
  8
0
 10
65.937715
 20
-48.230553
 30
0.0
 11
65.937715
 21
-30.230553
 31
0.0
  0
LINE
  8
0
 10
66.837715
 20
-47.330553
 30
0.0
 11
66.837715
 21
-30.230553
 31
0.0
  0
CIRCLE
  8
0
 10
60.837715
 20
42.336114
 30
0.0
 40
18.0
  0
CIRCLE
  8
0
 10
17.139202
 20
51.138276
 30
0.0
 40
16.0
  0
CIRCLE
  8
0
 10
-20.061727
 20
58.631634
 30
0.0
 40
12.5
  0
CIRCLE
  8
0
 10
-50.989498
 20
64.287432
 30
0.0
 40
10.0
  0
CIRCLE
  8
0
 10
-76.271057
 20
69.035503
 30
0.0
 40
8.0
  0
LINE
  8
0
 10
-79.271057
 20
-26.511897
 30
0.0
 11
-73.271057
 21
-26.511897
 31
0.0
  0
LINE
  8
0
 10
-54.989498
 20
-31.073238
 30
0.0
 11
-46.989498
 21
-31.073238
 31
0.0
  0
LINE
  8
0
 10
-24.061727
 20
-36.170528
 30
0.0
 11
-16.061727
 21
-36.170528
 31
0.0
  0
LINE
  8
0
 10
12.139202
 20
-41.279159
 30
0.0
 11
22.139202
 21
-41.279159
 31
0.0
  0
LINE
  8
0
 10
54.837715
 20
-47.330553
 30
0.0
 11
66.837715
 21
-47.330553
 31
0.0
  0
LINE
  8
0
 10
-78.371057
 20
83.85477
 30
0.0
 11
-76.271057
 21
83.85477
 31
0.0
  0
LINE
  8
0
 10
-53.489498
 20
81.293429
 30
0.0
 11
-50.989498
 21
81.293429
 31
0.0
  0
LINE
  8
0
 10
-78.771057
 20
83.45477
 30
0.0
 11
-78.371057
 21
83.85477
 31
0.0
  0
LINE
  8
0
 10
-53.989498
 20
80.793429
 30
0.0
 11
-53.489498
 21
81.293429
 31
0.0
  0
LINE
  8
0
 10
-22.561727
 20
78.196139
 30
0.0
 11
-20.061727
 21
78.196139
 31
0.0
  0
LINE
  8
0
 10
13.739202
 20
75.037507
 30
0.0
 11
17.139202
 21
75.037507
 31
0.0
  0
LINE
  8
0
 10
56.587715
 20
70.986114
 30
0.0
 11
60.837715
 21
70.986114
 31
0.0
  0
LINE
  8
0
 10
-23.061727
 20
77.696139
 30
0.0
 11
-22.561727
 21
78.196139
 31
0.0
  0
LINE
  8
0
 10
13.739202
 20
75.037507
 30
0.0
 11
13.139202
 21
74.437507
 31
0.0
  0
LINE
  8
0
 10
56.587715
 20
70.986114
 30
0.0
 11
55.837715
 21
70.236114
 31
0.0
  0
CIRCLE
  8
0
 10
-50.989498
 20
-53.973437
 30
0.0
 40
10.0
  0
CIRCLE
  8
0
 10
-76.271057
 20
-49.225367
 30
0.0
 40
8.0
  0
CIRCLE
  8
0
 10
-20.061727
 20
-59.629236
 30
0.0
 40
12.5
  0
CIRCLE
  8
0
 10
60.837715
 20
-75.924756
 30
0.0
 40
18.0
  0
CIRCLE
  8
0
 10
17.139202
 20
-67.122594
 30
0.0
 40
16.0
  0
LINE
  8
0
 10
-78.371057
 20
91.982011
 30
0.0
 11
-76.271057
 21
91.982011
 31
0.0
  0
LINE
  8
0
 10
-53.489498
 20
91.57313
 30
0.0
 11
-50.989498
 21
91.57313
 31
0.0
  0
LINE
  8
0
 10
-22.561727
 20
88.475841
 30
0.0
 11
-20.061727
 21
88.475841
 31
0.0
  0
LINE
  8
0
 10
13.739202
 20
89.735787
 30
0.0
 11
17.139202
 21
89.735787
 31
0.0
  0
LINE
  8
0
 10
56.587715
 20
87.968164
 30
0.0
 11
60.837715
 21
87.968164
 31
0.0
  0
INSERT
  8
0
  2
*X0
 10
-4.559108
 20
0.0
 30
0.0
1001
ACAD
1000
HATCH
1002
{
1070
    16
1000
ANSI31
1040
10.0
1040
0.0
1002
}
  0
INSERT
  8
0
  2
*X1
 10
-2.849442
 20
0.0
 30
0.0
1001
ACAD
1000
HATCH
1002
{
1070
    16
1000
ANSI31
1040
10.0
1040
0.0
1002
}
  0
INSERT
  8
0
  2
*X2
 10
0.0
 20
0.0
 30
0.0
1001
ACAD
1000
HATCH
1002
{
1070
    16
1000
ANSI31
1040
10.0
1040
0.0
1002
}
  0
INSERT
  8
0
  2
*X3
 10
0.0
 20
0.0
 30
0.0
1001
ACAD
1000
HATCH
1002
{
1070
    16
1000
ANSI31
1040
15.0
1040
0.0
1002
}
  0
INSERT
  8
0
  2
*X4
 10
0.0
 20
0.0
 30
0.0
1001
ACAD
1000
HATCH
1002
{
1070
    16
1000
ANSI31
1040
15.0
1040
0.0
1002
}
  0
ENDSEC
  0
EOF
