  0
SECTION
  2
HEADER
  9
$ACADVER
  1
AC1009
  9
$INSBASE
 10
0.0
 20
0.0
 30
0.0
  9
$EXTMIN
 10
-18.624445
 20
-31.450163
 30
0.0
  9
$EXTMAX
 10
130.737969
 20
63.16866
 30
0.0
  9
$LIMMIN
 10
0.0
 20
0.0
  9
$LIMMAX
 10
12.0
 20
9.0
  9
$ORTHOMODE
 70
     0
  9
$REGENMODE
 70
     1
  9
$FILLMODE
 70
     1
  9
$QTEXTMODE
 70
     0
  9
$MIRRTEXT
 70
     1
  9
$DRAGMODE
 70
     2
  9
$LTSCALE
 40
5.0
  9
$OSMODE
 70
     0
  9
$ATTMODE
 70
     1
  9
$TEXTSIZE
 40
0.2
  9
$TRACEWID
 40
0.05
  9
$TEXTSTYLE
  7
STANDARD
  9
$CLAYER
  8
0
  9
$CELTYPE
  6
BYLAYER
  9
$CECOLOR
 62
   256
  9
$DIMSCALE
 40
1.0
  9
$DIMASZ
 40
2.5
  9
$DIMEXO
 40
0.0
  9
$DIMDLI
 40
5.0
  9
$DIMRND
 40
0.0
  9
$DIMDLE
 40
0.0
  9
$DIMEXE
 40
1.0
  9
$DIMTP
 40
0.0
  9
$DIMTM
 40
0.0
  9
$DIMTXT
 40
2.5
  9
$DIMCEN
 40
0.09
  9
$DIMTSZ
 40
0.0
  9
$DIMTOL
 70
     0
  9
$DIMLIM
 70
     0
  9
$DIMTIH
 70
     0
  9
$DIMTOH
 70
     0
  9
$DIMSE1
 70
     0
  9
$DIMSE2
 70
     0
  9
$DIMTAD
 70
     1
  9
$DIMZIN
 70
     0
  9
$DIMBLK
  1

  9
$DIMASO
 70
     0
  9
$DIMSHO
 70
     0
  9
$DIMPOST
  1

  9
$DIMAPOST
  1

  9
$DIMALT
 70
     0
  9
$DIMALTD
 70
     2
  9
$DIMALTF
 40
25.4
  9
$DIMLFAC
 40
1.0
  9
$DIMTOFL
 70
     1
  9
$DIMTVP
 40
0.0
  9
$DIMTIX
 70
     0
  9
$DIMSOXD
 70
     0
  9
$DIMSAH
 70
     0
  9
$DIMBLK1
  1

  9
$DIMBLK2
  1

  9
$DIMSTYLE
  2
*UNNAMED
  9
$DIMCLRD
 70
     0
  9
$DIMCLRE
 70
     0
  9
$DIMCLRT
 70
     0
  9
$DIMTFAC
 40
1.0
  9
$DIMGAP
 40
0.09
  9
$LUNITS
 70
     2
  9
$LUPREC
 70
     4
  9
$SKETCHINC
 40
0.1
  9
$FILLETRAD
 40
0.0
  9
$AUNITS
 70
     0
  9
$AUPREC
 70
     0
  9
$MENU
  1
wiberger
  9
$ELEVATION
 40
0.0
  9
$PELEVATION
 40
0.0
  9
$THICKNESS
 40
0.0
  9
$LIMCHECK
 70
     0
  9
$BLIPMODE
 70
     1
  9
$CHAMFERA
 40
0.0
  9
$CHAMFERB
 40
0.0
  9
$SKPOLY
 70
     0
  9
$TDCREATE
 40
2450191.412869328
  9
$TDUPDATE
 40
2450210.618365625
  9
$TDINDWG
 40
0.0001671296
  9
$TDUSRTIMER
 40
0.0001671296
  9
$USRTIMER
 70
     1
  9
$ANGBASE
 50
0.0
  9
$ANGDIR
 70
     0
  9
$PDMODE
 70
     0
  9
$PDSIZE
 40
0.0
  9
$PLINEWID
 40
0.0
  9
$COORDS
 70
     0
  9
$SPLFRAME
 70
     0
  9
$SPLINETYPE
 70
     6
  9
$SPLINESEGS
 70
     8
  9
$ATTDIA
 70
     0
  9
$ATTREQ
 70
     1
  9
$HANDLING
 70
     0
  9
$HANDSEED
  5
0
  9
$SURFTAB1
 70
     6
  9
$SURFTAB2
 70
     6
  9
$SURFTYPE
 70
     6
  9
$SURFU
 70
     6
  9
$SURFV
 70
     6
  9
$UCSNAME
  2

  9
$UCSORG
 10
0.0
 20
0.0
 30
0.0
  9
$UCSXDIR
 10
1.0
 20
0.0
 30
0.0
  9
$UCSYDIR
 10
0.0
 20
1.0
 30
0.0
  9
$PUCSNAME
  2

  9
$PUCSORG
 10
0.0
 20
0.0
 30
0.0
  9
$PUCSXDIR
 10
1.0
 20
0.0
 30
0.0
  9
$PUCSYDIR
 10
0.0
 20
1.0
 30
0.0
  9
$USERI1
 70
     0
  9
$USERI2
 70
     0
  9
$USERI3
 70
     0
  9
$USERI4
 70
     0
  9
$USERI5
 70
     0
  9
$USERR1
 40
0.0
  9
$USERR2
 40
0.0
  9
$USERR3
 40
0.0
  9
$USERR4
 40
0.0
  9
$USERR5
 40
0.0
  9
$WORLDVIEW
 70
     1
  9
$SHADEDGE
 70
     3
  9
$SHADEDIF
 70
    70
  9
$TILEMODE
 70
     1
  9
$MAXACTVP
 70
    16
  9
$PINSBASE
 10
0.0
 20
0.0
 30
0.0
  9
$PLIMCHECK
 70
     0
  9
$PEXTMIN
 10
1.000000E+20
 20
1.000000E+20
 30
1.000000E+20
  9
$PEXTMAX
 10
-1.000000E+20
 20
-1.000000E+20
 30
-1.000000E+20
  9
$PLIMMIN
 10
0.0
 20
0.0
  9
$PLIMMAX
 10
12.0
 20
9.0
  9
$UNITMODE
 70
     0
  9
$VISRETAIN
 70
     0
  9
$PLINEGEN
 70
     0
  9
$PSLTSCALE
 70
     0
  9
$TREEDEPTH
 70
  3020
  9
$DWGCODEPAGE
  3
undefined
  0
ENDSEC
  0
SECTION
  2
TABLES
  0
TABLE
  2
VPORT
 70
     2
  0
VPORT
  2
*ACTIVE
 70
     0
 10
0.0
 20
0.0
 11
1.0
 21
1.0
 12
78.789911
 22
22.377653
 13
0.0
 23
0.0
 14
1.0
 24
1.0
 15
0.0
 25
0.0
 16
0.0
 26
0.0
 36
1.0
 17
0.0
 27
0.0
 37
0.0
 40
119.617368
 41
1.767507
 42
50.0
 43
0.0
 44
0.0
 50
0.0
 51
0.0
 71
     0
 72
   100
 73
     1
 74
     0
 75
     0
 76
     0
 77
     0
 78
     0
  0
ENDTAB
  0
TABLE
  2
LTYPE
 70
     2
  0
LTYPE
  2
CONTINUOUS
 70
    64
  3
Solid line
 72
    65
 73
     0
 40
0.0
  0
LTYPE
  2
CENTER
 70
    64
  3
____ _ ____ _ ____ _ ____ _ ____ _ ____ _ ____
 72
    65
 73
     4
 40
2.0
 49
1.25
 49
-0.25
 49
0.25
 49
-0.25
  0
ENDTAB
  0
TABLE
  2
LAYER
 70
     1
  0
LAYER
  2
0
 70
    64
 62
     7
  6
CONTINUOUS
  0
ENDTAB
  0
TABLE
  2
STYLE
 70
     1
  0
STYLE
  2
STANDARD
 70
     0
 40
0.0
 41
1.0
 50
0.0
 71
     0
 42
0.2
  3
txt
  4

  0
ENDTAB
  0
TABLE
  2
VIEW
 70
     0
  0
ENDTAB
  0
TABLE
  2
UCS
 70
     0
  0
ENDTAB
  0
TABLE
  2
APPID
 70
     1
  0
APPID
  2
ACAD
 70
    64
  0
ENDTAB
  0
TABLE
  2
DIMSTYLE
 70
     0
  0
ENDTAB
  0
ENDSEC
  0
SECTION
  2
BLOCKS
  0
BLOCK
  8
0
  2
*X0
 70
    65
 10
0.0
 20
0.0
 30
0.0
  3
*X
  0
LINE
  8
0
 62
     0
 10
-17.615945
 20
50.266306
 30
0.0
 11
-12.782663
 21
55.099588
 31
0.0
  0
LINE
  8
0
 62
     0
 10
-8.782663
 20
59.099588
 30
0.0
 11
-8.115945
 21
59.766306
 31
0.0
  0
LINE
  8
0
 62
     0
 10
-17.859964
 20
52.143607
 30
0.0
 11
-14.903984
 21
55.099588
 31
0.0
  0
LINE
  8
0
 62
     0
 10
-10.903984
 20
59.099588
 30
0.0
 11
-8.115945
 21
61.887626
 31
0.0
  0
LINE
  8
0
 62
     0
 10
-18.015945
 20
54.108947
 30
0.0
 11
-17.025304
 21
55.099588
 31
0.0
  0
LINE
  8
0
 62
     0
 10
-13.025304
 20
59.099588
 30
0.0
 11
-9.525304
 21
62.599588
 31
0.0
  0
LINE
  8
0
 62
     0
 10
-15.146624
 20
59.099588
 30
0.0
 11
-11.646624
 21
62.599588
 31
0.0
  0
LINE
  8
0
 62
     0
 10
-17.267945
 20
59.099588
 30
0.0
 11
-13.767945
 21
62.599588
 31
0.0
  0
LINE
  8
0
 62
     0
 10
-18.015945
 20
60.472908
 30
0.0
 11
-15.115945
 21
63.372908
 31
0.0
  0
LINE
  8
0
 62
     0
 10
-18.015945
 20
62.594228
 30
0.0
 11
-15.115945
 21
65.494228
 31
0.0
  0
LINE
  8
0
 62
     0
 10
-18.015945
 20
64.715548
 30
0.0
 11
-15.115945
 21
67.615548
 31
0.0
  0
LINE
  8
0
 62
     0
 10
-18.015945
 20
66.836869
 30
0.0
 11
-15.753226
 21
69.099588
 31
0.0
  0
LINE
  8
0
 62
     0
 10
-17.615945
 20
48.144986
 30
0.0
 11
-10.661343
 21
55.099588
 31
0.0
  0
LINE
  8
0
 62
     0
 10
-17.615945
 20
46.023665
 30
0.0
 11
-8.540023
 21
55.099588
 31
0.0
  0
LINE
  8
0
 62
     0
 10
-17.615945
 20
43.902345
 30
0.0
 11
-8.115945
 21
53.402345
 31
0.0
  0
LINE
  8
0
 62
     0
 10
-16.297382
 20
43.099588
 30
0.0
 11
-8.115945
 21
51.281025
 31
0.0
  0
LINE
  8
0
 62
     0
 10
-14.176062
 20
43.099588
 30
0.0
 11
-8.115945
 21
49.159704
 31
0.0
  0
LINE
  8
0
 62
     0
 10
-12.054741
 20
43.099588
 30
0.0
 11
-8.115945
 21
47.038384
 31
0.0
  0
LINE
  8
0
 62
     0
 10
-9.933421
 20
43.099588
 30
0.0
 11
-8.115945
 21
44.917064
 31
0.0
  0
ENDBLK
  8
0
  0
BLOCK
  8
0
  2
*X1
 70
    65
 10
0.0
 20
0.0
 30
0.0
  3
*X
  0
LINE
  8
0
 62
     0
 10
-17.268778
 20
-57.573865
 30
0.0
 11
-14.445903
 21
-54.750989
 31
0.0
  0
LINE
  8
0
 62
     0
 10
-9.445903
 20
-49.750989
 30
0.0
 11
-4.268778
 21
-44.573865
 31
0.0
  0
LINE
  8
0
 62
     0
 10
-17.568778
 20
-55.752544
 30
0.0
 11
-16.567223
 21
-54.750989
 31
0.0
  0
LINE
  8
0
 62
     0
 10
-11.567223
 20
-49.750989
 30
0.0
 11
-5.267223
 21
-43.450989
 31
0.0
  0
LINE
  8
0
 62
     0
 10
-13.688544
 20
-49.750989
 30
0.0
 11
-7.388544
 21
-43.450989
 31
0.0
  0
LINE
  8
0
 62
     0
 10
-15.809864
 20
-49.750989
 30
0.0
 11
-9.509864
 21
-43.450989
 31
0.0
  0
LINE
  8
0
 62
     0
 10
-17.568778
 20
-49.388583
 30
0.0
 11
-11.631184
 21
-43.450989
 31
0.0
  0
LINE
  8
0
 62
     0
 10
-17.568778
 20
-47.267263
 30
0.0
 11
-13.752505
 21
-43.450989
 31
0.0
  0
LINE
  8
0
 62
     0
 10
-17.568778
 20
-45.145943
 30
0.0
 11
-13.768778
 21
-41.345943
 31
0.0
  0
LINE
  8
0
 62
     0
 10
-17.568778
 20
-43.024622
 30
0.0
 11
-13.768778
 21
-39.224622
 31
0.0
  0
LINE
  8
0
 62
     0
 10
-17.568778
 20
-40.903302
 30
0.0
 11
-13.916466
 21
-37.250989
 31
0.0
  0
LINE
  8
0
 62
     0
 10
-17.568778
 20
-38.781982
 30
0.0
 11
-16.037786
 21
-37.250989
 31
0.0
  0
LINE
  8
0
 62
     0
 10
-17.268778
 20
-59.695185
 30
0.0
 11
-12.324582
 21
-54.750989
 31
0.0
  0
LINE
  8
0
 62
     0
 10
-7.324582
 20
-49.750989
 30
0.0
 11
-4.268778
 21
-46.695185
 31
0.0
  0
LINE
  8
0
 62
     0
 10
-17.268778
 20
-61.816505
 30
0.0
 11
-10.203262
 21
-54.750989
 31
0.0
  0
LINE
  8
0
 62
     0
 10
-5.203262
 20
-49.750989
 30
0.0
 11
-4.268778
 21
-48.816505
 31
0.0
  0
LINE
  8
0
 62
     0
 10
-17.268778
 20
-63.937826
 30
0.0
 11
-8.081942
 21
-54.750989
 31
0.0
  0
LINE
  8
0
 62
     0
 10
-17.268778
 20
-66.059146
 30
0.0
 11
-5.960621
 21
-54.750989
 31
0.0
  0
LINE
  8
0
 62
     0
 10
-16.339301
 20
-67.250989
 30
0.0
 11
-4.268778
 21
-55.180466
 31
0.0
  0
LINE
  8
0
 62
     0
 10
-14.217981
 20
-67.250989
 30
0.0
 11
-4.268778
 21
-57.301787
 31
0.0
  0
LINE
  8
0
 62
     0
 10
-12.09666
 20
-67.250989
 30
0.0
 11
-4.268778
 21
-59.423107
 31
0.0
  0
LINE
  8
0
 62
     0
 10
-9.97534
 20
-67.250989
 30
0.0
 11
-4.268778
 21
-61.544427
 31
0.0
  0
LINE
  8
0
 62
     0
 10
-7.85402
 20
-67.250989
 30
0.0
 11
-4.268778
 21
-63.665748
 31
0.0
  0
LINE
  8
0
 62
     0
 10
-5.732699
 20
-67.250989
 30
0.0
 11
-4.268778
 21
-65.787068
 31
0.0
  0
ENDBLK
  8
0
  0
BLOCK
  8
0
  2
*X2
 70
    65
 10
0.0
 20
0.0
 30
0.0
  3
*X
  0
LINE
  8
0
 62
     0
 10
-9.308077
 20
-153.557861
 30
0.0
 11
-5.164329
 21
-149.414112
 31
0.0
  0
LINE
  8
0
 62
     0
 10
-0.164329
 20
-144.414112
 30
0.0
 11
6.691923
 21
-137.557861
 31
0.0
  0
LINE
  8
0
 62
     0
 10
-9.608062
 20
-151.736525
 30
0.0
 11
-7.285649
 21
-149.414112
 31
0.0
  0
LINE
  8
0
 62
     0
 10
-2.285649
 20
-144.414112
 30
0.0
 11
6.691923
 21
-135.43654
 31
0.0
  0
LINE
  8
0
 62
     0
 10
-9.608062
 20
-149.615204
 30
0.0
 11
-9.406969
 21
-149.414112
 31
0.0
  0
LINE
  8
0
 62
     0
 10
-4.406969
 20
-144.414112
 30
0.0
 11
5.093031
 21
-134.914112
 31
0.0
  0
LINE
  8
0
 62
     0
 10
-6.52829
 20
-144.414112
 30
0.0
 11
2.97171
 21
-134.914112
 31
0.0
  0
LINE
  8
0
 62
     0
 10
-8.64961
 20
-144.414112
 30
0.0
 11
0.85039
 21
-134.914112
 31
0.0
  0
LINE
  8
0
 62
     0
 10
-9.608062
 20
-143.251243
 30
0.0
 11
-1.27093
 21
-134.914112
 31
0.0
  0
LINE
  8
0
 62
     0
 10
-9.608062
 20
-141.129923
 30
0.0
 11
-3.392251
 21
-134.914112
 31
0.0
  0
LINE
  8
0
 62
     0
 10
-9.608062
 20
-139.008603
 30
0.0
 11
-5.308077
 21
-134.708618
 31
0.0
  0
LINE
  8
0
 62
     0
 10
-9.608062
 20
-136.887282
 30
0.0
 11
-5.308077
 21
-132.587298
 31
0.0
  0
LINE
  8
0
 62
     0
 10
-9.608062
 20
-134.765962
 30
0.0
 11
-5.308077
 21
-130.465978
 31
0.0
  0
LINE
  8
0
 62
     0
 10
-9.608062
 20
-132.644642
 30
0.0
 11
-5.877532
 21
-128.914112
 31
0.0
  0
LINE
  8
0
 62
     0
 10
-9.608062
 20
-130.523321
 30
0.0
 11
-7.998852
 21
-128.914112
 31
0.0
  0
LINE
  8
0
 62
     0
 10
-9.308077
 20
-155.679181
 30
0.0
 11
-3.043008
 21
-149.414112
 31
0.0
  0
LINE
  8
0
 62
     0
 10
1.956992
 20
-144.414112
 30
0.0
 11
6.691923
 21
-139.679181
 31
0.0
  0
LINE
  8
0
 62
     0
 10
-9.308077
 20
-157.800501
 30
0.0
 11
-0.921688
 21
-149.414112
 31
0.0
  0
LINE
  8
0
 62
     0
 10
4.078312
 20
-144.414112
 30
0.0
 11
6.691923
 21
-141.800501
 31
0.0
  0
LINE
  8
0
 62
     0
 10
-9.308077
 20
-159.921822
 30
0.0
 11
1.199632
 21
-149.414112
 31
0.0
  0
LINE
  8
0
 62
     0
 10
6.199632
 20
-144.414112
 30
0.0
 11
6.691923
 21
-143.921822
 31
0.0
  0
LINE
  8
0
 62
     0
 10
-9.308077
 20
-162.043142
 30
0.0
 11
3.320953
 21
-149.414112
 31
0.0
  0
LINE
  8
0
 62
     0
 10
-8.057727
 20
-162.914112
 30
0.0
 11
5.442273
 21
-149.414112
 31
0.0
  0
LINE
  8
0
 62
     0
 10
-5.936407
 20
-162.914112
 30
0.0
 11
6.691923
 21
-150.285783
 31
0.0
  0
LINE
  8
0
 62
     0
 10
-3.815086
 20
-162.914112
 30
0.0
 11
6.691923
 21
-152.407103
 31
0.0
  0
LINE
  8
0
 62
     0
 10
-1.693766
 20
-162.914112
 30
0.0
 11
6.691923
 21
-154.528424
 31
0.0
  0
LINE
  8
0
 62
     0
 10
0.427554
 20
-162.914112
 30
0.0
 11
6.691923
 21
-156.649744
 31
0.0
  0
LINE
  8
0
 62
     0
 10
2.548875
 20
-162.914112
 30
0.0
 11
6.691923
 21
-158.771064
 31
0.0
  0
LINE
  8
0
 62
     0
 10
4.670195
 20
-162.914112
 30
0.0
 11
6.691923
 21
-160.892385
 31
0.0
  0
ENDBLK
  8
0
  0
ENDSEC
  0
SECTION
  2
ENTITIES
  0
CIRCLE
  8
0
 10
-5.115945
 20
-10.552275
 30
0.0
 40
10.0
  0
CIRCLE
  8
0
 10
-5.115945
 20
-10.552275
 30
0.0
 40
12.7
  0
LINE
  8
0
 10
-14.115945
 20
34.060124
 30
0.0
 11
-14.115945
 21
38.360124
 31
0.0
  0
LINE
  8
0
 10
-15.115945
 20
39.360124
 30
0.0
 11
-5.115945
 21
39.360124
 31
0.0
  0
LINE
  8
0
 10
-14.115945
 20
38.360124
 30
0.0
 11
-5.115945
 21
38.360124
 31
0.0
  0
LINE
  8
0
 10
-8.115945
 20
14.560124
 30
0.0
 11
-8.115945
 21
34.060124
 31
0.0
  0
LINE
  8
0
 10
-15.115945
 20
34.060124
 30
0.0
 11
-5.115945
 21
34.060124
 31
0.0
  0
LINE
  8
0
 10
-15.115945
 20
34.060124
 30
0.0
 11
-15.115945
 21
40.560124
 31
0.0
  0
LINE
  8
0
 10
8.335721
 20
24.360124
 30
0.0
 11
8.335721
 21
39.760124
 31
0.0
  0
LINE
  8
0
 10
8.112389
 20
24.360124
 30
0.0
 11
8.112389
 21
39.760124
 31
0.0
  0
LINE
  8
0
 10
7.87663
 20
24.360124
 30
0.0
 11
7.87663
 21
39.760124
 31
0.0
  0
LINE
  8
0
 10
7.363369
 20
24.360124
 30
0.0
 11
7.363369
 21
39.760124
 31
0.0
  0
LINE
  8
0
 10
6.947954
 20
24.360124
 30
0.0
 11
6.947954
 21
39.760124
 31
0.0
  0
LINE
  8
0
 10
6.356359
 20
24.360124
 30
0.0
 11
6.356359
 21
39.760124
 31
0.0
  0
LINE
  8
0
 10
6.163314
 20
24.360124
 30
0.0
 11
6.163314
 21
39.760124
 31
0.0
  0
LINE
  8
0
 10
5.583257
 20
24.360124
 30
0.0
 11
5.583257
 21
39.760124
 31
0.0
  0
LINE
  8
0
 10
5.032678
 20
24.360124
 30
0.0
 11
5.032678
 21
39.760124
 31
0.0
  0
LINE
  8
0
 10
4.555597
 20
24.360124
 30
0.0
 11
4.555597
 21
39.760124
 31
0.0
  0
LINE
  8
0
 10
3.831863
 20
24.360124
 30
0.0
 11
3.831863
 21
39.760124
 31
0.0
  0
LINE
  8
0
 10
3.3422
 20
24.360124
 30
0.0
 11
3.3422
 21
39.760124
 31
0.0
  0
LINE
  8
0
 10
2.598325
 20
24.360124
 30
0.0
 11
2.598325
 21
39.760124
 31
0.0
  0
LINE
  8
0
 10
1.757072
 20
24.360124
 30
0.0
 11
1.757072
 21
39.760124
 31
0.0
  0
LINE
  8
0
 10
1.346021
 20
24.360124
 30
0.0
 11
1.346021
 21
39.760124
 31
0.0
  0
LINE
  8
0
 10
0.36224
 20
24.360124
 30
0.0
 11
0.36224
 21
39.760124
 31
0.0
  0
LINE
  8
0
 10
-0.566128
 20
24.360124
 30
0.0
 11
-0.566128
 21
39.760124
 31
0.0
  0
LINE
  8
0
 10
-0.883709
 20
24.360124
 30
0.0
 11
-0.883709
 21
39.760124
 31
0.0
  0
LINE
  8
0
 10
-2.071842
 20
24.360124
 30
0.0
 11
-2.071842
 21
39.760124
 31
0.0
  0
LINE
  8
0
 10
-3.053771
 20
24.360124
 30
0.0
 11
-3.053771
 21
39.760124
 31
0.0
  0
LINE
  8
0
 10
-3.266403
 20
24.360124
 30
0.0
 11
-3.266403
 21
39.760124
 31
0.0
  0
LINE
  8
0
 10
-4.515945
 20
24.360124
 30
0.0
 11
-4.515945
 21
39.760124
 31
0.0
  0
LINE
  8
0
 10
-4.615945
 20
24.360124
 30
0.0
 11
-4.615945
 21
39.760124
 31
0.0
  0
ARC
  8
0
 10
-5.115945
 20
-10.552275
 30
0.0
 40
13.5
 50
76.968358
 51
81.21346
  0
ARC
  8
0
 10
-5.115945
 20
-10.552275
 30
0.0
 40
12.9
 50
81.756791
 51
87.334118
  0
LINE
  8
0
 10
-3.053771
 20
2.789293
 30
0.0
 11
-3.266403
 21
2.214447
 31
0.0
  0
LINE
  8
0
 10
-2.071842
 20
2.600042
 30
0.0
 11
-2.088089
 21
1.987346
 31
0.0
  0
ARC
  8
0
 10
-5.115945
 20
-10.552275
 30
0.0
 40
13.5
 50
66.059267
 51
70.30437
  0
ARC
  8
0
 10
-5.115945
 20
-10.552275
 30
0.0
 40
12.9
 50
70.8477
 51
76.425027
  0
LINE
  8
0
 10
-0.566128
 20
2.157925
 30
0.0
 11
-0.883709
 21
1.633708
 31
0.0
  0
LINE
  8
0
 10
0.36224
 20
1.786262
 30
0.0
 11
0.230333
 21
1.187713
 31
0.0
  0
ARC
  8
0
 10
-5.115945
 20
-10.552275
 30
0.0
 40
13.5
 50
55.150176
 51
59.395279
  0
ARC
  8
0
 10
-5.115945
 20
-10.552275
 30
0.0
 40
12.9
 50
59.938609
 51
65.515936
  0
LINE
  8
0
 10
1.757072
 20
1.067176
 30
0.0
 11
1.346021
 21
0.612535
 31
0.0
  0
LINE
  8
0
 10
2.598325
 20
0.526535
 30
0.0
 11
2.355526
 21
-0.036233
 31
0.0
  0
ARC
  8
0
 10
-5.115945
 20
-10.552275
 30
0.0
 40
13.5
 50
44.241085
 51
48.486188
  0
ARC
  8
0
 10
-5.115945
 20
-10.552275
 30
0.0
 40
12.9
 50
49.029518
 51
54.606846
  0
LINE
  8
0
 10
3.831863
 20
-0.443529
 30
0.0
 11
3.3422
 21
-0.812162
 31
0.0
  0
LINE
  8
0
 10
4.555597
 20
-1.133608
 30
0.0
 11
4.21068
 21
-1.640257
 31
0.0
  0
ARC
  8
0
 10
-5.115945
 20
-10.552275
 30
0.0
 40
13.5
 50
33.331994
 51
37.577097
  0
ARC
  8
0
 10
-5.115945
 20
-10.552275
 30
0.0
 40
12.9
 50
38.120427
 51
43.697755
  0
LINE
  8
0
 10
5.583257
 20
-2.319591
 30
0.0
 11
5.032678
 21
-2.588893
 31
0.0
  0
LINE
  8
0
 10
6.163314
 20
-3.134167
 30
0.0
 11
5.728747
 21
-3.566384
 31
0.0
  0
ARC
  8
0
 10
-5.115945
 20
-10.552275
 30
0.0
 40
13.5
 50
22.422903
 51
26.668006
  0
ARC
  8
0
 10
-5.115945
 20
-10.552275
 30
0.0
 40
12.9
 50
27.211336
 51
32.788664
  0
LINE
  8
0
 10
6.947954
 20
-4.493204
 30
0.0
 11
6.356359
 21
-4.653442
 31
0.0
  0
LINE
  8
0
 10
7.363369
 20
-5.402836
 30
0.0
 11
6.854857
 21
-5.745
 31
0.0
  0
ARC
  8
0
 10
-5.115945
 20
-10.552275
 30
0.0
 40
13.5
 50
11.513812
 51
15.758915
  0
ARC
  8
0
 10
-5.115945
 20
-10.552275
 30
0.0
 40
12.9
 50
16.302245
 51
21.879573
  0
LINE
  8
0
 10
7.87663
 20
-6.885807
 30
0.0
 11
7.265401
 21
-6.931189
 31
0.0
  0
LINE
  8
0
 10
8.112389
 20
-7.857619
 30
0.0
 11
7.548312
 21
-8.097363
 31
0.0
  0
ARC
  8
0
 10
-5.115945
 20
-10.552275
 30
0.0
 40
13.5
 50
0.604721
 51
4.849824
  0
ARC
  8
0
 10
-5.115945
 20
-10.552275
 30
0.0
 40
12.9
 50
5.393154
 51
10.970482
  0
LINE
  8
0
 10
8.335721
 20
-9.410926
 30
0.0
 11
7.726949
 21
-9.339812
 31
0.0
  0
LINE
  8
0
 10
8.383303
 20
-10.409793
 30
0.0
 11
7.784048
 21
-10.538453
 31
0.0
  0
ARC
  8
0
 10
-5.115945
 20
-10.552275
 30
0.0
 40
13.5
 50
349.69563
 51
353.940733
  0
ARC
  8
0
 10
-5.115945
 20
-10.552275
 30
0.0
 40
12.9
 50
354.484064
 51
0.061391
  0
LINE
  8
0
 10
8.308634
 20
-11.977296
 30
0.0
 11
7.724322
 21
-11.792256
 31
0.0
  0
LINE
  8
0
 10
8.166319
 20
-12.967118
 30
0.0
 11
7.553544
 21
-12.980042
 31
0.0
  0
ARC
  8
0
 10
-5.115945
 20
-10.552275
 30
0.0
 40
13.5
 50
338.78654
 51
343.031642
  0
ARC
  8
0
 10
-5.115945
 20
-10.552275
 30
0.0
 40
12.9
 50
343.574973
 51
349.1523
  0
LINE
  8
0
 10
7.796347
 20
-14.492162
 30
0.0
 11
7.257613
 21
-14.199885
 31
0.0
  0
LINE
  8
0
 10
7.469279
 20
-15.437163
 30
0.0
 11
6.865132
 21
-15.333886
 31
0.0
  0
ARC
  8
0
 10
-5.115945
 20
-10.552275
 30
0.0
 40
13.5
 50
327.877449
 51
332.122551
  0
ARC
  8
0
 10
-5.115945
 20
-10.552275
 30
0.0
 40
12.9
 50
332.665882
 51
338.243209
  0
LINE
  8
0
 10
6.817376
 20
-16.864631
 30
0.0
 11
6.343692
 21
-16.475679
 31
0.0
  0
LINE
  8
0
 10
6.317376
 20
-17.730656
 30
0.0
 11
5.743692
 21
-17.51491
 31
0.0
  0
ARC
  8
0
 10
-5.115945
 20
-10.552275
 30
0.0
 40
13.5
 50
316.968358
 51
321.21346
  0
ARC
  8
0
 10
-5.115945
 20
-10.552275
 30
0.0
 40
12.9
 50
321.756791
 51
327.334118
  0
LINE
  8
0
 10
5.407104
 20
-19.008954
 30
0.0
 11
5.01559
 21
-18.537386
 31
0.0
  0
LINE
  8
0
 10
4.752244
 20
-19.764704
 30
0.0
 11
4.229757
 21
-19.444285
 31
0.0
  0
ARC
  8
0
 10
-5.115945
 20
-10.552275
 30
0.0
 40
13.5
 50
306.059267
 51
310.30437
  0
ARC
  8
0
 10
-5.115945
 20
-10.552275
 30
0.0
 40
12.9
 50
310.8477
 51
316.425027
  0
LINE
  8
0
 10
3.616502
 20
-20.847631
 30
0.0
 11
3.321308
 21
-20.31049
 31
0.0
  0
LINE
  8
0
 10
2.830449
 20
-21.46579
 30
0.0
 11
2.378044
 21
-21.052281
 31
0.0
  0
ARC
  8
0
 10
-5.115945
 20
-10.552275
 30
0.0
 40
13.5
 50
295.150176
 51
299.395279
  0
ARC
  8
0
 10
-5.115945
 20
-10.552275
 30
0.0
 40
12.9
 50
299.938609
 51
305.515936
  0
LINE
  8
0
 10
1.510286
 20
-22.314207
 30
0.0
 11
1.322081
 21
-21.730907
 31
0.0
  0
LINE
  8
0
 10
0.621451
 20
-22.772434
 30
0.0
 11
0.255478
 21
-22.280779
 31
0.0
  0
ARC
  8
0
 10
-5.115945
 20
-10.552275
 30
0.0
 40
13.5
 50
284.241085
 51
288.486188
  0
ARC
  8
0
 10
-5.115945
 20
-10.552275
 30
0.0
 40
12.9
 50
289.029518
 51
294.606846
  0
LINE
  8
0
 10
-0.835419
 20
-23.355676
 30
0.0
 11
-0.909833
 21
-22.747299
 31
0.0
  0
LINE
  8
0
 10
-1.794912
 20
-23.637409
 30
0.0
 11
-2.061224
 21
-23.085378
 31
0.0
  0
ARC
  8
0
 10
-5.115945
 20
-10.552275
 30
0.0
 40
13.5
 50
273.331994
 51
277.577097
  0
ARC
  8
0
 10
-5.115945
 20
-10.552275
 30
0.0
 40
12.9
 50
278.120427
 51
283.697755
  0
LINE
  8
0
 10
-3.335833
 20
-23.934397
 30
0.0
 11
-3.293766
 21
-23.322931
 31
0.0
  0
LINE
  8
0
 10
-4.331305
 20
-24.029453
 30
0.0
 11
-4.488332
 21
-23.436998
 31
0.0
  0
ARC
  8
0
 10
-5.115945
 20
-10.552275
 30
0.0
 40
13.5
 50
262.422903
 51
266.668006
  0
ARC
  8
0
 10
-5.115945
 20
-10.552275
 30
0.0
 40
12.9
 50
267.211336
 51
272.788664
  0
LINE
  8
0
 10
-5.900585
 20
-24.029453
 30
0.0
 11
-5.743558
 21
-23.436998
 31
0.0
  0
LINE
  8
0
 10
-6.896057
 20
-23.934397
 30
0.0
 11
-6.938124
 21
-23.322931
 31
0.0
  0
ARC
  8
0
 10
-5.115945
 20
-10.552275
 30
0.0
 40
13.5
 50
251.513812
 51
255.758915
  0
ARC
  8
0
 10
-5.115945
 20
-10.552275
 30
0.0
 40
12.9
 50
256.302245
 51
261.879573
  0
LINE
  8
0
 10
-8.436979
 20
-23.637409
 30
0.0
 11
-8.170666
 21
-23.085378
 31
0.0
  0
LINE
  8
0
 10
-9.396472
 20
-23.355676
 30
0.0
 11
-9.322058
 21
-22.747299
 31
0.0
  0
ARC
  8
0
 10
-5.115945
 20
-10.552275
 30
0.0
 40
13.5
 50
240.604721
 51
244.849824
  0
ARC
  8
0
 10
-5.115945
 20
-10.552275
 30
0.0
 40
12.9
 50
245.393154
 51
250.970482
  0
LINE
  8
0
 10
-10.853341
 20
-22.772434
 30
0.0
 11
-10.487369
 21
-22.280779
 31
0.0
  0
LINE
  8
0
 10
-11.742177
 20
-22.314207
 30
0.0
 11
-11.553971
 21
-21.730907
 31
0.0
  0
ARC
  8
0
 10
-5.115945
 20
-10.552275
 30
0.0
 40
13.5
 50
229.69563
 51
233.940733
  0
ARC
  8
0
 10
-5.115945
 20
-10.552275
 30
0.0
 40
12.9
 50
234.484064
 51
240.061391
  0
LINE
  8
0
 10
-13.062339
 20
-21.46579
 30
0.0
 11
-12.609934
 21
-21.052281
 31
0.0
  0
LINE
  8
0
 10
-13.848392
 20
-20.847631
 30
0.0
 11
-13.553198
 21
-20.31049
 31
0.0
  0
ARC
  8
0
 10
-5.115945
 20
-10.552275
 30
0.0
 40
13.5
 50
218.78654
 51
223.031642
  0
ARC
  8
0
 10
-5.115945
 20
-10.552275
 30
0.0
 40
12.9
 50
223.574973
 51
229.1523
  0
LINE
  8
0
 10
-14.984134
 20
-19.764704
 30
0.0
 11
-14.461647
 21
-19.444285
 31
0.0
  0
LINE
  8
0
 10
-15.638995
 20
-19.008954
 30
0.0
 11
-15.24748
 21
-18.537386
 31
0.0
  0
ARC
  8
0
 10
-5.115945
 20
-10.552275
 30
0.0
 40
13.5
 50
207.877449
 51
212.122551
  0
ARC
  8
0
 10
-5.115945
 20
-10.552275
 30
0.0
 40
12.9
 50
212.665882
 51
218.243209
  0
LINE
  8
0
 10
-16.549266
 20
-17.730656
 30
0.0
 11
-15.975582
 21
-17.51491
 31
0.0
  0
LINE
  8
0
 10
-17.049266
 20
-16.864631
 30
0.0
 11
-16.575582
 21
-16.475679
 31
0.0
  0
ARC
  8
0
 10
-5.115945
 20
-10.552275
 30
0.0
 40
13.5
 50
196.968358
 51
201.21346
  0
ARC
  8
0
 10
-5.115945
 20
-10.552275
 30
0.0
 40
12.9
 50
201.756791
 51
207.334118
  0
LINE
  8
0
 10
-17.701169
 20
-15.437163
 30
0.0
 11
-17.097022
 21
-15.333886
 31
0.0
  0
LINE
  8
0
 10
-18.028237
 20
-14.492162
 30
0.0
 11
-17.489503
 21
-14.199885
 31
0.0
  0
ARC
  8
0
 10
-5.115945
 20
-10.552275
 30
0.0
 40
13.5
 50
186.059267
 51
190.30437
  0
ARC
  8
0
 10
-5.115945
 20
-10.552275
 30
0.0
 40
12.9
 50
190.8477
 51
196.425027
  0
LINE
  8
0
 10
-18.398209
 20
-12.967118
 30
0.0
 11
-17.785434
 21
-12.980042
 31
0.0
  0
LINE
  8
0
 10
-18.540524
 20
-11.977296
 30
0.0
 11
-17.956212
 21
-11.792256
 31
0.0
  0
ARC
  8
0
 10
-5.115945
 20
-10.552275
 30
0.0
 40
13.5
 50
175.150176
 51
179.395279
  0
ARC
  8
0
 10
-5.115945
 20
-10.552275
 30
0.0
 40
12.9
 50
179.938609
 51
185.515936
  0
LINE
  8
0
 10
-18.615193
 20
-10.409793
 30
0.0
 11
-18.015938
 21
-10.538453
 31
0.0
  0
LINE
  8
0
 10
-18.567611
 20
-9.410926
 30
0.0
 11
-17.958839
 21
-9.339812
 31
0.0
  0
ARC
  8
0
 10
-5.115945
 20
-10.552275
 30
0.0
 40
13.5
 50
164.241085
 51
168.486188
  0
ARC
  8
0
 10
-5.115945
 20
-10.552275
 30
0.0
 40
12.9
 50
169.029518
 51
174.606846
  0
LINE
  8
0
 10
-18.344279
 20
-7.857619
 30
0.0
 11
-17.780202
 21
-8.097363
 31
0.0
  0
LINE
  8
0
 10
-18.10852
 20
-6.885807
 30
0.0
 11
-17.497291
 21
-6.931189
 31
0.0
  0
ARC
  8
0
 10
-5.115945
 20
-10.552275
 30
0.0
 40
13.5
 50
153.331994
 51
157.577097
  0
ARC
  8
0
 10
-5.115945
 20
-10.552275
 30
0.0
 40
12.9
 50
158.120427
 51
163.697755
  0
LINE
  8
0
 10
-17.595259
 20
-5.402836
 30
0.0
 11
-17.086747
 21
-5.745
 31
0.0
  0
LINE
  8
0
 10
-17.179844
 20
-4.493204
 30
0.0
 11
-16.588249
 21
-4.653442
 31
0.0
  0
ARC
  8
0
 10
-5.115945
 20
-10.552275
 30
0.0
 40
13.5
 50
142.422903
 51
146.668006
  0
ARC
  8
0
 10
-5.115945
 20
-10.552275
 30
0.0
 40
12.9
 50
147.211336
 51
152.788664
  0
LINE
  8
0
 10
-16.395204
 20
-3.134167
 30
0.0
 11
-15.960637
 21
-3.566384
 31
0.0
  0
LINE
  8
0
 10
-15.815147
 20
-2.319591
 30
0.0
 11
-15.264568
 21
-2.588893
 31
0.0
  0
ARC
  8
0
 10
-5.115945
 20
-10.552275
 30
0.0
 40
13.5
 50
131.513812
 51
135.758915
  0
ARC
  8
0
 10
-5.115945
 20
-10.552275
 30
0.0
 40
12.9
 50
136.302245
 51
141.879573
  0
LINE
  8
0
 10
-14.787487
 20
-1.133608
 30
0.0
 11
-14.442571
 21
-1.640257
 31
0.0
  0
LINE
  8
0
 10
-14.063753
 20
-0.443529
 30
0.0
 11
-13.57409
 21
-0.812162
 31
0.0
  0
ARC
  8
0
 10
-5.115945
 20
-10.552275
 30
0.0
 40
13.5
 50
120.604721
 51
124.849824
  0
ARC
  8
0
 10
-5.115945
 20
-10.552275
 30
0.0
 40
12.9
 50
125.393154
 51
130.970482
  0
LINE
  8
0
 10
-12.830215
 20
0.526535
 30
0.0
 11
-12.587416
 21
-0.036233
 31
0.0
  0
LINE
  8
0
 10
-11.988962
 20
1.067176
 30
0.0
 11
-11.577912
 21
0.612535
 31
0.0
  0
ARC
  8
0
 10
-5.115945
 20
-10.552275
 30
0.0
 40
13.5
 50
109.69563
 51
113.940733
  0
ARC
  8
0
 10
-5.115945
 20
-10.552275
 30
0.0
 40
12.9
 50
114.484064
 51
120.061391
  0
LINE
  8
0
 10
-10.59413
 20
1.786262
 30
0.0
 11
-10.462223
 21
1.187713
 31
0.0
  0
LINE
  8
0
 10
-9.665762
 20
2.157925
 30
0.0
 11
-9.348181
 21
1.633708
 31
0.0
  0
ARC
  8
0
 10
-5.115945
 20
-10.552275
 30
0.0
 40
13.5
 50
98.78654
 51
103.031642
  0
ARC
  8
0
 10
-5.115945
 20
-10.552275
 30
0.0
 40
12.9
 50
103.574973
 51
109.1523
  0
LINE
  8
0
 10
-8.160048
 20
2.600042
 30
0.0
 11
-8.143801
 21
1.987346
 31
0.0
  0
LINE
  8
0
 10
-7.17812
 20
2.789293
 30
0.0
 11
-6.965487
 21
2.214447
 31
0.0
  0
LINE
  8
0
 10
-4.615945
 20
2.938463
 30
0.0
 11
-4.515945
 21
2.333764
 31
0.0
  0
LINE
  8
0
 10
-5.615945
 20
2.938463
 30
0.0
 11
-5.715945
 21
2.333764
 31
0.0
  0
ARC
  8
0
 10
-5.115945
 20
-10.552275
 30
0.0
 40
12.9
 50
92.665882
 51
98.243209
  0
LINE
  8
0
  6
CENTER
 10
-5.115945
 20
12.947978
 30
0.0
 11
-5.115945
 21
42.066258
 31
0.0
  0
ARC
  8
0
 10
-5.115945
 20
-10.552275
 30
0.0
 40
13.5
 50
87.877449
 51
92.122551
  0
LINE
  8
0
 10
8.384055
 20
39.760124
 30
0.0
 11
-5.115945
 21
39.760124
 31
0.0
  0
LINE
  8
0
 10
7.584055
 20
40.560124
 30
0.0
 11
8.384055
 21
39.760124
 31
0.0
  0
LINE
  8
0
 10
-18.615945
 20
39.760124
 30
0.0
 11
-17.815945
 21
40.560124
 31
0.0
  0
LINE
  8
0
 10
-17.815945
 20
40.560124
 30
0.0
 11
7.584055
 21
40.560124
 31
0.0
  0
LINE
  8
0
 10
-17.815945
 20
23.560124
 30
0.0
 11
-17.615945
 21
23.560124
 31
0.0
  0
LINE
  8
0
 10
8.384055
 20
24.360124
 30
0.0
 11
8.384055
 21
39.760124
 31
0.0
  0
LINE
  8
0
 10
-18.615945
 20
24.360124
 30
0.0
 11
-18.615945
 21
39.760124
 31
0.0
  0
LINE
  8
0
 10
7.384055
 20
14.560124
 30
0.0
 11
-17.615945
 21
14.560124
 31
0.0
  0
LINE
  8
0
 10
-17.615945
 20
14.560124
 30
0.0
 11
-17.615945
 21
23.560124
 31
0.0
  0
LINE
  8
0
 10
7.384055
 20
14.560124
 30
0.0
 11
7.384055
 21
23.560124
 31
0.0
  0
LINE
  8
0
 10
-18.615945
 20
24.360124
 30
0.0
 11
-17.815945
 21
23.560124
 31
0.0
  0
LINE
  8
0
 10
7.584055
 20
23.560124
 30
0.0
 11
8.384055
 21
24.360124
 31
0.0
  0
LINE
  8
0
 10
8.384055
 20
24.360124
 30
0.0
 11
-5.115945
 21
24.360124
 31
0.0
  0
LINE
  8
0
 10
-5.115945
 20
23.560124
 30
0.0
 11
7.584055
 21
23.560124
 31
0.0
  0
CIRCLE
  8
0
 10
48.459222
 20
-10.348839
 30
0.0
 40
12.5
  0
CIRCLE
  8
0
 10
48.459222
 20
-10.348839
 30
0.0
 40
16.2
  0
LINE
  8
0
 10
36.959222
 20
43.260201
 30
0.0
 11
36.959222
 21
47.560201
 31
0.0
  0
LINE
  8
0
 10
35.959222
 20
48.560201
 30
0.0
 11
48.459222
 21
48.560201
 31
0.0
  0
LINE
  8
0
 10
36.959222
 20
47.560201
 30
0.0
 11
48.459222
 21
47.560201
 31
0.0
  0
LINE
  8
0
 10
45.459222
 20
19.460201
 30
0.0
 11
45.459222
 21
43.260201
 31
0.0
  0
LINE
  8
0
 10
35.959222
 20
43.260201
 30
0.0
 11
48.459222
 21
43.260201
 31
0.0
  0
LINE
  8
0
 10
35.959222
 20
43.260201
 30
0.0
 11
35.959222
 21
49.460201
 31
0.0
  0
LINE
  8
0
 10
65.420246
 20
30.260201
 30
0.0
 11
65.420246
 21
48.660201
 31
0.0
  0
LINE
  8
0
 10
65.236239
 20
30.260201
 30
0.0
 11
65.236239
 21
48.660201
 31
0.0
  0
LINE
  8
0
 10
64.62069
 20
30.260201
 30
0.0
 11
64.62069
 21
48.660201
 31
0.0
  0
LINE
  8
0
 10
65.045848
 20
30.260201
 30
0.0
 11
65.045848
 21
48.660201
 31
0.0
  0
LINE
  8
0
 10
64.282673
 20
30.260201
 30
0.0
 11
64.282673
 21
48.660201
 31
0.0
  0
LINE
  8
0
 10
63.626329
 20
30.260201
 30
0.0
 11
63.626329
 21
48.660201
 31
0.0
  0
LINE
  8
0
 10
63.148609
 20
30.260201
 30
0.0
 11
63.148609
 21
48.660201
 31
0.0
  0
LINE
  8
0
 10
62.482635
 20
30.260201
 30
0.0
 11
62.482635
 21
48.660201
 31
0.0
  0
LINE
  8
0
 10
62.276464
 20
30.260201
 30
0.0
 11
62.276464
 21
48.660201
 31
0.0
  0
LINE
  8
0
 10
61.670239
 20
30.260201
 30
0.0
 11
61.670239
 21
48.660201
 31
0.0
  0
LINE
  8
0
 10
61.049975
 20
30.260201
 30
0.0
 11
61.049975
 21
48.660201
 31
0.0
  0
LINE
  8
0
 10
60.602735
 20
30.260201
 30
0.0
 11
60.602735
 21
48.660201
 31
0.0
  0
LINE
  8
0
 10
59.882214
 20
30.260201
 30
0.0
 11
59.882214
 21
48.660201
 31
0.0
  0
LINE
  8
0
 10
59.322199
 20
30.260201
 30
0.0
 11
59.322199
 21
48.660201
 31
0.0
  0
LINE
  8
0
 10
58.644373
 20
30.260201
 30
0.0
 11
58.644373
 21
48.660201
 31
0.0
  0
LINE
  8
0
 10
57.826443
 20
30.260201
 30
0.0
 11
57.826443
 21
48.660201
 31
0.0
  0
LINE
  8
0
 10
57.339803
 20
30.260201
 30
0.0
 11
57.339803
 21
48.660201
 31
0.0
  0
LINE
  8
0
 10
56.447279
 20
30.260201
 30
0.0
 11
56.447279
 21
48.660201
 31
0.0
  0
LINE
  8
0
 10
55.551113
 20
30.260201
 30
0.0
 11
55.551113
 21
48.660201
 31
0.0
  0
LINE
  8
0
 10
55.149254
 20
30.260201
 30
0.0
 11
55.149254
 21
48.660201
 31
0.0
  0
LINE
  8
0
 10
54.062951
 20
30.260201
 30
0.0
 11
54.062951
 21
48.660201
 31
0.0
  0
LINE
  8
0
 10
53.109555
 20
30.260201
 30
0.0
 11
53.109555
 21
48.660201
 31
0.0
  0
LINE
  8
0
 10
52.801897
 20
30.260201
 30
0.0
 11
52.801897
 21
48.660201
 31
0.0
  0
LINE
  8
0
 10
51.547277
 20
30.260201
 30
0.0
 11
51.547277
 21
48.660201
 31
0.0
  0
LINE
  8
0
 10
50.558997
 20
30.260201
 30
0.0
 11
50.558997
 21
48.660201
 31
0.0
  0
LINE
  8
0
 10
50.352751
 20
30.260201
 30
0.0
 11
50.352751
 21
48.660201
 31
0.0
  0
LINE
  8
0
 10
49.059222
 20
30.260201
 30
0.0
 11
49.059222
 21
48.660201
 31
0.0
  0
LINE
  8
0
 10
48.959222
 20
30.260201
 30
0.0
 11
48.959222
 21
48.660201
 31
0.0
  0
LINE
  8
0
 10
65.459222
 20
48.660201
 30
0.0
 11
48.459222
 21
48.660201
 31
0.0
  0
LINE
  8
0
 10
64.659222
 20
49.460201
 30
0.0
 11
65.459222
 21
48.660201
 31
0.0
  0
LINE
  8
0
 10
31.459222
 20
48.660201
 30
0.0
 11
32.259222
 21
49.460201
 31
0.0
  0
ARC
  8
0
 10
48.459222
 20
-10.348839
 30
0.0
 40
17.0
 50
79.534099
 51
82.904925
  0
ARC
  8
0
 10
48.459222
 20
-10.348839
 30
0.0
 40
16.3
 50
74.548548
 51
79.109989
  0
LINE
  8
0
 10
50.352751
 20
5.840805
 30
0.0
 11
50.558997
 21
6.520985
 31
0.0
  0
LINE
  8
0
 10
51.538687
 20
5.657625
 30
0.0
 11
51.547277
 21
6.368336
 31
0.0
  0
ARC
  8
0
 10
48.459222
 20
-10.348839
 30
0.0
 40
17.0
 50
70.753611
 51
74.124437
  0
ARC
  8
0
 10
48.459222
 20
-10.348839
 30
0.0
 40
16.3
 50
65.76806
 51
70.329501
  0
LINE
  8
0
 10
52.801897
 20
5.362023
 30
0.0
 11
53.109555
 21
6.002749
 31
0.0
  0
LINE
  8
0
 10
53.945972
 20
4.999958
 30
0.0
 11
54.062951
 21
5.701028
 31
0.0
  0
ARC
  8
0
 10
48.459222
 20
-10.348839
 30
0.0
 40
17.0
 50
61.973124
 51
65.34395
  0
ARC
  8
0
 10
48.459222
 20
-10.348839
 30
0.0
 40
16.3
 50
56.987572
 51
61.549013
  0
LINE
  8
0
 10
55.149254
 20
4.514992
 30
0.0
 11
55.551113
 21
5.101245
 31
0.0
  0
LINE
  8
0
 10
56.224653
 20
3.982528
 30
0.0
 11
56.447279
 21
4.657525
 31
0.0
  0
ARC
  8
0
 10
48.459222
 20
-10.348839
 30
0.0
 40
17.0
 50
53.192636
 51
56.563462
  0
ARC
  8
0
 10
48.459222
 20
-10.348839
 30
0.0
 40
16.3
 50
48.207085
 51
52.768525
  0
LINE
  8
0
 10
57.339803
 20
3.319566
 30
0.0
 11
57.826443
 21
3.837604
 31
0.0
  0
LINE
  8
0
 10
58.321318
 20
2.629183
 30
0.0
 11
58.644373
 21
3.262286
 31
0.0
  0
ARC
  8
0
 10
48.459222
 20
-10.348839
 30
0.0
 40
17.0
 50
44.412148
 51
47.782974
  0
ARC
  8
0
 10
48.459222
 20
-10.348839
 30
0.0
 40
16.3
 50
39.426597
 51
43.988037
  0
LINE
  8
0
 10
59.322199
 20
1.803763
 30
0.0
 11
59.882214
 21
2.241446
 31
0.0
  0
LINE
  8
0
 10
60.186824
 20
0.971644
 30
0.0
 11
60.602735
 21
1.548013
 31
0.0
  0
ARC
  8
0
 10
48.459222
 20
-10.348839
 30
0.0
 40
17.0
 50
35.63166
 51
39.002486
  0
ARC
  8
0
 10
48.459222
 20
-10.348839
 30
0.0
 40
16.3
 50
30.646109
 51
35.20755
  0
LINE
  8
0
 10
61.049975
 20
0.003115
 30
0.0
 11
61.670239
 21
0.350181
 31
0.0
  0
LINE
  8
0
 10
61.777446
 20
-0.951237
 30
0.0
 11
62.276464
 21
-0.445112
 31
0.0
  0
ARC
  8
0
 10
48.459222
 20
-10.348839
 30
0.0
 40
17.0
 50
26.851172
 51
30.221998
  0
ARC
  8
0
 10
48.459222
 20
-10.348839
 30
0.0
 40
16.3
 50
21.865621
 51
26.427062
  0
LINE
  8
0
 10
62.482635
 20
-2.040175
 30
0.0
 11
63.148609
 21
-1.791859
 31
0.0
  0
LINE
  8
0
 10
63.055899
 20
-3.09439
 30
0.0
 11
63.626329
 21
-2.670371
 31
0.0
  0
ARC
  8
0
 10
48.459222
 20
-10.348839
 30
0.0
 40
17.0
 50
18.070685
 51
21.441511
  0
ARC
  8
0
 10
48.459222
 20
-10.348839
 30
0.0
 40
16.3
 50
13.085133
 51
17.646574
  0
LINE
  8
0
 10
63.586598
 20
-4.278213
 30
0.0
 11
64.282673
 21
-4.134468
 31
0.0
  0
LINE
  8
0
 10
63.992218
 20
-5.407582
 30
0.0
 11
64.62069
 21
-5.075608
 31
0.0
  0
ARC
  8
0
 10
48.459222
 20
-10.348839
 30
0.0
 40
17.0
 50
9.290197
 51
12.661023
  0
ARC
  8
0
 10
48.459222
 20
-10.348839
 30
0.0
 40
16.3
 50
4.304646
 51
8.866086
  0
LINE
  8
0
 10
64.335988
 20
-6.658542
 30
0.0
 11
65.045848
 21
-6.622736
 31
0.0
  0
LINE
  8
0
 10
64.564458
 20
-7.836592
 30
0.0
 11
65.236239
 21
-7.604444
 31
0.0
  0
ARC
  8
0
 10
48.459222
 20
-10.348839
 30
0.0
 40
17.0
 50
0.509709
 51
3.880535
  0
ARC
  8
0
 10
48.459222
 20
-10.348839
 30
0.0
 40
16.3
 50
355.524158
 51
0.085598
  0
LINE
  8
0
 10
64.71324
 20
-9.125367
 30
0.0
 11
65.420246
 21
-9.198341
 31
0.0
  0
LINE
  8
0
 10
64.759204
 20
-10.324487
 30
0.0
 11
65.458549
 21
-10.197607
 31
0.0
  0
ARC
  8
0
 10
48.459222
 20
-10.348839
 30
0.0
 40
17.0
 50
351.729221
 51
355.100047
  0
ARC
  8
0
 10
48.459222
 20
-10.348839
 30
0.0
 40
16.3
 50
346.74367
 51
351.30511
  0
LINE
  8
0
 10
64.709512
 20
-11.62087
 30
0.0
 11
65.397093
 21
-11.800912
 31
0.0
  0
LINE
  8
0
 10
64.571892
 20
-12.812953
 30
0.0
 11
65.28241
 21
-12.794314
 31
0.0
  0
ARC
  8
0
 10
48.459222
 20
-10.348839
 30
0.0
 40
17.0
 50
342.948733
 51
346.319559
  0
ARC
  8
0
 10
48.459222
 20
-10.348839
 30
0.0
 40
16.3
 50
337.963182
 51
342.524623
  0
LINE
  8
0
 10
64.324891
 20
-14.086558
 30
0.0
 11
64.97693
 21
-14.369449
 31
0.0
  0
LINE
  8
0
 10
64.006913
 20
-15.243662
 30
0.0
 11
64.711949
 21
-15.333702
 31
0.0
  0
ARC
  8
0
 10
48.459222
 20
-10.348839
 30
0.0
 40
17.0
 50
334.168245
 51
337.539072
  0
ARC
  8
0
 10
48.459222
 20
-10.348839
 30
0.0
 40
16.3
 50
329.182694
 51
333.744135
  0
LINE
  8
0
 10
63.568392
 20
-16.464636
 30
0.0
 11
64.169607
 21
-16.843745
 31
0.0
  0
LINE
  8
0
 10
63.07751
 20
-17.559641
 30
0.0
 11
63.760538
 21
-17.756249
 31
0.0
  0
ARC
  8
0
 10
48.459222
 20
-10.348839
 30
0.0
 40
17.0
 50
325.387758
 51
328.758584
  0
ARC
  8
0
 10
48.459222
 20
-10.348839
 30
0.0
 40
16.3
 50
320.402207
 51
324.963647
  0
LINE
  8
0
 10
62.457747
 20
-18.699366
 30
0.0
 11
62.994045
 21
-19.165807
 31
0.0
  0
LINE
  8
0
 10
61.805466
 20
-19.706604
 30
0.0
 11
62.450477
 21
-20.005172
 31
0.0
  0
ARC
  8
0
 10
48.459222
 20
-10.348839
 30
0.0
 40
17.0
 50
316.60727
 51
319.978096
  0
ARC
  8
0
 10
48.459222
 20
-10.348839
 30
0.0
 40
16.3
 50
311.621719
 51
316.183159
  0
LINE
  8
0
 10
61.018988
 20
-20.738366
 30
0.0
 11
61.477799
 21
-21.281206
 31
0.0
  0
LINE
  8
0
 10
60.220597
 20
-21.63423
 30
0.0
 11
60.812473
 21
-22.027759
 31
0.0
  0
ARC
  8
0
 10
48.459222
 20
-10.348839
 30
0.0
 40
17.0
 50
307.826782
 51
311.197608
  0
ARC
  8
0
 10
48.459222
 20
-10.348839
 30
0.0
 40
16.3
 50
302.841231
 51
307.402671
  0
LINE
  8
0
 10
59.285839
 20
-22.533844
 30
0.0
 11
59.656409
 21
-23.14036
 31
0.0
  0
LINE
  8
0
 10
58.360052
 20
-23.297335
 30
0.0
 11
58.88492
 21
-23.776602
 31
0.0
  0
ARC
  8
0
 10
48.459222
 20
-10.348839
 30
0.0
 40
17.0
 50
299.046294
 51
302.41712
  0
ARC
  8
0
 10
48.459222
 20
-10.348839
 30
0.0
 40
16.3
 50
294.060743
 51
298.622184
  0
LINE
  8
0
 10
57.298923
 20
-24.043717
 30
0.0
 11
57.572566
 21
-24.699691
 31
0.0
  0
LINE
  8
0
 10
56.26744
 20
-24.656939
 30
0.0
 11
56.712996
 21
-25.21071
 31
0.0
  0
ARC
  8
0
 10
48.459222
 20
-10.348839
 30
0.0
 40
17.0
 50
290.265806
 51
293.636633
  0
ARC
  8
0
 10
48.459222
 20
-10.348839
 30
0.0
 40
16.3
 50
285.280255
 51
289.841696
  0
LINE
  8
0
 10
55.104812
 20
-25.232593
 30
0.0
 11
55.275114
 21
-25.92265
 31
0.0
  0
LINE
  8
0
 10
53.991809
 20
-25.681173
 30
0.0
 11
54.347612
 21
-26.296467
 31
0.0
  0
ARC
  8
0
 10
48.459222
 20
-10.348839
 30
0.0
 40
17.0
 50
281.485319
 51
284.856145
  0
ARC
  8
0
 10
48.459222
 20
-10.348839
 30
0.0
 40
16.3
 50
276.499768
 51
281.061208
  0
LINE
  8
0
 10
52.754934
 20
-26.072606
 30
0.0
 11
52.817903
 21
-26.780573
 31
0.0
  0
LINE
  8
0
 10
51.5865
 20
-26.34603
 30
0.0
 11
51.844208
 21
-27.008427
 31
0.0
  0
ARC
  8
0
 10
48.459222
 20
-10.348839
 30
0.0
 40
17.0
 50
272.704831
 51
276.075657
  0
ARC
  8
0
 10
48.459222
 20
-10.348839
 30
0.0
 40
16.3
 50
267.71928
 51
272.28072
  0
LINE
  8
0
 10
50.304369
 20
-26.544067
 30
0.0
 11
50.258529
 21
-27.25335
 31
0.0
  0
LINE
  8
0
 10
49.10789
 20
-26.635926
 30
0.0
 11
49.261463
 21
-27.329899
 31
0.0
  0
ARC
  8
0
 10
48.459222
 20
-10.348839
 30
0.0
 40
17.0
 50
263.924343
 51
267.295169
  0
ARC
  8
0
 10
48.459222
 20
-10.348839
 30
0.0
 40
16.3
 50
258.938792
 51
263.500232
  0
LINE
  8
0
 10
47.810554
 20
-26.635926
 30
0.0
 11
47.65698
 21
-27.329899
 31
0.0
  0
LINE
  8
0
 10
46.614075
 20
-26.544067
 30
0.0
 11
46.659915
 21
-27.25335
 31
0.0
  0
ARC
  8
0
 10
48.459222
 20
-10.348839
 30
0.0
 40
17.0
 50
255.143855
 51
258.514681
  0
ARC
  8
0
 10
48.459222
 20
-10.348839
 30
0.0
 40
16.3
 50
250.158304
 51
254.719745
  0
LINE
  8
0
 10
45.331944
 20
-26.34603
 30
0.0
 11
45.074236
 21
-27.008427
 31
0.0
  0
LINE
  8
0
 10
44.163509
 20
-26.072606
 30
0.0
 11
44.10054
 21
-26.780573
 31
0.0
  0
ARC
  8
0
 10
48.459222
 20
-10.348839
 30
0.0
 40
17.0
 50
246.363367
 51
249.734194
  0
ARC
  8
0
 10
48.459222
 20
-10.348839
 30
0.0
 40
16.3
 50
241.377816
 51
245.939257
  0
LINE
  8
0
 10
42.926635
 20
-25.681173
 30
0.0
 11
42.570832
 21
-26.296467
 31
0.0
  0
LINE
  8
0
 10
41.813632
 20
-25.232593
 30
0.0
 11
41.64333
 21
-25.92265
 31
0.0
  0
ARC
  8
0
 10
48.459222
 20
-10.348839
 30
0.0
 40
17.0
 50
237.58288
 51
240.953706
  0
ARC
  8
0
 10
48.459222
 20
-10.348839
 30
0.0
 40
16.3
 50
232.597329
 51
237.158769
  0
LINE
  8
0
 10
40.651004
 20
-24.656939
 30
0.0
 11
40.205447
 21
-25.21071
 31
0.0
  0
LINE
  8
0
 10
39.619521
 20
-24.043717
 30
0.0
 11
39.345878
 21
-24.699691
 31
0.0
  0
ARC
  8
0
 10
48.459222
 20
-10.348839
 30
0.0
 40
17.0
 50
228.802392
 51
232.173218
  0
ARC
  8
0
 10
48.459222
 20
-10.348839
 30
0.0
 40
16.3
 50
223.816841
 51
228.378281
  0
LINE
  8
0
 10
38.558392
 20
-23.297335
 30
0.0
 11
38.033524
 21
-23.776602
 31
0.0
  0
LINE
  8
0
 10
37.632605
 20
-22.533844
 30
0.0
 11
37.262035
 21
-23.14036
 31
0.0
  0
ARC
  8
0
 10
48.459222
 20
-10.348839
 30
0.0
 40
17.0
 50
220.021904
 51
223.39273
  0
ARC
  8
0
 10
48.459222
 20
-10.348839
 30
0.0
 40
16.3
 50
215.036353
 51
219.597793
  0
LINE
  8
0
 10
36.697847
 20
-21.63423
 30
0.0
 11
36.105971
 21
-22.027759
 31
0.0
  0
LINE
  8
0
 10
35.899456
 20
-20.738366
 30
0.0
 11
35.440645
 21
-21.281206
 31
0.0
  0
ARC
  8
0
 10
48.459222
 20
-10.348839
 30
0.0
 40
17.0
 50
211.241416
 51
214.612242
  0
ARC
  8
0
 10
48.459222
 20
-10.348839
 30
0.0
 40
16.3
 50
206.255865
 51
210.817306
  0
LINE
  8
0
 10
35.112978
 20
-19.706604
 30
0.0
 11
34.467967
 21
-20.005172
 31
0.0
  0
LINE
  8
0
 10
34.460697
 20
-18.699366
 30
0.0
 11
33.924399
 21
-19.165807
 31
0.0
  0
ARC
  8
0
 10
48.459222
 20
-10.348839
 30
0.0
 40
17.0
 50
202.460928
 51
205.831755
  0
ARC
  8
0
 10
48.459222
 20
-10.348839
 30
0.0
 40
16.3
 50
197.475377
 51
202.036818
  0
LINE
  8
0
 10
33.840934
 20
-17.559641
 30
0.0
 11
33.157906
 21
-17.756249
 31
0.0
  0
LINE
  8
0
 10
33.350052
 20
-16.464636
 30
0.0
 11
32.748837
 21
-16.843745
 31
0.0
  0
ARC
  8
0
 10
48.459222
 20
-10.348839
 30
0.0
 40
17.0
 50
193.680441
 51
197.051267
  0
ARC
  8
0
 10
48.459222
 20
-10.348839
 30
0.0
 40
16.3
 50
188.69489
 51
193.25633
  0
LINE
  8
0
 10
32.911531
 20
-15.243662
 30
0.0
 11
32.206495
 21
-15.333702
 31
0.0
  0
LINE
  8
0
 10
32.593553
 20
-14.086558
 30
0.0
 11
31.941513
 21
-14.369449
 31
0.0
  0
ARC
  8
0
 10
48.459222
 20
-10.348839
 30
0.0
 40
17.0
 50
184.899953
 51
188.270779
  0
ARC
  8
0
 10
48.459222
 20
-10.348839
 30
0.0
 40
16.3
 50
179.914402
 51
184.475842
  0
LINE
  8
0
 10
32.346552
 20
-12.812953
 30
0.0
 11
31.636034
 21
-12.794314
 31
0.0
  0
LINE
  8
0
 10
32.208932
 20
-11.62087
 30
0.0
 11
31.521351
 21
-11.800912
 31
0.0
  0
ARC
  8
0
 10
48.459222
 20
-10.348839
 30
0.0
 40
17.0
 50
176.119465
 51
179.490291
  0
ARC
  8
0
 10
48.459222
 20
-10.348839
 30
0.0
 40
16.3
 50
171.133914
 51
175.695354
  0
LINE
  8
0
 10
32.15924
 20
-10.324487
 30
0.0
 11
31.459895
 21
-10.197607
 31
0.0
  0
LINE
  8
0
 10
32.205203
 20
-9.125367
 30
0.0
 11
31.498197
 21
-9.198341
 31
0.0
  0
ARC
  8
0
 10
48.459222
 20
-10.348839
 30
0.0
 40
17.0
 50
167.338977
 51
170.709803
  0
ARC
  8
0
 10
48.459222
 20
-10.348839
 30
0.0
 40
16.3
 50
162.353426
 51
166.914867
  0
LINE
  8
0
 10
32.353986
 20
-7.836592
 30
0.0
 11
31.682205
 21
-7.604444
 31
0.0
  0
LINE
  8
0
 10
32.582456
 20
-6.658542
 30
0.0
 11
31.872596
 21
-6.622736
 31
0.0
  0
ARC
  8
0
 10
48.459222
 20
-10.348839
 30
0.0
 40
17.0
 50
158.558489
 51
161.929315
  0
ARC
  8
0
 10
48.459222
 20
-10.348839
 30
0.0
 40
16.3
 50
153.572938
 51
158.134379
  0
LINE
  8
0
 10
32.926225
 20
-5.407582
 30
0.0
 11
32.297754
 21
-5.075608
 31
0.0
  0
LINE
  8
0
 10
33.331846
 20
-4.278213
 30
0.0
 11
32.635771
 21
-4.134468
 31
0.0
  0
ARC
  8
0
 10
48.459222
 20
-10.348839
 30
0.0
 40
17.0
 50
149.778002
 51
153.148828
  0
ARC
  8
0
 10
48.459222
 20
-10.348839
 30
0.0
 40
16.3
 50
144.79245
 51
149.353891
  0
LINE
  8
0
 10
33.862545
 20
-3.09439
 30
0.0
 11
33.292115
 21
-2.670371
 31
0.0
  0
LINE
  8
0
 10
34.435809
 20
-2.040175
 30
0.0
 11
33.769835
 21
-1.791859
 31
0.0
  0
ARC
  8
0
 10
48.459222
 20
-10.348839
 30
0.0
 40
17.0
 50
140.997514
 51
144.36834
  0
ARC
  8
0
 10
48.459222
 20
-10.348839
 30
0.0
 40
16.3
 50
136.011963
 51
140.573403
  0
LINE
  8
0
 10
35.140998
 20
-0.951237
 30
0.0
 11
34.641979
 21
-0.445112
 31
0.0
  0
LINE
  8
0
 10
35.868469
 20
0.003115
 30
0.0
 11
35.248205
 21
0.350181
 31
0.0
  0
ARC
  8
0
 10
48.459222
 20
-10.348839
 30
0.0
 40
17.0
 50
132.217026
 51
135.587852
  0
ARC
  8
0
 10
48.459222
 20
-10.348839
 30
0.0
 40
16.3
 50
127.231475
 51
131.792915
  0
LINE
  8
0
 10
36.731619
 20
0.971644
 30
0.0
 11
36.315708
 21
1.548013
 31
0.0
  0
LINE
  8
0
 10
37.596245
 20
1.803763
 30
0.0
 11
37.03623
 21
2.241446
 31
0.0
  0
ARC
  8
0
 10
48.459222
 20
-10.348839
 30
0.0
 40
17.0
 50
123.436538
 51
126.807364
  0
ARC
  8
0
 10
48.459222
 20
-10.348839
 30
0.0
 40
16.3
 50
118.450987
 51
123.012428
  0
LINE
  8
0
 10
38.597125
 20
2.629183
 30
0.0
 11
38.274071
 21
3.262286
 31
0.0
  0
LINE
  8
0
 10
39.578641
 20
3.319566
 30
0.0
 11
39.092001
 21
3.837604
 31
0.0
  0
ARC
  8
0
 10
48.459222
 20
-10.348839
 30
0.0
 40
17.0
 50
114.65605
 51
118.026876
  0
ARC
  8
0
 10
48.459222
 20
-10.348839
 30
0.0
 40
16.3
 50
109.670499
 51
114.23194
  0
LINE
  8
0
 10
40.693791
 20
3.982528
 30
0.0
 11
40.471165
 21
4.657525
 31
0.0
  0
LINE
  8
0
 10
41.76919
 20
4.514992
 30
0.0
 11
41.367331
 21
5.101245
 31
0.0
  0
ARC
  8
0
 10
48.459222
 20
-10.348839
 30
0.0
 40
17.0
 50
105.875563
 51
109.246389
  0
ARC
  8
0
 10
48.459222
 20
-10.348839
 30
0.0
 40
16.3
 50
100.890011
 51
105.451452
  0
LINE
  8
0
 10
42.972471
 20
4.999958
 30
0.0
 11
42.855493
 21
5.701028
 31
0.0
  0
LINE
  8
0
 10
44.116547
 20
5.362023
 30
0.0
 11
43.808889
 21
6.002749
 31
0.0
  0
ARC
  8
0
 10
48.459222
 20
-10.348839
 30
0.0
 40
17.0
 50
97.095075
 51
100.465901
  0
ARC
  8
0
 10
48.459222
 20
-10.348839
 30
0.0
 40
16.3
 50
92.109524
 51
96.670964
  0
LINE
  8
0
 10
45.379757
 20
5.657625
 30
0.0
 11
45.371167
 21
6.368336
 31
0.0
  0
LINE
  8
0
 10
46.565693
 20
5.840805
 30
0.0
 11
46.359447
 21
6.520985
 31
0.0
  0
LINE
  8
0
 10
49.059222
 20
5.940115
 30
0.0
 11
48.959222
 21
6.643807
 31
0.0
  0
LINE
  8
0
 10
47.859222
 20
5.940115
 30
0.0
 11
47.959222
 21
6.643807
 31
0.0
  0
ARC
  8
0
 10
48.459222
 20
-10.348839
 30
0.0
 40
16.3
 50
83.329036
 51
87.890476
  0
ARC
  8
0
 10
48.459222
 20
-10.348839
 30
0.0
 40
17.0
 50
88.314587
 51
91.685413
  0
LINE
  8
0
 10
32.259222
 20
49.460201
 30
0.0
 11
64.659222
 21
49.460201
 31
0.0
  0
LINE
  8
0
 10
32.259222
 20
29.460201
 30
0.0
 11
32.459222
 21
29.460201
 31
0.0
  0
LINE
  8
0
 10
65.459222
 20
30.260201
 30
0.0
 11
65.459222
 21
48.660201
 31
0.0
  0
LINE
  8
0
 10
31.459222
 20
30.260201
 30
0.0
 11
31.459222
 21
48.660201
 31
0.0
  0
LINE
  8
0
  6
CENTER
 10
48.459222
 20
17.539567
 30
0.0
 11
48.459222
 21
51.218383
 31
0.0
  0
LINE
  8
0
 10
32.459222
 20
19.460201
 30
0.0
 11
64.459222
 21
19.460201
 31
0.0
  0
LINE
  8
0
 10
32.459222
 20
29.460201
 30
0.0
 11
32.459222
 21
19.460201
 31
0.0
  0
LINE
  8
0
 10
64.459222
 20
29.460201
 30
0.0
 11
64.459222
 21
19.460201
 31
0.0
  0
LINE
  8
0
 10
31.459222
 20
30.260201
 30
0.0
 11
32.259222
 21
29.460201
 31
0.0
  0
LINE
  8
0
 10
64.659222
 20
29.460201
 30
0.0
 11
65.459222
 21
30.260201
 31
0.0
  0
LINE
  8
0
 10
65.459222
 20
30.260201
 30
0.0
 11
48.459222
 21
30.260201
 31
0.0
  0
LINE
  8
0
 10
48.459222
 20
29.460201
 30
0.0
 11
64.659222
 21
29.460201
 31
0.0
  0
LINE
  8
0
 10
32.159222
 20
29.560201
 30
0.0
 11
32.159222
 21
49.360201
 31
0.0
  0
LINE
  8
0
 10
-18.015945
 20
23.760124
 30
0.0
 11
-18.015945
 21
40.360124
 31
0.0
  0
LINE
  8
0
 10
-8.115945
 20
30.560124
 30
0.0
 11
-18.015945
 21
30.560124
 31
0.0
  0
LINE
  8
0
 10
-8.115945
 20
26.560124
 30
0.0
 11
-18.015945
 21
26.560124
 31
0.0
  0
LINE
  8
0
 10
-8.115945
 20
30.210124
 30
0.0
 11
-18.015945
 21
30.210124
 31
0.0
  0
LINE
  8
0
 10
-8.115945
 20
26.910124
 30
0.0
 11
-18.015945
 21
26.910124
 31
0.0
  0
LINE
  8
0
 10
-17.015945
 20
26.910124
 30
0.0
 11
-17.015945
 21
30.210124
 31
0.0
  0
LINE
  8
0
 10
-9.015945
 20
26.910124
 30
0.0
 11
-9.015945
 21
30.210124
 31
0.0
  0
LINE
  8
0
 10
-17.015945
 20
30.210124
 30
0.0
 11
-16.665945
 21
30.560124
 31
0.0
  0
LINE
  8
0
 10
-17.015945
 20
26.910124
 30
0.0
 11
-16.665945
 21
26.560124
 31
0.0
  0
LINE
  8
0
 10
-9.015945
 20
30.210124
 30
0.0
 11
-9.365945
 21
30.560124
 31
0.0
  0
LINE
  8
0
 10
-9.015945
 20
26.910124
 30
0.0
 11
-9.365945
 21
26.560124
 31
0.0
  0
LINE
  8
0
 10
-15.515945
 20
29.560124
 30
0.0
 11
-17.015945
 21
29.560124
 31
0.0
  0
LINE
  8
0
 10
-15.515945
 20
27.560124
 30
0.0
 11
-17.015945
 21
27.560124
 31
0.0
  0
LINE
  8
0
 10
-15.515945
 20
27.560124
 30
0.0
 11
-15.515945
 21
29.560124
 31
0.0
  0
INSERT
  8
0
  2
*X0
 10
0.0
 20
-28.539464
 30
0.0
  0
LINE
  8
0
 10
32.159222
 20
36.960201
 30
0.0
 11
45.459222
 21
36.960201
 31
0.0
  0
LINE
  8
0
 10
32.159222
 20
36.560201
 30
0.0
 11
45.459222
 21
36.560201
 31
0.0
  0
LINE
  8
0
 10
32.159222
 20
32.360201
 30
0.0
 11
45.459222
 21
32.360201
 31
0.0
  0
LINE
  8
0
 10
32.159222
 20
31.960201
 30
0.0
 11
45.459222
 21
31.960201
 31
0.0
  0
LINE
  8
0
 10
44.659222
 20
32.360201
 30
0.0
 11
44.259222
 21
31.960201
 31
0.0
  0
LINE
  8
0
 10
44.659222
 20
36.560201
 30
0.0
 11
44.259222
 21
36.960201
 31
0.0
  0
LINE
  8
0
 10
44.659222
 20
32.360201
 30
0.0
 11
44.659222
 21
36.560201
 31
0.0
  0
LINE
  8
0
 10
34.659222
 20
33.210201
 30
0.0
 11
34.659222
 21
35.710201
 31
0.0
  0
LINE
  8
0
 10
32.659222
 20
33.210201
 30
0.0
 11
34.659222
 21
33.210201
 31
0.0
  0
LINE
  8
0
 10
32.659222
 20
35.710201
 30
0.0
 11
34.659222
 21
35.710201
 31
0.0
  0
LINE
  8
0
 10
32.659222
 20
32.360201
 30
0.0
 11
33.059222
 21
31.960201
 31
0.0
  0
LINE
  8
0
 10
32.659222
 20
36.560201
 30
0.0
 11
33.059222
 21
36.960201
 31
0.0
  0
LINE
  8
0
 10
32.659222
 20
32.360201
 30
0.0
 11
32.659222
 21
36.560201
 31
0.0
  0
INSERT
  8
0
  2
*X1
 10
49.728
 20
86.711191
 30
0.0
  0
CIRCLE
  8
0
 10
109.732531
 20
-10.459212
 30
0.0
 40
20.2
  0
LINE
  8
0
 10
89.22588
 20
39.008018
 30
0.0
 11
105.525864
 21
39.008018
 31
0.0
  0
LINE
  8
0
 10
89.22588
 20
39.408018
 30
0.0
 11
105.525864
 21
39.408018
 31
0.0
  0
LINE
  8
0
 10
104.375872
 20
39.408018
 30
0.0
 11
104.375872
 21
43.608018
 31
0.0
  0
LINE
  8
0
 10
104.375872
 20
43.608018
 30
0.0
 11
103.975872
 21
44.008018
 31
0.0
  0
LINE
  8
0
 10
104.375872
 20
39.408018
 30
0.0
 11
103.975872
 21
39.008018
 31
0.0
  0
LINE
  8
0
 10
90.375872
 20
39.408018
 30
0.0
 11
90.375872
 21
43.608018
 31
0.0
  0
LINE
  8
0
 10
90.375872
 20
43.608018
 30
0.0
 11
90.775872
 21
44.008018
 31
0.0
  0
LINE
  8
0
 10
90.375872
 20
39.408018
 30
0.0
 11
90.775872
 21
39.008018
 31
0.0
  0
LINE
  8
0
 10
90.375872
 20
42.758018
 30
0.0
 11
92.375872
 21
42.758018
 31
0.0
  0
LINE
  8
0
 10
90.375872
 20
40.258018
 30
0.0
 11
92.375872
 21
40.258018
 31
0.0
  0
LINE
  8
0
 10
92.375872
 20
40.258018
 30
0.0
 11
92.375872
 21
42.758018
 31
0.0
  0
LINE
  8
0
 10
89.22588
 20
44.008018
 30
0.0
 11
105.525864
 21
44.008018
 31
0.0
  0
LINE
  8
0
 10
89.22588
 20
43.608018
 30
0.0
 11
105.525864
 21
43.608018
 31
0.0
  0
LINE
  8
0
 10
89.22588
 20
36.608003
 30
0.0
 11
89.22588
 21
59.408034
 31
0.0
  0
LINE
  8
0
 10
93.525864
 20
58.508018
 30
0.0
 11
109.525864
 21
58.508018
 31
0.0
  0
LINE
  8
0
 10
94.525864
 20
57.508018
 30
0.0
 11
109.525864
 21
57.508018
 31
0.0
  0
LINE
  8
0
 10
130.525864
 20
58.708018
 30
0.0
 11
109.525864
 21
58.708018
 31
0.0
  0
LINE
  8
0
 10
130.476488
 20
37.308018
 30
0.0
 11
130.476488
 21
58.708018
 31
0.0
  0
LINE
  8
0
 10
130.38422
 20
37.308018
 30
0.0
 11
130.38422
 21
58.708018
 31
0.0
  0
LINE
  8
0
 10
130.14083
 20
37.308018
 30
0.0
 11
130.14083
 21
58.708018
 31
0.0
  0
LINE
  8
0
 10
129.926897
 20
37.308018
 30
0.0
 11
129.926897
 21
58.708018
 31
0.0
  0
LINE
  8
0
 10
129.49267
 20
37.308018
 30
0.0
 11
129.49267
 21
58.708018
 31
0.0
  0
LINE
  8
0
 10
129.160315
 20
37.308018
 30
0.0
 11
129.160315
 21
58.708018
 31
0.0
  0
LINE
  8
0
 10
128.541833
 20
37.308018
 30
0.0
 11
128.541833
 21
58.708018
 31
0.0
  0
LINE
  8
0
 10
128.096095
 20
37.308018
 30
0.0
 11
128.096095
 21
58.708018
 31
0.0
  0
LINE
  8
0
 10
127.422297
 20
37.308018
 30
0.0
 11
127.422297
 21
58.708018
 31
0.0
  0
LINE
  8
0
 10
127.302734
 20
37.308018
 30
0.0
 11
127.302734
 21
58.708018
 31
0.0
  0
LINE
  8
0
 10
126.750369
 20
37.308018
 30
0.0
 11
126.750369
 21
58.708018
 31
0.0
  0
LINE
  8
0
 10
126.10918
 20
37.308018
 30
0.0
 11
126.10918
 21
58.708018
 31
0.0
  0
LINE
  8
0
 10
125.794156
 20
37.308018
 30
0.0
 11
125.794156
 21
58.708018
 31
0.0
  0
LINE
  8
0
 10
125.143537
 20
37.308018
 30
0.0
 11
125.143537
 21
58.708018
 31
0.0
  0
LINE
  8
0
 10
124.544678
 20
37.308018
 30
0.0
 11
124.544678
 21
58.708018
 31
0.0
  0
LINE
  8
0
 10
124.038967
 20
37.308018
 30
0.0
 11
124.038967
 21
58.708018
 31
0.0
  0
LINE
  8
0
 10
123.299958
 20
37.308018
 30
0.0
 11
123.299958
 21
58.708018
 31
0.0
  0
LINE
  8
0
 10
122.752505
 20
37.308018
 30
0.0
 11
122.752505
 21
58.708018
 31
0.0
  0
LINE
  8
0
 10
122.063774
 20
37.308018
 30
0.0
 11
122.063774
 21
58.708018
 31
0.0
  0
LINE
  8
0
 10
121.247577
 20
37.308018
 30
0.0
 11
121.247577
 21
58.708018
 31
0.0
  0
LINE
  8
0
 10
120.759831
 20
37.308018
 30
0.0
 11
120.759831
 21
58.708018
 31
0.0
  0
LINE
  8
0
 10
119.898519
 20
37.308018
 30
0.0
 11
119.898519
 21
58.708018
 31
0.0
  0
LINE
  8
0
 10
119.017506
 20
37.308018
 30
0.0
 11
119.017506
 21
58.708018
 31
0.0
  0
LINE
  8
0
 10
118.59686
 20
37.308018
 30
0.0
 11
118.59686
 21
58.708018
 31
0.0
  0
LINE
  8
0
 10
117.576025
 20
37.308018
 30
0.0
 11
117.576025
 21
58.708018
 31
0.0
  0
LINE
  8
0
 10
116.643553
 20
37.308018
 30
0.0
 11
116.643553
 21
58.708018
 31
0.0
  0
LINE
  8
0
 10
116.296383
 20
37.308018
 30
0.0
 11
116.296383
 21
58.708018
 31
0.0
  0
LINE
  8
0
 10
115.131499
 20
37.308018
 30
0.0
 11
115.131499
 21
58.708018
 31
0.0
  0
LINE
  8
0
 10
114.161702
 20
37.308018
 30
0.0
 11
114.161702
 21
58.708018
 31
0.0
  0
LINE
  8
0
 10
113.893271
 20
37.308018
 30
0.0
 11
113.893271
 21
58.708018
 31
0.0
  0
LINE
  8
0
 10
112.61335
 20
37.308018
 30
0.0
 11
112.61335
 21
58.708018
 31
0.0
  0
LINE
  8
0
 10
111.609576
 20
37.308018
 30
0.0
 11
111.609576
 21
58.708018
 31
0.0
  0
LINE
  8
0
 10
111.423954
 20
37.308018
 30
0.0
 11
111.423954
 21
58.708018
 31
0.0
  0
LINE
  8
0
 10
110.025864
 20
37.308018
 30
0.0
 11
110.025864
 21
58.708018
 31
0.0
  0
CIRCLE
  8
0
 10
109.732531
 20
-10.459212
 30
0.0
 40
16.0
  0
ARC
  8
0
 10
109.732531
 20
-10.459212
 30
0.0
 40
20.3
 50
84.634894
 51
88.306282
  0
ARC
  8
0
 10
109.732531
 20
-10.459212
 30
0.0
 40
21.0
 50
81.576862
 51
84.305491
  0
LINE
  8
0
 10
110.332531
 20
9.831919
 30
0.0
 11
110.232531
 21
10.534834
 31
0.0
  0
LINE
  8
0
 10
111.630621
 20
9.751855
 30
0.0
 11
111.816243
 21
10.437154
 31
0.0
  0
LINE
  8
0
 10
109.132531
 20
9.831919
 30
0.0
 11
109.232531
 21
10.534834
 31
0.0
  0
LINE
  8
0
 10
107.834441
 20
9.751855
 30
0.0
 11
107.648819
 21
10.437154
 31
0.0
  0
ARC
  8
0
 10
109.732531
 20
-10.459212
 30
0.0
 40
21.0
 50
88.635686
 51
91.364314
  0
ARC
  8
0
 10
109.732531
 20
-10.459212
 30
0.0
 40
20.3
 50
91.693718
 51
95.365106
  0
LINE
  8
0
 10
106.643536
 20
9.604389
 30
0.0
 11
106.656398
 21
10.314266
 31
0.0
  0
LINE
  8
0
 10
105.365124
 20
9.365412
 30
0.0
 11
105.096693
 21
10.022707
 31
0.0
  0
ARC
  8
0
 10
109.732531
 20
-10.459212
 30
0.0
 40
21.0
 50
95.694509
 51
98.423138
  0
ARC
  8
0
 10
109.732531
 20
-10.459212
 30
0.0
 40
20.3
 50
98.752542
 51
102.423929
  0
LINE
  8
0
 10
104.201367
 20
9.072716
 30
0.0
 11
104.126896
 21
9.778793
 31
0.0
  0
LINE
  8
0
 10
102.962012
 20
8.678449
 30
0.0
 11
102.614843
 21
9.297774
 31
0.0
  0
ARC
  8
0
 10
109.732531
 20
-10.459212
 30
0.0
 40
21.0
 50
102.753333
 51
105.481961
  0
ARC
  8
0
 10
109.732531
 20
-10.459212
 30
0.0
 40
20.3
 50
105.811365
 51
109.482753
  0
LINE
  8
0
 10
101.843046
 20
8.244959
 30
0.0
 11
101.68237
 21
8.936532
 31
0.0
  0
LINE
  8
0
 10
100.661535
 20
7.701378
 30
0.0
 11
100.240889
 21
8.273346
 31
0.0
  0
ARC
  8
0
 10
109.732531
 20
-10.459212
 30
0.0
 40
21.0
 50
109.812156
 51
112.540785
  0
ARC
  8
0
 10
109.732531
 20
-10.459212
 30
0.0
 40
20.3
 50
112.870189
 51
116.541576
  0
LINE
  8
0
 10
99.60432
 20
7.133665
 30
0.0
 11
99.359877
 21
7.800252
 31
0.0
  0
LINE
  8
0
 10
98.498564
 20
6.44901
 30
0.0
 11
98.010819
 21
6.964951
 31
0.0
  0
ARC
  8
0
 10
109.732531
 20
-10.459212
 30
0.0
 40
21.0
 50
116.87098
 51
119.599608
  0
ARC
  8
0
 10
109.732531
 20
-10.459212
 30
0.0
 40
20.3
 50
119.929012
 51
123.6004
  0
LINE
  8
0
 10
97.519128
 20
5.755682
 30
0.0
 11
97.194622
 21
6.387177
 31
0.0
  0
LINE
  8
0
 10
96.50589
 20
4.940332
 30
0.0
 11
95.958437
 21
5.392423
 31
0.0
  0
ARC
  8
0
 10
109.732531
 20
-10.459212
 30
0.0
 40
21.0
 50
123.929803
 51
126.658432
  0
ARC
  8
0
 10
109.732531
 20
-10.459212
 30
0.0
 40
20.3
 50
126.987836
 51
130.659223
  0
LINE
  8
0
 10
95.619079
 20
4.131897
 30
0.0
 11
95.219429
 21
4.718727
 31
0.0
  0
LINE
  8
0
 10
94.713717
 20
3.198212
 30
0.0
 11
94.114858
 21
3.579601
 31
0.0
  0
ARC
  8
0
 10
109.732531
 20
-10.459212
 30
0.0
 40
21.0
 50
130.988627
 51
133.717255
  0
ARC
  8
0
 10
109.732531
 20
-10.459212
 30
0.0
 40
20.3
 50
134.046659
 51
137.718047
  0
LINE
  8
0
 10
93.932975
 20
2.286926
 30
0.0
 11
93.464239
 21
2.820196
 31
0.0
  0
LINE
  8
0
 10
93.149215
 20
1.249059
 30
0.0
 11
92.508026
 21
1.553965
 31
0.0
  0
ARC
  8
0
 10
109.732531
 20
-10.459212
 30
0.0
 40
21.0
 50
138.047451
 51
140.776079
  0
ARC
  8
0
 10
109.732531
 20
-10.459212
 30
0.0
 40
20.3
 50
141.105483
 51
144.77687
  0
LINE
  8
0
 10
92.486377
 20
0.248736
 30
0.0
 11
91.955661
 21
0.720362
 31
0.0
  0
LINE
  8
0
 10
91.836098
 20
-0.877579
 30
0.0
 11
91.1623
 21
-0.653779
 31
0.0
  0
ARC
  8
0
 10
109.732531
 20
-10.459212
 30
0.0
 40
21.0
 50
145.106274
 51
147.834902
  0
ARC
  8
0
 10
109.732531
 20
-10.459212
 30
0.0
 40
20.3
 50
148.164306
 51
151.835694
  0
LINE
  8
0
 10
91.301212
 20
-1.951775
 30
0.0
 11
90.716562
 21
-1.548942
 31
0.0
  0
LINE
  8
0
 10
90.794274
 20
-3.149465
 30
0.0
 11
90.09808
 21
-3.010163
 31
0.0
  0
ARC
  8
0
 10
109.732531
 20
-10.459212
 30
0.0
 40
21.0
 50
152.165098
 51
154.893726
  0
ARC
  8
0
 10
109.732531
 20
-10.459212
 30
0.0
 40
20.3
 50
155.22313
 51
158.894517
  0
LINE
  8
0
 10
90.395448
 20
-4.28125
 30
0.0
 11
89.765725
 21
-3.953318
 31
0.0
  0
LINE
  8
0
 10
90.039533
 20
-5.532159
 30
0.0
 11
89.331498
 21
-5.479467
 31
0.0
  0
ARC
  8
0
 10
109.732531
 20
-10.459212
 30
0.0
 40
21.0
 50
159.223921
 51
161.952549
  0
ARC
  8
0
 10
109.732531
 20
-10.459212
 30
0.0
 40
20.3
 50
162.281953
 51
165.953341
  0
LINE
  8
0
 10
89.782814
 20
-6.704377
 30
0.0
 11
89.117565
 21
-6.456315
 31
0.0
  0
LINE
  8
0
 10
89.583319
 20
-7.989543
 30
0.0
 11
88.874175
 21
-8.024259
 31
0.0
  0
ARC
  8
0
 10
109.732531
 20
-10.459212
 30
0.0
 40
21.0
 50
166.282745
 51
169.011373
  0
ARC
  8
0
 10
109.732531
 20
-10.459212
 30
0.0
 40
20.3
 50
169.340777
 51
173.012164
  0
LINE
  8
0
 10
89.472597
 20
-9.184424
 30
0.0
 11
88.781907
 21
-9.019993
 31
0.0
  0
LINE
  8
0
 10
89.432546
 20
-10.484364
 30
0.0
 11
88.733044
 21
-10.605963
 31
0.0
  0
ARC
  8
0
 10
109.732531
 20
-10.459212
 30
0.0
 40
21.0
 50
173.341568
 51
176.070197
  0
ARC
  8
0
 10
109.732531
 20
-10.459212
 30
0.0
 40
20.3
 50
176.3996
 51
180.070988
  0
LINE
  8
0
 10
89.469501
 20
-11.683794
 30
0.0
 11
88.763839
 21
-11.605488
 31
0.0
  0
LINE
  8
0
 10
89.589501
 20
-12.978803
 30
0.0
 11
88.910243
 21
-13.185441
 31
0.0
  0
ARC
  8
0
 10
109.732531
 20
-10.459212
 30
0.0
 40
21.0
 50
180.400392
 51
183.12902
  0
ARC
  8
0
 10
109.732531
 20
-10.459212
 30
0.0
 40
20.3
 50
183.458424
 51
187.129811
  0
LINE
  8
0
 10
89.773571
 20
-14.164602
 30
0.0
 11
89.063635
 21
-14.173607
 31
0.0
  0
LINE
  8
0
 10
90.051803
 20
-15.435049
 30
0.0
 11
89.403087
 21
-15.723593
 31
0.0
  0
ARC
  8
0
 10
109.732531
 20
-10.459212
 30
0.0
 40
21.0
 50
187.459215
 51
190.187844
  0
ARC
  8
0
 10
109.732531
 20
-10.459212
 30
0.0
 40
20.3
 50
190.517247
 51
194.188635
  0
LINE
  8
0
 10
90.380198
 20
-16.589239
 30
0.0
 11
89.67675
 21
-16.685419
 31
0.0
  0
LINE
  8
0
 10
90.812445
 20
-17.815865
 30
0.0
 11
90.204104
 21
-18.181943
 31
0.0
  0
ARC
  8
0
 10
109.732531
 20
-10.459212
 30
0.0
 40
21.0
 50
194.518039
 51
197.246667
  0
ARC
  8
0
 10
109.732531
 20
-10.459212
 30
0.0
 40
20.3
 50
197.576071
 51
201.247458
  0
LINE
  8
0
 10
91.280188
 20
-18.920952
 30
0.0
 11
90.59389
 21
-19.102848
 31
0.0
  0
LINE
  8
0
 10
91.859896
 20
-20.085163
 30
0.0
 11
91.301153
 21
-20.523223
 31
0.0
  0
ARC
  8
0
 10
109.732531
 20
-10.459212
 30
0.0
 40
21.0
 50
201.576862
 51
204.305491
  0
ARC
  8
0
 10
109.732531
 20
-10.459212
 30
0.0
 40
20.3
 50
204.634894
 51
208.306282
  0
LINE
  8
0
 10
92.459896
 20
-21.124393
 30
0.0
 11
91.801153
 21
-21.389249
 31
0.0
  0
LINE
  8
0
 10
93.178278
 20
-22.208541
 30
0.0
 11
92.677603
 21
-22.711944
 31
0.0
  0
ARC
  8
0
 10
109.732531
 20
-10.459212
 30
0.0
 40
21.0
 50
208.635686
 51
211.364314
  0
ARC
  8
0
 10
109.732531
 20
-10.459212
 30
0.0
 40
20.3
 50
211.693718
 51
215.365106
  0
LINE
  8
0
 10
93.90144
 20
-23.166161
 30
0.0
 11
93.280237
 21
-23.509961
 31
0.0
  0
LINE
  8
0
 10
94.747606
 20
-24.15381
 30
0.0
 11
94.312587
 21
-24.714925
 31
0.0
  0
ARC
  8
0
 10
109.732531
 20
-10.459212
 30
0.0
 40
21.0
 50
215.694509
 51
218.423138
  0
ARC
  8
0
 10
109.732531
 20
-10.459212
 30
0.0
 40
20.3
 50
218.752542
 51
222.423929
  0
LINE
  8
0
 10
95.582966
 20
-25.015305
 30
0.0
 11
95.008721
 21
-25.432837
 31
0.0
  0
LINE
  8
0
 10
96.544089
 20
-25.891484
 30
0.0
 11
96.181323
 21
-26.501805
 31
0.0
  0
ARC
  8
0
 10
109.732531
 20
-10.459212
 30
0.0
 40
21.0
 50
222.753333
 51
225.481961
  0
ARC
  8
0
 10
109.732531
 20
-10.459212
 30
0.0
 40
20.3
 50
225.811365
 51
229.482753
  0
LINE
  8
0
 10
97.478986
 20
-26.643793
 30
0.0
 11
96.960403
 21
-27.128728
 31
0.0
  0
LINE
  8
0
 10
98.540497
 20
-27.395221
 30
0.0
 11
98.255481
 21
-28.045495
 31
0.0
  0
ARC
  8
0
 10
109.732531
 20
-10.459212
 30
0.0
 40
21.0
 50
229.812156
 51
232.540785
  0
ARC
  8
0
 10
109.732531
 20
-10.459212
 30
0.0
 40
20.3
 50
232.870189
 51
236.541576
  0
LINE
  8
0
 10
99.560757
 20
-28.026939
 30
0.0
 11
99.105698
 21
-28.571927
 31
0.0
  0
LINE
  8
0
 10
100.706564
 20
-28.642224
 30
0.0
 11
100.503619
 21
-29.322595
 31
0.0
  0
ARC
  8
0
 10
109.732531
 20
-10.459212
 30
0.0
 40
21.0
 50
236.87098
 51
239.599608
  0
ARC
  8
0
 10
109.732531
 20
-10.459212
 30
0.0
 40
20.3
 50
239.929012
 51
243.6004
  0
LINE
  8
0
 10
101.796722
 20
-29.143777
 30
0.0
 11
101.412084
 21
-29.740555
 31
0.0
  0
LINE
  8
0
 10
103.009455
 20
-29.613592
 30
0.0
 11
102.891658
 21
-30.313745
 31
0.0
  0
ARC
  8
0
 10
109.732531
 20
-10.459212
 30
0.0
 40
21.0
 50
243.929803
 51
246.658432
  0
ARC
  8
0
 10
109.732531
 20
-10.459212
 30
0.0
 40
20.3
 50
246.987836
 51
250.659223
  0
LINE
  8
0
 10
104.152985
 20
-29.977375
 30
0.0
 11
103.8446
 21
-30.616898
 31
0.0
  0
LINE
  8
0
 10
105.414261
 20
-30.294599
 30
0.0
 11
105.383398
 21
-31.003921
 31
0.0
  0
ARC
  8
0
 10
109.732531
 20
-10.459212
 30
0.0
 40
21.0
 50
250.988627
 51
253.717255
  0
ARC
  8
0
 10
109.732531
 20
-10.459212
 30
0.0
 40
20.3
 50
254.046659
 51
257.718047
  0
LINE
  8
0
 10
106.593829
 20
-30.515098
 30
0.0
 11
106.366371
 21
-31.18767
 31
0.0
  0
LINE
  8
0
 10
107.884528
 20
-30.674921
 30
0.0
 11
107.941067
 21
-31.38266
 31
0.0
  0
ARC
  8
0
 10
109.732531
 20
-10.459212
 30
0.0
 40
21.0
 50
258.047451
 51
260.776079
  0
ARC
  8
0
 10
109.732531
 20
-10.459212
 30
0.0
 40
20.3
 50
261.105483
 51
264.77687
  0
LINE
  8
0
 10
109.082252
 20
-30.748794
 30
0.0
 11
108.93917
 21
-31.444221
 31
0.0
  0
LINE
  8
0
 10
110.382809
 20
-30.748794
 30
0.0
 11
110.525892
 21
-31.444221
 31
0.0
  0
ARC
  8
0
 10
109.732531
 20
-10.459212
 30
0.0
 40
21.0
 50
265.106274
 51
267.834902
  0
ARC
  8
0
 10
109.732531
 20
-10.459212
 30
0.0
 40
20.3
 50
268.164306
 51
271.835694
  0
LINE
  8
0
 10
111.580533
 20
-30.674921
 30
0.0
 11
111.523995
 21
-31.38266
 31
0.0
  0
LINE
  8
0
 10
112.871233
 20
-30.515098
 30
0.0
 11
113.09869
 21
-31.18767
 31
0.0
  0
ARC
  8
0
 10
109.732531
 20
-10.459212
 30
0.0
 40
21.0
 50
272.165098
 51
274.893726
  0
ARC
  8
0
 10
109.732531
 20
-10.459212
 30
0.0
 40
20.3
 50
275.22313
 51
278.894517
  0
LINE
  8
0
 10
114.0508
 20
-30.294599
 30
0.0
 11
114.081663
 21
-31.003921
 31
0.0
  0
LINE
  8
0
 10
115.312076
 20
-29.977375
 30
0.0
 11
115.620461
 21
-30.616898
 31
0.0
  0
ARC
  8
0
 10
109.732531
 20
-10.459212
 30
0.0
 40
21.0
 50
279.223921
 51
281.952549
  0
ARC
  8
0
 10
109.732531
 20
-10.459212
 30
0.0
 40
20.3
 50
282.281953
 51
285.953341
  0
LINE
  8
0
 10
116.455607
 20
-29.613592
 30
0.0
 11
116.573403
 21
-30.313745
 31
0.0
  0
LINE
  8
0
 10
117.66834
 20
-29.143777
 30
0.0
 11
118.052977
 21
-29.740555
 31
0.0
  0
ARC
  8
0
 10
109.732531
 20
-10.459212
 30
0.0
 40
21.0
 50
286.282745
 51
289.011373
  0
ARC
  8
0
 10
109.732531
 20
-10.459212
 30
0.0
 40
20.3
 50
289.340777
 51
293.012164
  0
LINE
  8
0
 10
118.758498
 20
-28.642224
 30
0.0
 11
118.961443
 21
-29.322595
 31
0.0
  0
LINE
  8
0
 10
119.904305
 20
-28.026939
 30
0.0
 11
120.359364
 21
-28.571927
 31
0.0
  0
ARC
  8
0
 10
109.732531
 20
-10.459212
 30
0.0
 40
21.0
 50
293.341568
 51
296.070197
  0
ARC
  8
0
 10
109.732531
 20
-10.459212
 30
0.0
 40
20.3
 50
296.3996
 51
300.070988
  0
LINE
  8
0
 10
120.924565
 20
-27.395221
 30
0.0
 11
121.209581
 21
-28.045495
 31
0.0
  0
LINE
  8
0
 10
121.986076
 20
-26.643793
 30
0.0
 11
122.504658
 21
-27.128728
 31
0.0
  0
ARC
  8
0
 10
109.732531
 20
-10.459212
 30
0.0
 40
21.0
 50
300.400392
 51
303.12902
  0
ARC
  8
0
 10
109.732531
 20
-10.459212
 30
0.0
 40
20.3
 50
303.458424
 51
307.129811
  0
LINE
  8
0
 10
122.920972
 20
-25.891484
 30
0.0
 11
123.283739
 21
-26.501805
 31
0.0
  0
LINE
  8
0
 10
123.882095
 20
-25.015305
 30
0.0
 11
124.45634
 21
-25.432837
 31
0.0
  0
ARC
  8
0
 10
109.732531
 20
-10.459212
 30
0.0
 40
21.0
 50
307.459215
 51
310.187844
  0
ARC
  8
0
 10
109.732531
 20
-10.459212
 30
0.0
 40
20.3
 50
310.517247
 51
314.188635
  0
LINE
  8
0
 10
124.717456
 20
-24.15381
 30
0.0
 11
125.152474
 21
-24.714925
 31
0.0
  0
LINE
  8
0
 10
125.563622
 20
-23.166161
 30
0.0
 11
126.184825
 21
-23.509961
 31
0.0
  0
ARC
  8
0
 10
109.732531
 20
-10.459212
 30
0.0
 40
21.0
 50
314.518039
 51
317.246667
  0
ARC
  8
0
 10
109.732531
 20
-10.459212
 30
0.0
 40
20.3
 50
317.576071
 51
321.247458
  0
LINE
  8
0
 10
126.286784
 20
-22.208541
 30
0.0
 11
126.787459
 21
-22.711944
 31
0.0
  0
LINE
  8
0
 10
127.005166
 20
-21.124393
 30
0.0
 11
127.663909
 21
-21.389249
 31
0.0
  0
ARC
  8
0
 10
109.732531
 20
-10.459212
 30
0.0
 40
21.0
 50
321.576862
 51
324.305491
  0
ARC
  8
0
 10
109.732531
 20
-10.459212
 30
0.0
 40
20.3
 50
324.634894
 51
328.306282
  0
LINE
  8
0
 10
127.605166
 20
-20.085163
 30
0.0
 11
128.163909
 21
-20.523223
 31
0.0
  0
LINE
  8
0
 10
128.184874
 20
-18.920952
 30
0.0
 11
128.871171
 21
-19.102848
 31
0.0
  0
ARC
  8
0
 10
109.732531
 20
-10.459212
 30
0.0
 40
21.0
 50
328.635686
 51
331.364314
  0
ARC
  8
0
 10
109.732531
 20
-10.459212
 30
0.0
 40
20.3
 50
331.693718
 51
335.365106
  0
LINE
  8
0
 10
128.652617
 20
-17.815865
 30
0.0
 11
129.260957
 21
-18.181943
 31
0.0
  0
LINE
  8
0
 10
129.084863
 20
-16.589239
 30
0.0
 11
129.788312
 21
-16.685419
 31
0.0
  0
ARC
  8
0
 10
109.732531
 20
-10.459212
 30
0.0
 40
21.0
 50
335.694509
 51
338.423138
  0
ARC
  8
0
 10
109.732531
 20
-10.459212
 30
0.0
 40
20.3
 50
338.752542
 51
342.423929
  0
LINE
  8
0
 10
129.413259
 20
-15.435049
 30
0.0
 11
130.061975
 21
-15.723593
 31
0.0
  0
LINE
  8
0
 10
129.691491
 20
-14.164602
 30
0.0
 11
130.401427
 21
-14.173607
 31
0.0
  0
ARC
  8
0
 10
109.732531
 20
-10.459212
 30
0.0
 40
21.0
 50
342.753333
 51
345.481961
  0
ARC
  8
0
 10
109.732531
 20
-10.459212
 30
0.0
 40
20.3
 50
345.811365
 51
349.482753
  0
LINE
  8
0
 10
129.875561
 20
-12.978803
 30
0.0
 11
130.554819
 21
-13.185441
 31
0.0
  0
LINE
  8
0
 10
129.995561
 20
-11.683794
 30
0.0
 11
130.701223
 21
-11.605488
 31
0.0
  0
ARC
  8
0
 10
109.732531
 20
-10.459212
 30
0.0
 40
21.0
 50
349.812156
 51
352.540785
  0
ARC
  8
0
 10
109.732531
 20
-10.459212
 30
0.0
 40
20.3
 50
352.870189
 51
356.541576
  0
LINE
  8
0
 10
130.032515
 20
-10.484364
 30
0.0
 11
130.732018
 21
-10.605963
 31
0.0
  0
LINE
  8
0
 10
129.992465
 20
-9.184424
 30
0.0
 11
130.683155
 21
-9.019993
 31
0.0
  0
ARC
  8
0
 10
109.732531
 20
-10.459212
 30
0.0
 40
21.0
 50
356.87098
 51
359.599608
  0
ARC
  8
0
 10
109.732531
 20
-10.459212
 30
0.0
 40
20.3
 50
359.929012
 51
3.6004
  0
LINE
  8
0
 10
129.881743
 20
-7.989543
 30
0.0
 11
130.590887
 21
-8.024259
 31
0.0
  0
LINE
  8
0
 10
129.682248
 20
-6.704377
 30
0.0
 11
130.347497
 21
-6.456315
 31
0.0
  0
ARC
  8
0
 10
109.732531
 20
-10.459212
 30
0.0
 40
21.0
 50
3.929803
 51
6.658432
  0
ARC
  8
0
 10
109.732531
 20
-10.459212
 30
0.0
 40
20.3
 50
6.987836
 51
10.659223
  0
LINE
  8
0
 10
129.425528
 20
-5.532159
 30
0.0
 11
130.133564
 21
-5.479467
 31
0.0
  0
LINE
  8
0
 10
129.069614
 20
-4.28125
 30
0.0
 11
129.699337
 21
-3.953318
 31
0.0
  0
ARC
  8
0
 10
109.732531
 20
-10.459212
 30
0.0
 40
21.0
 50
10.988627
 51
13.717255
  0
ARC
  8
0
 10
109.732531
 20
-10.459212
 30
0.0
 40
20.3
 50
14.046659
 51
17.718047
  0
LINE
  8
0
 10
128.670788
 20
-3.149465
 30
0.0
 11
129.366982
 21
-3.010163
 31
0.0
  0
LINE
  8
0
 10
128.16385
 20
-1.951775
 30
0.0
 11
128.7485
 21
-1.548942
 31
0.0
  0
ARC
  8
0
 10
109.732531
 20
-10.459212
 30
0.0
 40
21.0
 50
18.047451
 51
20.776079
  0
ARC
  8
0
 10
109.732531
 20
-10.459212
 30
0.0
 40
20.3
 50
21.105483
 51
24.77687
  0
LINE
  8
0
 10
127.628964
 20
-0.877579
 30
0.0
 11
128.302762
 21
-0.653779
 31
0.0
  0
LINE
  8
0
 10
126.978685
 20
0.248736
 30
0.0
 11
127.509401
 21
0.720362
 31
0.0
  0
ARC
  8
0
 10
109.732531
 20
-10.459212
 30
0.0
 40
21.0
 50
25.106274
 51
27.834902
  0
ARC
  8
0
 10
109.732531
 20
-10.459212
 30
0.0
 40
20.3
 50
28.164306
 51
31.835694
  0
LINE
  8
0
 10
126.315847
 20
1.249059
 30
0.0
 11
126.957036
 21
1.553965
 31
0.0
  0
LINE
  8
0
 10
125.532087
 20
2.286926
 30
0.0
 11
126.000822
 21
2.820196
 31
0.0
  0
ARC
  8
0
 10
109.732531
 20
-10.459212
 30
0.0
 40
21.0
 50
32.165098
 51
34.893726
  0
ARC
  8
0
 10
109.732531
 20
-10.459212
 30
0.0
 40
20.3
 50
35.22313
 51
38.894517
  0
LINE
  8
0
 10
124.751345
 20
3.198212
 30
0.0
 11
125.350204
 21
3.579601
 31
0.0
  0
LINE
  8
0
 10
123.845983
 20
4.131897
 30
0.0
 11
124.245633
 21
4.718727
 31
0.0
  0
ARC
  8
0
 10
109.732531
 20
-10.459212
 30
0.0
 40
21.0
 50
39.223921
 51
41.952549
  0
ARC
  8
0
 10
109.732531
 20
-10.459212
 30
0.0
 40
20.3
 50
42.281953
 51
45.953341
  0
LINE
  8
0
 10
122.959172
 20
4.940332
 30
0.0
 11
123.506624
 21
5.392423
 31
0.0
  0
LINE
  8
0
 10
121.945934
 20
5.755682
 30
0.0
 11
122.27044
 21
6.387177
 31
0.0
  0
ARC
  8
0
 10
109.732531
 20
-10.459212
 30
0.0
 40
21.0
 50
46.282745
 51
49.011373
  0
ARC
  8
0
 10
109.732531
 20
-10.459212
 30
0.0
 40
20.3
 50
49.340777
 51
53.012164
  0
LINE
  8
0
 10
120.966497
 20
6.44901
 30
0.0
 11
121.454243
 21
6.964951
 31
0.0
  0
LINE
  8
0
 10
119.860742
 20
7.133665
 30
0.0
 11
120.105185
 21
7.800252
 31
0.0
  0
ARC
  8
0
 10
109.732531
 20
-10.459212
 30
0.0
 40
21.0
 50
53.341568
 51
56.070197
  0
ARC
  8
0
 10
109.732531
 20
-10.459212
 30
0.0
 40
20.3
 50
56.3996
 51
60.070988
  0
LINE
  8
0
 10
118.803527
 20
7.701378
 30
0.0
 11
119.224173
 21
8.273346
 31
0.0
  0
LINE
  8
0
 10
117.622016
 20
8.244959
 30
0.0
 11
117.782691
 21
8.936532
 31
0.0
  0
ARC
  8
0
 10
109.732531
 20
-10.459212
 30
0.0
 40
21.0
 50
60.400392
 51
63.12902
  0
ARC
  8
0
 10
109.732531
 20
-10.459212
 30
0.0
 40
20.3
 50
63.458424
 51
67.129811
  0
LINE
  8
0
 10
116.50305
 20
8.678449
 30
0.0
 11
116.850219
 21
9.297774
 31
0.0
  0
LINE
  8
0
 10
115.263694
 20
9.072716
 30
0.0
 11
115.338165
 21
9.778793
 31
0.0
  0
ARC
  8
0
 10
109.732531
 20
-10.459212
 30
0.0
 40
21.0
 50
67.459215
 51
70.187844
  0
ARC
  8
0
 10
109.732531
 20
-10.459212
 30
0.0
 40
20.3
 50
70.517247
 51
74.188635
  0
LINE
  8
0
 10
114.099938
 20
9.365412
 30
0.0
 11
114.368368
 21
10.022707
 31
0.0
  0
LINE
  8
0
 10
112.821526
 20
9.604389
 30
0.0
 11
112.808664
 21
10.314266
 31
0.0
  0
ARC
  8
0
 10
109.732531
 20
-10.459212
 30
0.0
 40
21.0
 50
74.518039
 51
77.246667
  0
ARC
  8
0
 10
109.732531
 20
-10.459212
 30
0.0
 40
20.3
 50
77.576071
 51
81.247458
  0
LINE
  8
0
 10
109.132531
 20
9.831919
 30
0.0
 11
109.232531
 21
10.534834
 31
0.0
  0
LINE
  8
0
  6
CENTER
 10
109.525864
 20
23.336235
 30
0.0
 11
109.525864
 21
63.16866
 31
0.0
  0
LINE
  8
0
 10
94.525864
 20
53.508018
 30
0.0
 11
94.525864
 21
57.508018
 31
0.0
  0
LINE
  8
0
 10
129.725864
 20
59.508018
 30
0.0
 11
130.525864
 21
58.708018
 31
0.0
  0
LINE
  8
0
 10
89.325864
 20
59.508018
 30
0.0
 11
88.525864
 21
58.708018
 31
0.0
  0
LINE
  8
0
 10
93.525864
 20
53.508018
 30
0.0
 11
93.525864
 21
59.508018
 31
0.0
  0
LINE
  8
0
 10
93.525864
 20
53.508018
 30
0.0
 11
109.525864
 21
53.508018
 31
0.0
  0
LINE
  8
0
 10
105.525864
 20
25.508018
 30
0.0
 11
105.525864
 21
53.508018
 31
0.0
  0
LINE
  8
0
 10
89.325864
 20
59.508018
 30
0.0
 11
129.725864
 21
59.508018
 31
0.0
  0
LINE
  8
0
 10
89.325864
 20
36.508018
 30
0.0
 11
89.525864
 21
36.508018
 31
0.0
  0
LINE
  8
0
 10
130.525864
 20
37.308018
 30
0.0
 11
130.525864
 21
58.708018
 31
0.0
  0
LINE
  8
0
 10
88.525864
 20
37.308018
 30
0.0
 11
88.525864
 21
58.708018
 31
0.0
  0
LINE
  8
0
 10
89.525864
 20
25.508018
 30
0.0
 11
129.525864
 21
25.508018
 31
0.0
  0
LINE
  8
0
 10
89.525864
 20
36.508018
 30
0.0
 11
89.525864
 21
25.508018
 31
0.0
  0
LINE
  8
0
 10
129.525864
 20
36.508018
 30
0.0
 11
129.525864
 21
25.508018
 31
0.0
  0
LINE
  8
0
 10
89.325864
 20
36.508018
 30
0.0
 11
88.525864
 21
37.308018
 31
0.0
  0
LINE
  8
0
 10
129.725864
 20
36.508018
 30
0.0
 11
130.525864
 21
37.308018
 31
0.0
  0
LINE
  8
0
 10
130.525864
 20
37.308018
 30
0.0
 11
109.525864
 21
37.308018
 31
0.0
  0
LINE
  8
0
 10
109.525864
 20
36.508018
 30
0.0
 11
129.725864
 21
36.508018
 31
0.0
  0
INSERT
  8
0
  2
*X2
 10
98.833942
 20
188.42213
 30
0.0
  0
ENDSEC
  0
EOF
