  0
SECTION
  2
HEADER
  9
$ACADVER
  1
AC1009
  9
$INSBASE
 10
0.0
 20
0.0
 30
0.0
  9
$EXTMIN
 10
-1.167112
 20
-33.670163
 30
0.0
  9
$EXTMAX
 10
137.239302
 20
50.333072
 30
0.0
  9
$LIMMIN
 10
0.0
 20
0.0
  9
$LIMMAX
 10
12.0
 20
9.0
  9
$ORTHOMODE
 70
     1
  9
$REGENMODE
 70
     1
  9
$FILLMODE
 70
     1
  9
$QTEXTMODE
 70
     0
  9
$MIRRTEXT
 70
     1
  9
$DRAGMODE
 70
     2
  9
$LTSCALE
 40
5.0
  9
$OSMODE
 70
     0
  9
$ATTMODE
 70
     1
  9
$TEXTSIZE
 40
0.2
  9
$TRACEWID
 40
0.05
  9
$TEXTSTYLE
  7
STANDARD
  9
$CLAYER
  8
0
  9
$CELTYPE
  6
BYLAYER
  9
$CECOLOR
 62
   256
  9
$DIMSCALE
 40
1.0
  9
$DIMASZ
 40
2.5
  9
$DIMEXO
 40
0.0
  9
$DIMDLI
 40
5.0
  9
$DIMRND
 40
0.0
  9
$DIMDLE
 40
0.0
  9
$DIMEXE
 40
1.0
  9
$DIMTP
 40
0.0
  9
$DIMTM
 40
0.0
  9
$DIMTXT
 40
2.5
  9
$DIMCEN
 40
0.09
  9
$DIMTSZ
 40
0.0
  9
$DIMTOL
 70
     0
  9
$DIMLIM
 70
     0
  9
$DIMTIH
 70
     0
  9
$DIMTOH
 70
     0
  9
$DIMSE1
 70
     0
  9
$DIMSE2
 70
     0
  9
$DIMTAD
 70
     1
  9
$DIMZIN
 70
     0
  9
$DIMBLK
  1

  9
$DIMASO
 70
     0
  9
$DIMSHO
 70
     0
  9
$DIMPOST
  1

  9
$DIMAPOST
  1

  9
$DIMALT
 70
     0
  9
$DIMALTD
 70
     2
  9
$DIMALTF
 40
25.4
  9
$DIMLFAC
 40
1.0
  9
$DIMTOFL
 70
     1
  9
$DIMTVP
 40
0.0
  9
$DIMTIX
 70
     0
  9
$DIMSOXD
 70
     0
  9
$DIMSAH
 70
     0
  9
$DIMBLK1
  1

  9
$DIMBLK2
  1

  9
$DIMSTYLE
  2
*UNNAMED
  9
$DIMCLRD
 70
     0
  9
$DIMCLRE
 70
     0
  9
$DIMCLRT
 70
     0
  9
$DIMTFAC
 40
1.0
  9
$DIMGAP
 40
0.09
  9
$LUNITS
 70
     2
  9
$LUPREC
 70
     4
  9
$SKETCHINC
 40
0.1
  9
$FILLETRAD
 40
0.0
  9
$AUNITS
 70
     0
  9
$AUPREC
 70
     0
  9
$MENU
  1
wiberger
  9
$ELEVATION
 40
0.0
  9
$PELEVATION
 40
0.0
  9
$THICKNESS
 40
0.0
  9
$LIMCHECK
 70
     0
  9
$BLIPMODE
 70
     1
  9
$CHAMFERA
 40
0.0
  9
$CHAMFERB
 40
0.0
  9
$SKPOLY
 70
     0
  9
$TDCREATE
 40
2450191.412494791
  9
$TDUPDATE
 40
2450210.619953703
  9
$TDINDWG
 40
0.0008519676
  9
$TDUSRTIMER
 40
0.0008519676
  9
$USRTIMER
 70
     1
  9
$ANGBASE
 50
0.0
  9
$ANGDIR
 70
     0
  9
$PDMODE
 70
     3
  9
$PDSIZE
 40
2.0
  9
$PLINEWID
 40
0.0
  9
$COORDS
 70
     2
  9
$SPLFRAME
 70
     0
  9
$SPLINETYPE
 70
     6
  9
$SPLINESEGS
 70
     8
  9
$ATTDIA
 70
     0
  9
$ATTREQ
 70
     1
  9
$HANDLING
 70
     0
  9
$HANDSEED
  5
0
  9
$SURFTAB1
 70
     6
  9
$SURFTAB2
 70
     6
  9
$SURFTYPE
 70
     6
  9
$SURFU
 70
     6
  9
$SURFV
 70
     6
  9
$UCSNAME
  2

  9
$UCSORG
 10
0.0
 20
0.0
 30
0.0
  9
$UCSXDIR
 10
1.0
 20
0.0
 30
0.0
  9
$UCSYDIR
 10
0.0
 20
1.0
 30
0.0
  9
$PUCSNAME
  2

  9
$PUCSORG
 10
0.0
 20
0.0
 30
0.0
  9
$PUCSXDIR
 10
1.0
 20
0.0
 30
0.0
  9
$PUCSYDIR
 10
0.0
 20
1.0
 30
0.0
  9
$USERI1
 70
     0
  9
$USERI2
 70
     0
  9
$USERI3
 70
     0
  9
$USERI4
 70
     0
  9
$USERI5
 70
     0
  9
$USERR1
 40
0.0
  9
$USERR2
 40
0.0
  9
$USERR3
 40
0.0
  9
$USERR4
 40
0.0
  9
$USERR5
 40
0.0
  9
$WORLDVIEW
 70
     1
  9
$SHADEDGE
 70
     3
  9
$SHADEDIF
 70
    70
  9
$TILEMODE
 70
     1
  9
$MAXACTVP
 70
    16
  9
$PINSBASE
 10
0.0
 20
0.0
 30
0.0
  9
$PLIMCHECK
 70
     0
  9
$PEXTMIN
 10
1.000000E+20
 20
1.000000E+20
 30
1.000000E+20
  9
$PEXTMAX
 10
-1.000000E+20
 20
-1.000000E+20
 30
-1.000000E+20
  9
$PLIMMIN
 10
0.0
 20
0.0
  9
$PLIMMAX
 10
12.0
 20
9.0
  9
$UNITMODE
 70
     0
  9
$VISRETAIN
 70
     0
  9
$PLINEGEN
 70
     0
  9
$PSLTSCALE
 70
     0
  9
$TREEDEPTH
 70
  3020
  9
$DWGCODEPAGE
  3
undefined
  0
ENDSEC
  0
SECTION
  2
TABLES
  0
TABLE
  2
VPORT
 70
     2
  0
VPORT
  2
*ACTIVE
 70
     0
 10
0.0
 20
0.0
 11
1.0
 21
1.0
 12
89.101727
 22
16.209286
 13
0.0
 23
0.0
 14
1.0
 24
1.0
 15
0.0
 25
0.0
 16
0.0
 26
0.0
 36
1.0
 17
0.0
 27
0.0
 37
0.0
 40
110.843221
 41
1.767507
 42
50.0
 43
0.0
 44
0.0
 50
0.0
 51
0.0
 71
     0
 72
   100
 73
     1
 74
     0
 75
     0
 76
     0
 77
     0
 78
     0
  0
ENDTAB
  0
TABLE
  2
LTYPE
 70
     2
  0
LTYPE
  2
CONTINUOUS
 70
    64
  3
Solid line
 72
    65
 73
     0
 40
0.0
  0
LTYPE
  2
CENTER
 70
    64
  3
____ _ ____ _ ____ _ ____ _ ____ _ ____ _ ____
 72
    65
 73
     4
 40
2.0
 49
1.25
 49
-0.25
 49
0.25
 49
-0.25
  0
ENDTAB
  0
TABLE
  2
LAYER
 70
     1
  0
LAYER
  2
0
 70
    64
 62
     7
  6
CONTINUOUS
  0
ENDTAB
  0
TABLE
  2
STYLE
 70
     1
  0
STYLE
  2
STANDARD
 70
     0
 40
0.0
 41
1.0
 50
0.0
 71
     0
 42
0.2
  3
txt
  4

  0
ENDTAB
  0
TABLE
  2
VIEW
 70
     0
  0
ENDTAB
  0
TABLE
  2
UCS
 70
     0
  0
ENDTAB
  0
TABLE
  2
APPID
 70
     1
  0
APPID
  2
ACAD
 70
    64
  0
ENDTAB
  0
TABLE
  2
DIMSTYLE
 70
     0
  0
ENDTAB
  0
ENDSEC
  0
SECTION
  2
BLOCKS
  0
BLOCK
  8
0
  2
*X0
 70
    65
 10
0.0
 20
0.0
 30
0.0
  3
*X
  0
LINE
  8
0
 62
     0
 10
-64.128652
 20
31.330763
 30
0.0
 11
-64.094602
 21
31.364813
 31
0.0
  0
LINE
  8
0
 62
     0
 10
-60.094602
 20
35.364813
 30
0.0
 11
-57.094602
 21
38.364813
 31
0.0
  0
LINE
  8
0
 62
     0
 10
-62.215922
 20
35.364813
 30
0.0
 11
-59.215922
 21
38.364813
 31
0.0
  0
LINE
  8
0
 62
     0
 10
-64.128652
 20
35.573404
 30
0.0
 11
-61.228652
 21
38.473404
 31
0.0
  0
LINE
  8
0
 62
     0
 10
-64.128652
 20
37.694724
 30
0.0
 11
-61.228652
 21
40.594724
 31
0.0
  0
LINE
  8
0
 62
     0
 10
-64.128652
 20
39.816045
 30
0.0
 11
-61.228652
 21
42.716045
 31
0.0
  0
LINE
  8
0
 62
     0
 10
-64.128652
 20
41.937365
 30
0.0
 11
-61.228652
 21
44.837365
 31
0.0
  0
LINE
  8
0
 62
     0
 10
-64.128652
 20
44.058685
 30
0.0
 11
-63.322524
 21
44.864813
 31
0.0
  0
LINE
  8
0
 62
     0
 10
-64.128652
 20
29.209443
 30
0.0
 11
-61.973282
 21
31.364813
 31
0.0
  0
LINE
  8
0
 62
     0
 10
-57.973282
 20
35.364813
 30
0.0
 11
-54.973282
 21
38.364813
 31
0.0
  0
LINE
  8
0
 62
     0
 10
-63.351961
 20
27.864813
 30
0.0
 11
-59.851961
 21
31.364813
 31
0.0
  0
LINE
  8
0
 62
     0
 10
-55.851961
 20
35.364813
 30
0.0
 11
-54.228652
 21
36.988123
 31
0.0
  0
LINE
  8
0
 62
     0
 10
-61.230641
 20
27.864813
 30
0.0
 11
-57.730641
 21
31.364813
 31
0.0
  0
LINE
  8
0
 62
     0
 10
-59.109321
 20
27.864813
 30
0.0
 11
-55.609321
 21
31.364813
 31
0.0
  0
LINE
  8
0
 62
     0
 10
-56.988
 20
27.864813
 30
0.0
 11
-54.228652
 21
30.624162
 31
0.0
  0
LINE
  8
0
 62
     0
 10
-54.86668
 20
27.864813
 30
0.0
 11
-54.228652
 21
28.502841
 31
0.0
  0
ENDBLK
  8
0
  0
BLOCK
  8
0
  2
*X1
 70
    65
 10
0.0
 20
0.0
 30
0.0
  3
*X
  0
LINE
  8
0
 62
     0
 10
-69.439612
 20
-46.105088
 30
0.0
 11
-66.427426
 21
-43.092902
 31
0.0
  0
LINE
  8
0
 62
     0
 10
-61.427426
 20
-38.092902
 30
0.0
 11
-57.127426
 21
-33.792902
 31
0.0
  0
LINE
  8
0
 62
     0
 10
-69.439612
 20
-43.983768
 30
0.0
 11
-68.548746
 21
-43.092902
 31
0.0
  0
LINE
  8
0
 62
     0
 10
-63.548746
 20
-38.092902
 30
0.0
 11
-59.248746
 21
-33.792902
 31
0.0
  0
LINE
  8
0
 62
     0
 10
-65.670067
 20
-38.092902
 30
0.0
 11
-61.370067
 21
-33.792902
 31
0.0
  0
LINE
  8
0
 62
     0
 10
-67.791387
 20
-38.092902
 30
0.0
 11
-63.491387
 21
-33.792902
 31
0.0
  0
LINE
  8
0
 62
     0
 10
-69.439612
 20
-37.619807
 30
0.0
 11
-65.612707
 21
-33.792902
 31
0.0
  0
LINE
  8
0
 62
     0
 10
-69.439612
 20
-35.498486
 30
0.0
 11
-65.639612
 21
-31.698486
 31
0.0
  0
LINE
  8
0
 62
     0
 10
-69.439612
 20
-33.377166
 30
0.0
 11
-65.639612
 21
-29.577166
 31
0.0
  0
LINE
  8
0
 62
     0
 10
-69.439612
 20
-31.255846
 30
0.0
 11
-65.776668
 21
-27.592902
 31
0.0
  0
LINE
  8
0
 62
     0
 10
-69.439612
 20
-29.134525
 30
0.0
 11
-67.897989
 21
-27.592902
 31
0.0
  0
LINE
  8
0
 62
     0
 10
-68.806106
 20
-47.592902
 30
0.0
 11
-64.306106
 21
-43.092902
 31
0.0
  0
LINE
  8
0
 62
     0
 10
-59.306106
 20
-38.092902
 30
0.0
 11
-56.139612
 21
-34.926408
 31
0.0
  0
LINE
  8
0
 62
     0
 10
-66.684785
 20
-47.592902
 30
0.0
 11
-62.184785
 21
-43.092902
 31
0.0
  0
LINE
  8
0
 62
     0
 10
-57.184785
 20
-38.092902
 30
0.0
 11
-56.139612
 21
-37.047729
 31
0.0
  0
LINE
  8
0
 62
     0
 10
-64.563465
 20
-47.592902
 30
0.0
 11
-60.063465
 21
-43.092902
 31
0.0
  0
LINE
  8
0
 62
     0
 10
-62.442145
 20
-47.592902
 30
0.0
 11
-57.942145
 21
-43.092902
 31
0.0
  0
LINE
  8
0
 62
     0
 10
-60.320824
 20
-47.592902
 30
0.0
 11
-56.139612
 21
-43.41169
 31
0.0
  0
LINE
  8
0
 62
     0
 10
-58.199504
 20
-47.592902
 30
0.0
 11
-56.139612
 21
-45.53301
 31
0.0
  0
ENDBLK
  8
0
  0
BLOCK
  8
0
  2
*X2
 70
    65
 10
0.0
 20
0.0
 30
0.0
  3
*X
  0
LINE
  8
0
 62
     0
 10
-73.67412
 20
-160.648254
 30
0.0
 11
-72.016394
 21
-158.990528
 31
0.0
  0
LINE
  8
0
 62
     0
 10
-67.016394
 20
-153.990528
 30
0.0
 11
-61.016394
 21
-147.990528
 31
0.0
  0
LINE
  8
0
 62
     0
 10
-69.137714
 20
-153.990528
 30
0.0
 11
-63.137714
 21
-147.990528
 31
0.0
  0
LINE
  8
0
 62
     0
 10
-71.259035
 20
-153.990528
 30
0.0
 11
-65.259035
 21
-147.990528
 31
0.0
  0
LINE
  8
0
 62
     0
 10
-73.380355
 20
-153.990528
 30
0.0
 11
-67.380355
 21
-147.990528
 31
0.0
  0
LINE
  8
0
 62
     0
 10
-73.67412
 20
-152.162973
 30
0.0
 11
-69.374136
 21
-147.862988
 31
0.0
  0
LINE
  8
0
 62
     0
 10
-73.67412
 20
-150.041653
 30
0.0
 11
-69.374136
 21
-145.741668
 31
0.0
  0
LINE
  8
0
 62
     0
 10
-73.67412
 20
-147.920332
 30
0.0
 11
-69.374136
 21
-143.620348
 31
0.0
  0
LINE
  8
0
 62
     0
 10
-73.67412
 20
-145.799012
 30
0.0
 11
-69.865636
 21
-141.990528
 31
0.0
  0
LINE
  8
0
 62
     0
 10
-73.67412
 20
-143.677692
 30
0.0
 11
-71.986957
 21
-141.990528
 31
0.0
  0
LINE
  8
0
 62
     0
 10
-73.67412
 20
-162.769575
 30
0.0
 11
-69.895074
 21
-158.990528
 31
0.0
  0
LINE
  8
0
 62
     0
 10
-64.895074
 20
-153.990528
 30
0.0
 11
-58.895074
 21
-147.990528
 31
0.0
  0
LINE
  8
0
 62
     0
 10
-73.67412
 20
-164.890895
 30
0.0
 11
-67.773753
 21
-158.990528
 31
0.0
  0
LINE
  8
0
 62
     0
 10
-62.773753
 20
-153.990528
 30
0.0
 11
-57.374136
 21
-148.590911
 31
0.0
  0
LINE
  8
0
 62
     0
 10
-71.652433
 20
-164.990528
 30
0.0
 11
-65.652433
 21
-158.990528
 31
0.0
  0
LINE
  8
0
 62
     0
 10
-60.652433
 20
-153.990528
 30
0.0
 11
-57.374136
 21
-150.712231
 31
0.0
  0
LINE
  8
0
 62
     0
 10
-69.531113
 20
-164.990528
 30
0.0
 11
-63.531113
 21
-158.990528
 31
0.0
  0
LINE
  8
0
 62
     0
 10
-58.531113
 20
-153.990528
 30
0.0
 11
-57.374136
 21
-152.833551
 31
0.0
  0
LINE
  8
0
 62
     0
 10
-67.409792
 20
-164.990528
 30
0.0
 11
-61.409792
 21
-158.990528
 31
0.0
  0
LINE
  8
0
 62
     0
 10
-65.288472
 20
-164.990528
 30
0.0
 11
-59.288472
 21
-158.990528
 31
0.0
  0
LINE
  8
0
 62
     0
 10
-63.167152
 20
-164.990528
 30
0.0
 11
-57.374136
 21
-159.197512
 31
0.0
  0
LINE
  8
0
 62
     0
 10
-61.045831
 20
-164.990528
 30
0.0
 11
-57.374136
 21
-161.318833
 31
0.0
  0
LINE
  8
0
 62
     0
 10
-58.924511
 20
-164.990528
 30
0.0
 11
-57.374136
 21
-163.440153
 31
0.0
  0
ENDBLK
  8
0
  0
ENDSEC
  0
SECTION
  2
ENTITIES
  0
LINE
  8
0
 10
-1.158612
 20
8.533457
 30
0.0
 11
-1.158612
 21
24.733457
 31
0.0
  0
LINE
  8
0
 10
25.841388
 20
8.533457
 30
0.0
 11
25.841388
 21
24.733457
 31
0.0
  0
LINE
  8
0
 10
-1.158612
 20
8.533457
 30
0.0
 11
25.841388
 21
8.533457
 31
0.0
  0
LINE
  8
0
 10
-0.358612
 20
25.533457
 30
0.0
 11
25.041388
 21
25.533457
 31
0.0
  0
LINE
  8
0
 10
-1.158612
 20
24.733457
 30
0.0
 11
-0.358612
 21
25.533457
 31
0.0
  0
LINE
  8
0
 10
25.041388
 20
25.533457
 30
0.0
 11
25.841388
 21
24.733457
 31
0.0
  0
LINE
  8
0
 10
25.841388
 20
24.733457
 30
0.0
 11
12.341388
 21
24.733457
 31
0.0
  0
ARC
  8
0
 10
12.341388
 20
-13.216275
 30
0.0
 40
13.5
 50
87.877449
 51
92.122551
  0
LINE
  8
0
  6
CENTER
 10
12.341388
 20
6.217311
 30
0.0
 11
12.341388
 21
27.039591
 31
0.0
  0
ARC
  8
0
 10
12.341388
 20
-13.216275
 30
0.0
 40
12.9
 50
92.665882
 51
98.243209
  0
LINE
  8
0
 10
11.841388
 20
0.274463
 30
0.0
 11
11.741388
 21
-0.330236
 31
0.0
  0
LINE
  8
0
 10
12.841388
 20
0.274463
 30
0.0
 11
12.941388
 21
-0.330236
 31
0.0
  0
LINE
  8
0
 10
10.279214
 20
0.125293
 30
0.0
 11
10.491847
 21
-0.449553
 31
0.0
  0
LINE
  8
0
 10
9.297285
 20
-0.063958
 30
0.0
 11
9.313532
 21
-0.676654
 31
0.0
  0
ARC
  8
0
 10
12.341388
 20
-13.216275
 30
0.0
 40
12.9
 50
103.574973
 51
109.1523
  0
ARC
  8
0
 10
12.341388
 20
-13.216275
 30
0.0
 40
13.5
 50
98.78654
 51
103.031642
  0
LINE
  8
0
 10
7.791572
 20
-0.506075
 30
0.0
 11
8.109152
 21
-1.030292
 31
0.0
  0
LINE
  8
0
 10
6.863204
 20
-0.877738
 30
0.0
 11
6.995111
 21
-1.476287
 31
0.0
  0
ARC
  8
0
 10
12.341388
 20
-13.216275
 30
0.0
 40
12.9
 50
114.484064
 51
120.061391
  0
ARC
  8
0
 10
12.341388
 20
-13.216275
 30
0.0
 40
13.5
 50
109.69563
 51
113.940733
  0
LINE
  8
0
 10
5.468372
 20
-1.596824
 30
0.0
 11
5.879422
 21
-2.051465
 31
0.0
  0
LINE
  8
0
 10
4.627118
 20
-2.137465
 30
0.0
 11
4.869918
 21
-2.700233
 31
0.0
  0
ARC
  8
0
 10
12.341388
 20
-13.216275
 30
0.0
 40
12.9
 50
125.393154
 51
130.970482
  0
ARC
  8
0
 10
12.341388
 20
-13.216275
 30
0.0
 40
13.5
 50
120.604721
 51
124.849824
  0
LINE
  8
0
 10
3.39358
 20
-3.107529
 30
0.0
 11
3.883244
 21
-3.476162
 31
0.0
  0
LINE
  8
0
 10
2.669846
 20
-3.797608
 30
0.0
 11
3.014763
 21
-4.304257
 31
0.0
  0
ARC
  8
0
 10
12.341388
 20
-13.216275
 30
0.0
 40
12.9
 50
136.302245
 51
141.879573
  0
ARC
  8
0
 10
12.341388
 20
-13.216275
 30
0.0
 40
13.5
 50
131.513812
 51
135.758915
  0
LINE
  8
0
 10
1.642186
 20
-4.983591
 30
0.0
 11
2.192765
 21
-5.252893
 31
0.0
  0
LINE
  8
0
 10
1.062129
 20
-5.798167
 30
0.0
 11
1.496697
 21
-6.230384
 31
0.0
  0
ARC
  8
0
 10
12.341388
 20
-13.216275
 30
0.0
 40
12.9
 50
147.211336
 51
152.788664
  0
ARC
  8
0
 10
12.341388
 20
-13.216275
 30
0.0
 40
13.5
 50
142.422903
 51
146.668006
  0
LINE
  8
0
 10
0.277489
 20
-7.157204
 30
0.0
 11
0.869084
 21
-7.317442
 31
0.0
  0
LINE
  8
0
 10
-0.137926
 20
-8.066836
 30
0.0
 11
0.370586
 21
-8.409
 31
0.0
  0
ARC
  8
0
 10
12.341388
 20
-13.216275
 30
0.0
 40
12.9
 50
158.120427
 51
163.697755
  0
ARC
  8
0
 10
12.341388
 20
-13.216275
 30
0.0
 40
13.5
 50
153.331994
 51
157.577097
  0
LINE
  8
0
 10
-0.651187
 20
-9.549807
 30
0.0
 11
-0.039958
 21
-9.595189
 31
0.0
  0
LINE
  8
0
 10
-0.886946
 20
-10.521619
 30
0.0
 11
-0.322869
 21
-10.761363
 31
0.0
  0
ARC
  8
0
 10
12.341388
 20
-13.216275
 30
0.0
 40
12.9
 50
169.029518
 51
174.606846
  0
ARC
  8
0
 10
12.341388
 20
-13.216275
 30
0.0
 40
13.5
 50
164.241085
 51
168.486188
  0
LINE
  8
0
 10
-1.110278
 20
-12.074926
 30
0.0
 11
-0.501506
 21
-12.003812
 31
0.0
  0
LINE
  8
0
 10
-1.15786
 20
-13.073793
 30
0.0
 11
-0.558604
 21
-13.202453
 31
0.0
  0
ARC
  8
0
 10
12.341388
 20
-13.216275
 30
0.0
 40
12.9
 50
179.938609
 51
185.515936
  0
ARC
  8
0
 10
12.341388
 20
-13.216275
 30
0.0
 40
13.5
 50
175.150176
 51
179.395279
  0
LINE
  8
0
 10
-1.08319
 20
-14.641296
 30
0.0
 11
-0.498878
 21
-14.456256
 31
0.0
  0
LINE
  8
0
 10
-0.940876
 20
-15.631118
 30
0.0
 11
-0.3281
 21
-15.644042
 31
0.0
  0
ARC
  8
0
 10
12.341388
 20
-13.216275
 30
0.0
 40
12.9
 50
190.8477
 51
196.425027
  0
ARC
  8
0
 10
12.341388
 20
-13.216275
 30
0.0
 40
13.5
 50
186.059267
 51
190.30437
  0
LINE
  8
0
 10
-0.570904
 20
-17.156162
 30
0.0
 11
-0.03217
 21
-16.863885
 31
0.0
  0
LINE
  8
0
 10
-0.243836
 20
-18.101163
 30
0.0
 11
0.360312
 21
-17.997886
 31
0.0
  0
ARC
  8
0
 10
12.341388
 20
-13.216275
 30
0.0
 40
12.9
 50
201.756791
 51
207.334118
  0
ARC
  8
0
 10
12.341388
 20
-13.216275
 30
0.0
 40
13.5
 50
196.968358
 51
201.21346
  0
LINE
  8
0
 10
0.408067
 20
-19.528631
 30
0.0
 11
0.881751
 21
-19.139679
 31
0.0
  0
LINE
  8
0
 10
0.908067
 20
-20.394656
 30
0.0
 11
1.481751
 21
-20.17891
 31
0.0
  0
ARC
  8
0
 10
12.341388
 20
-13.216275
 30
0.0
 40
12.9
 50
212.665882
 51
218.243209
  0
ARC
  8
0
 10
12.341388
 20
-13.216275
 30
0.0
 40
13.5
 50
207.877449
 51
212.122551
  0
LINE
  8
0
 10
1.818339
 20
-21.672954
 30
0.0
 11
2.209853
 21
-21.201386
 31
0.0
  0
LINE
  8
0
 10
2.473199
 20
-22.428704
 30
0.0
 11
2.995686
 21
-22.108285
 31
0.0
  0
ARC
  8
0
 10
12.341388
 20
-13.216275
 30
0.0
 40
12.9
 50
223.574973
 51
229.1523
  0
ARC
  8
0
 10
12.341388
 20
-13.216275
 30
0.0
 40
13.5
 50
218.78654
 51
223.031642
  0
LINE
  8
0
 10
3.608941
 20
-23.511631
 30
0.0
 11
3.904136
 21
-22.97449
 31
0.0
  0
LINE
  8
0
 10
4.394994
 20
-24.12979
 30
0.0
 11
4.847399
 21
-23.716281
 31
0.0
  0
ARC
  8
0
 10
12.341388
 20
-13.216275
 30
0.0
 40
12.9
 50
234.484064
 51
240.061391
  0
ARC
  8
0
 10
12.341388
 20
-13.216275
 30
0.0
 40
13.5
 50
229.69563
 51
233.940733
  0
LINE
  8
0
 10
5.715157
 20
-24.978207
 30
0.0
 11
5.903362
 21
-24.394907
 31
0.0
  0
LINE
  8
0
 10
6.603992
 20
-25.436434
 30
0.0
 11
6.969965
 21
-24.944779
 31
0.0
  0
ARC
  8
0
 10
12.341388
 20
-13.216275
 30
0.0
 40
12.9
 50
245.393154
 51
250.970482
  0
ARC
  8
0
 10
12.341388
 20
-13.216275
 30
0.0
 40
13.5
 50
240.604721
 51
244.849824
  0
LINE
  8
0
 10
8.060862
 20
-26.019676
 30
0.0
 11
8.135276
 21
-25.411299
 31
0.0
  0
LINE
  8
0
 10
9.020355
 20
-26.301409
 30
0.0
 11
9.286667
 21
-25.749378
 31
0.0
  0
ARC
  8
0
 10
12.341388
 20
-13.216275
 30
0.0
 40
12.9
 50
256.302245
 51
261.879573
  0
ARC
  8
0
 10
12.341388
 20
-13.216275
 30
0.0
 40
13.5
 50
251.513812
 51
255.758915
  0
LINE
  8
0
 10
10.561276
 20
-26.598397
 30
0.0
 11
10.519209
 21
-25.986931
 31
0.0
  0
LINE
  8
0
 10
11.556748
 20
-26.693453
 30
0.0
 11
11.713776
 21
-26.100998
 31
0.0
  0
ARC
  8
0
 10
12.341388
 20
-13.216275
 30
0.0
 40
12.9
 50
267.211336
 51
272.788664
  0
ARC
  8
0
 10
12.341388
 20
-13.216275
 30
0.0
 40
13.5
 50
262.422903
 51
266.668006
  0
LINE
  8
0
 10
13.126028
 20
-26.693453
 30
0.0
 11
12.969001
 21
-26.100998
 31
0.0
  0
LINE
  8
0
 10
14.1215
 20
-26.598397
 30
0.0
 11
14.163567
 21
-25.986931
 31
0.0
  0
ARC
  8
0
 10
12.341388
 20
-13.216275
 30
0.0
 40
12.9
 50
278.120427
 51
283.697755
  0
ARC
  8
0
 10
12.341388
 20
-13.216275
 30
0.0
 40
13.5
 50
273.331994
 51
277.577097
  0
LINE
  8
0
 10
15.662422
 20
-26.301409
 30
0.0
 11
15.396109
 21
-25.749378
 31
0.0
  0
LINE
  8
0
 10
16.621915
 20
-26.019676
 30
0.0
 11
16.547501
 21
-25.411299
 31
0.0
  0
ARC
  8
0
 10
12.341388
 20
-13.216275
 30
0.0
 40
12.9
 50
289.029518
 51
294.606846
  0
ARC
  8
0
 10
12.341388
 20
-13.216275
 30
0.0
 40
13.5
 50
284.241085
 51
288.486188
  0
LINE
  8
0
 10
18.078784
 20
-25.436434
 30
0.0
 11
17.712812
 21
-24.944779
 31
0.0
  0
LINE
  8
0
 10
18.96762
 20
-24.978207
 30
0.0
 11
18.779414
 21
-24.394907
 31
0.0
  0
ARC
  8
0
 10
12.341388
 20
-13.216275
 30
0.0
 40
12.9
 50
299.938609
 51
305.515936
  0
ARC
  8
0
 10
12.341388
 20
-13.216275
 30
0.0
 40
13.5
 50
295.150176
 51
299.395279
  0
LINE
  8
0
 10
20.287782
 20
-24.12979
 30
0.0
 11
19.835377
 21
-23.716281
 31
0.0
  0
LINE
  8
0
 10
21.073835
 20
-23.511631
 30
0.0
 11
20.778641
 21
-22.97449
 31
0.0
  0
ARC
  8
0
 10
12.341388
 20
-13.216275
 30
0.0
 40
12.9
 50
310.8477
 51
316.425027
  0
ARC
  8
0
 10
12.341388
 20
-13.216275
 30
0.0
 40
13.5
 50
306.059267
 51
310.30437
  0
LINE
  8
0
 10
22.209577
 20
-22.428704
 30
0.0
 11
21.68709
 21
-22.108285
 31
0.0
  0
LINE
  8
0
 10
22.864438
 20
-21.672954
 30
0.0
 11
22.472923
 21
-21.201386
 31
0.0
  0
ARC
  8
0
 10
12.341388
 20
-13.216275
 30
0.0
 40
12.9
 50
321.756791
 51
327.334118
  0
ARC
  8
0
 10
12.341388
 20
-13.216275
 30
0.0
 40
13.5
 50
316.968358
 51
321.21346
  0
LINE
  8
0
 10
23.77471
 20
-20.394656
 30
0.0
 11
23.201025
 21
-20.17891
 31
0.0
  0
LINE
  8
0
 10
24.27471
 20
-19.528631
 30
0.0
 11
23.801025
 21
-19.139679
 31
0.0
  0
ARC
  8
0
 10
12.341388
 20
-13.216275
 30
0.0
 40
12.9
 50
332.665882
 51
338.243209
  0
ARC
  8
0
 10
12.341388
 20
-13.216275
 30
0.0
 40
13.5
 50
327.877449
 51
332.122551
  0
LINE
  8
0
 10
24.926612
 20
-18.101163
 30
0.0
 11
24.322465
 21
-17.997886
 31
0.0
  0
LINE
  8
0
 10
25.25368
 20
-17.156162
 30
0.0
 11
24.714946
 21
-16.863885
 31
0.0
  0
ARC
  8
0
 10
12.341388
 20
-13.216275
 30
0.0
 40
12.9
 50
343.574973
 51
349.1523
  0
ARC
  8
0
 10
12.341388
 20
-13.216275
 30
0.0
 40
13.5
 50
338.78654
 51
343.031642
  0
LINE
  8
0
 10
25.623652
 20
-15.631118
 30
0.0
 11
25.010877
 21
-15.644042
 31
0.0
  0
LINE
  8
0
 10
25.765967
 20
-14.641296
 30
0.0
 11
25.181655
 21
-14.456256
 31
0.0
  0
ARC
  8
0
 10
12.341388
 20
-13.216275
 30
0.0
 40
12.9
 50
354.484064
 51
0.061391
  0
ARC
  8
0
 10
12.341388
 20
-13.216275
 30
0.0
 40
13.5
 50
349.69563
 51
353.940733
  0
LINE
  8
0
 10
25.840636
 20
-13.073793
 30
0.0
 11
25.241381
 21
-13.202453
 31
0.0
  0
LINE
  8
0
 10
25.793054
 20
-12.074926
 30
0.0
 11
25.184283
 21
-12.003812
 31
0.0
  0
ARC
  8
0
 10
12.341388
 20
-13.216275
 30
0.0
 40
12.9
 50
5.393154
 51
10.970482
  0
ARC
  8
0
 10
12.341388
 20
-13.216275
 30
0.0
 40
13.5
 50
0.604721
 51
4.849824
  0
LINE
  8
0
 10
25.569723
 20
-10.521619
 30
0.0
 11
25.005645
 21
-10.761363
 31
0.0
  0
LINE
  8
0
 10
25.333964
 20
-9.549807
 30
0.0
 11
24.722735
 21
-9.595189
 31
0.0
  0
ARC
  8
0
 10
12.341388
 20
-13.216275
 30
0.0
 40
12.9
 50
16.302245
 51
21.879573
  0
ARC
  8
0
 10
12.341388
 20
-13.216275
 30
0.0
 40
13.5
 50
11.513812
 51
15.758915
  0
LINE
  8
0
 10
24.820702
 20
-8.066836
 30
0.0
 11
24.312191
 21
-8.409
 31
0.0
  0
LINE
  8
0
 10
24.405287
 20
-7.157204
 30
0.0
 11
23.813693
 21
-7.317442
 31
0.0
  0
ARC
  8
0
 10
12.341388
 20
-13.216275
 30
0.0
 40
12.9
 50
27.211336
 51
32.788664
  0
ARC
  8
0
 10
12.341388
 20
-13.216275
 30
0.0
 40
13.5
 50
22.422903
 51
26.668006
  0
LINE
  8
0
 10
23.620647
 20
-5.798167
 30
0.0
 11
23.18608
 21
-6.230384
 31
0.0
  0
LINE
  8
0
 10
23.04059
 20
-4.983591
 30
0.0
 11
22.490012
 21
-5.252893
 31
0.0
  0
ARC
  8
0
 10
12.341388
 20
-13.216275
 30
0.0
 40
12.9
 50
38.120427
 51
43.697755
  0
ARC
  8
0
 10
12.341388
 20
-13.216275
 30
0.0
 40
13.5
 50
33.331994
 51
37.577097
  0
LINE
  8
0
 10
22.01293
 20
-3.797608
 30
0.0
 11
21.668014
 21
-4.304257
 31
0.0
  0
LINE
  8
0
 10
21.289196
 20
-3.107529
 30
0.0
 11
20.799533
 21
-3.476162
 31
0.0
  0
ARC
  8
0
 10
12.341388
 20
-13.216275
 30
0.0
 40
12.9
 50
49.029518
 51
54.606846
  0
ARC
  8
0
 10
12.341388
 20
-13.216275
 30
0.0
 40
13.5
 50
44.241085
 51
48.486188
  0
LINE
  8
0
 10
20.055658
 20
-2.137465
 30
0.0
 11
19.812859
 21
-2.700233
 31
0.0
  0
LINE
  8
0
 10
19.214405
 20
-1.596824
 30
0.0
 11
18.803355
 21
-2.051465
 31
0.0
  0
ARC
  8
0
 10
12.341388
 20
-13.216275
 30
0.0
 40
12.9
 50
59.938609
 51
65.515936
  0
ARC
  8
0
 10
12.341388
 20
-13.216275
 30
0.0
 40
13.5
 50
55.150176
 51
59.395279
  0
LINE
  8
0
 10
17.819573
 20
-0.877738
 30
0.0
 11
17.687666
 21
-1.476287
 31
0.0
  0
LINE
  8
0
 10
16.891205
 20
-0.506075
 30
0.0
 11
16.573624
 21
-1.030292
 31
0.0
  0
ARC
  8
0
 10
12.341388
 20
-13.216275
 30
0.0
 40
12.9
 50
70.8477
 51
76.425027
  0
ARC
  8
0
 10
12.341388
 20
-13.216275
 30
0.0
 40
13.5
 50
66.059267
 51
70.30437
  0
LINE
  8
0
 10
15.385491
 20
-0.063958
 30
0.0
 11
15.369244
 21
-0.676654
 31
0.0
  0
LINE
  8
0
 10
14.403563
 20
0.125293
 30
0.0
 11
14.19093
 21
-0.449553
 31
0.0
  0
ARC
  8
0
 10
12.341388
 20
-13.216275
 30
0.0
 40
12.9
 50
81.756791
 51
87.334118
  0
ARC
  8
0
 10
12.341388
 20
-13.216275
 30
0.0
 40
13.5
 50
76.968358
 51
81.21346
  0
LINE
  8
0
 10
12.841388
 20
8.533457
 30
0.0
 11
12.841388
 21
24.733457
 31
0.0
  0
LINE
  8
0
 10
12.941388
 20
8.533457
 30
0.0
 11
12.941388
 21
24.733457
 31
0.0
  0
LINE
  8
0
 10
14.19093
 20
8.533457
 30
0.0
 11
14.19093
 21
24.733457
 31
0.0
  0
LINE
  8
0
 10
14.403563
 20
8.533457
 30
0.0
 11
14.403563
 21
24.733457
 31
0.0
  0
LINE
  8
0
 10
15.385491
 20
8.533457
 30
0.0
 11
15.385491
 21
24.733457
 31
0.0
  0
LINE
  8
0
 10
16.573624
 20
8.533457
 30
0.0
 11
16.573624
 21
24.733457
 31
0.0
  0
LINE
  8
0
 10
16.891205
 20
8.533457
 30
0.0
 11
16.891205
 21
24.733457
 31
0.0
  0
LINE
  8
0
 10
17.819573
 20
8.533457
 30
0.0
 11
17.819573
 21
24.733457
 31
0.0
  0
LINE
  8
0
 10
18.803355
 20
8.533457
 30
0.0
 11
18.803355
 21
24.733457
 31
0.0
  0
LINE
  8
0
 10
19.214405
 20
8.533457
 30
0.0
 11
19.214405
 21
24.733457
 31
0.0
  0
LINE
  8
0
 10
20.055658
 20
8.533457
 30
0.0
 11
20.055658
 21
24.733457
 31
0.0
  0
LINE
  8
0
 10
20.799533
 20
8.533457
 30
0.0
 11
20.799533
 21
24.733457
 31
0.0
  0
LINE
  8
0
 10
21.289196
 20
8.533457
 30
0.0
 11
21.289196
 21
24.733457
 31
0.0
  0
LINE
  8
0
 10
22.01293
 20
8.533457
 30
0.0
 11
22.01293
 21
24.733457
 31
0.0
  0
LINE
  8
0
 10
22.490012
 20
8.533457
 30
0.0
 11
22.490012
 21
24.733457
 31
0.0
  0
LINE
  8
0
 10
23.04059
 20
8.533457
 30
0.0
 11
23.04059
 21
24.733457
 31
0.0
  0
LINE
  8
0
 10
23.620647
 20
8.533457
 30
0.0
 11
23.620647
 21
24.733457
 31
0.0
  0
LINE
  8
0
 10
23.813693
 20
8.533457
 30
0.0
 11
23.813693
 21
24.733457
 31
0.0
  0
LINE
  8
0
 10
24.405287
 20
8.533457
 30
0.0
 11
24.405287
 21
24.733457
 31
0.0
  0
LINE
  8
0
 10
24.820702
 20
8.533457
 30
0.0
 11
24.820702
 21
24.733457
 31
0.0
  0
LINE
  8
0
 10
25.333964
 20
8.533457
 30
0.0
 11
25.333964
 21
24.733457
 31
0.0
  0
LINE
  8
0
 10
25.569723
 20
8.533457
 30
0.0
 11
25.569723
 21
24.733457
 31
0.0
  0
LINE
  8
0
 10
25.793054
 20
8.533457
 30
0.0
 11
25.793054
 21
24.733457
 31
0.0
  0
LINE
  8
0
 10
2.341388
 20
19.033457
 30
0.0
 11
2.341388
 21
25.533457
 31
0.0
  0
LINE
  8
0
 10
2.341388
 20
19.033457
 30
0.0
 11
12.341388
 21
19.033457
 31
0.0
  0
LINE
  8
0
 10
9.341388
 20
8.533457
 30
0.0
 11
9.341388
 21
19.033457
 31
0.0
  0
LINE
  8
0
 10
3.341388
 20
23.333457
 30
0.0
 11
12.341388
 21
23.333457
 31
0.0
  0
LINE
  8
0
 10
2.341388
 20
24.333457
 30
0.0
 11
12.341388
 21
24.333457
 31
0.0
  0
LINE
  8
0
 10
3.341388
 20
19.033457
 30
0.0
 11
3.341388
 21
23.333457
 31
0.0
  0
CIRCLE
  8
0
 10
12.341388
 20
-13.216275
 30
0.0
 40
12.7
  0
CIRCLE
  8
0
 10
12.341388
 20
-13.216275
 30
0.0
 40
10.0
  0
LINE
  8
0
  6
CENTER
 10
60.968388
 20
16.452118
 30
0.0
 11
60.968388
 21
40.617506
 31
0.0
  0
LINE
  8
0
 10
43.968388
 20
18.859324
 30
0.0
 11
43.968388
 21
38.059324
 31
0.0
  0
LINE
  8
0
 10
77.968388
 20
18.859324
 30
0.0
 11
77.968388
 21
38.059324
 31
0.0
  0
LINE
  8
0
 10
43.968388
 20
18.859324
 30
0.0
 11
77.968388
 21
18.859324
 31
0.0
  0
LINE
  8
0
 10
44.768388
 20
38.859324
 30
0.0
 11
77.168388
 21
38.859324
 31
0.0
  0
ARC
  8
0
 10
60.968388
 20
-12.568839
 30
0.0
 40
17.0
 50
88.314587
 51
91.685413
  0
ARC
  8
0
 10
60.968388
 20
-12.568839
 30
0.0
 40
16.3
 50
83.329036
 51
87.890476
  0
LINE
  8
0
 10
60.368388
 20
3.720115
 30
0.0
 11
60.468388
 21
4.423807
 31
0.0
  0
LINE
  8
0
 10
61.568388
 20
3.720115
 30
0.0
 11
61.468388
 21
4.423807
 31
0.0
  0
LINE
  8
0
 10
59.074859
 20
3.620805
 30
0.0
 11
58.868613
 21
4.300985
 31
0.0
  0
LINE
  8
0
 10
57.888923
 20
3.437625
 30
0.0
 11
57.880333
 21
4.148336
 31
0.0
  0
ARC
  8
0
 10
60.968388
 20
-12.568839
 30
0.0
 40
16.3
 50
92.109524
 51
96.670964
  0
ARC
  8
0
 10
60.968388
 20
-12.568839
 30
0.0
 40
17.0
 50
97.095075
 51
100.465901
  0
LINE
  8
0
 10
56.625713
 20
3.142023
 30
0.0
 11
56.318055
 21
3.782749
 31
0.0
  0
LINE
  8
0
 10
55.481638
 20
2.779958
 30
0.0
 11
55.364659
 21
3.481028
 31
0.0
  0
ARC
  8
0
 10
60.968388
 20
-12.568839
 30
0.0
 40
16.3
 50
100.890011
 51
105.451452
  0
ARC
  8
0
 10
60.968388
 20
-12.568839
 30
0.0
 40
17.0
 50
105.875563
 51
109.246389
  0
LINE
  8
0
 10
54.278356
 20
2.294992
 30
0.0
 11
53.876497
 21
2.881245
 31
0.0
  0
LINE
  8
0
 10
53.202957
 20
1.762528
 30
0.0
 11
52.980332
 21
2.437525
 31
0.0
  0
ARC
  8
0
 10
60.968388
 20
-12.568839
 30
0.0
 40
16.3
 50
109.670499
 51
114.23194
  0
ARC
  8
0
 10
60.968388
 20
-12.568839
 30
0.0
 40
17.0
 50
114.65605
 51
118.026876
  0
LINE
  8
0
 10
52.087807
 20
1.099566
 30
0.0
 11
51.601167
 21
1.617604
 31
0.0
  0
LINE
  8
0
 10
51.106292
 20
0.409183
 30
0.0
 11
50.783238
 21
1.042286
 31
0.0
  0
ARC
  8
0
 10
60.968388
 20
-12.568839
 30
0.0
 40
16.3
 50
118.450987
 51
123.012428
  0
ARC
  8
0
 10
60.968388
 20
-12.568839
 30
0.0
 40
17.0
 50
123.436538
 51
126.807364
  0
LINE
  8
0
 10
50.105412
 20
-0.416237
 30
0.0
 11
49.545396
 21
0.021446
 31
0.0
  0
LINE
  8
0
 10
49.240786
 20
-1.248356
 30
0.0
 11
48.824875
 21
-0.671987
 31
0.0
  0
ARC
  8
0
 10
60.968388
 20
-12.568839
 30
0.0
 40
16.3
 50
127.231475
 51
131.792915
  0
ARC
  8
0
 10
60.968388
 20
-12.568839
 30
0.0
 40
17.0
 50
132.217026
 51
135.587852
  0
LINE
  8
0
 10
48.377635
 20
-2.216885
 30
0.0
 11
47.757371
 21
-1.869819
 31
0.0
  0
LINE
  8
0
 10
47.650165
 20
-3.171237
 30
0.0
 11
47.151146
 21
-2.665112
 31
0.0
  0
ARC
  8
0
 10
60.968388
 20
-12.568839
 30
0.0
 40
16.3
 50
136.011963
 51
140.573403
  0
ARC
  8
0
 10
60.968388
 20
-12.568839
 30
0.0
 40
17.0
 50
140.997514
 51
144.36834
  0
LINE
  8
0
 10
46.944975
 20
-4.260175
 30
0.0
 11
46.279001
 21
-4.011859
 31
0.0
  0
LINE
  8
0
 10
46.371711
 20
-5.31439
 30
0.0
 11
45.801281
 21
-4.890371
 31
0.0
  0
ARC
  8
0
 10
60.968388
 20
-12.568839
 30
0.0
 40
16.3
 50
144.79245
 51
149.353891
  0
ARC
  8
0
 10
60.968388
 20
-12.568839
 30
0.0
 40
17.0
 50
149.778002
 51
153.148828
  0
LINE
  8
0
 10
45.841012
 20
-6.498213
 30
0.0
 11
45.144938
 21
-6.354468
 31
0.0
  0
LINE
  8
0
 10
45.435392
 20
-7.627582
 30
0.0
 11
44.806921
 21
-7.295608
 31
0.0
  0
ARC
  8
0
 10
60.968388
 20
-12.568839
 30
0.0
 40
16.3
 50
153.572938
 51
158.134379
  0
ARC
  8
0
 10
60.968388
 20
-12.568839
 30
0.0
 40
17.0
 50
158.558489
 51
161.929315
  0
LINE
  8
0
 10
45.091622
 20
-8.878542
 30
0.0
 11
44.381762
 21
-8.842736
 31
0.0
  0
LINE
  8
0
 10
44.863153
 20
-10.056592
 30
0.0
 11
44.191371
 21
-9.824444
 31
0.0
  0
ARC
  8
0
 10
60.968388
 20
-12.568839
 30
0.0
 40
16.3
 50
162.353426
 51
166.914867
  0
ARC
  8
0
 10
60.968388
 20
-12.568839
 30
0.0
 40
17.0
 50
167.338977
 51
170.709803
  0
LINE
  8
0
 10
44.71437
 20
-11.345367
 30
0.0
 11
44.007364
 21
-11.418341
 31
0.0
  0
LINE
  8
0
 10
44.668406
 20
-12.544487
 30
0.0
 11
43.969061
 21
-12.417607
 31
0.0
  0
ARC
  8
0
 10
60.968388
 20
-12.568839
 30
0.0
 40
16.3
 50
171.133914
 51
175.695354
  0
ARC
  8
0
 10
60.968388
 20
-12.568839
 30
0.0
 40
17.0
 50
176.119465
 51
179.490291
  0
LINE
  8
0
 10
44.718098
 20
-13.84087
 30
0.0
 11
44.030517
 21
-14.020912
 31
0.0
  0
LINE
  8
0
 10
44.855718
 20
-15.032953
 30
0.0
 11
44.1452
 21
-15.014314
 31
0.0
  0
ARC
  8
0
 10
60.968388
 20
-12.568839
 30
0.0
 40
16.3
 50
179.914402
 51
184.475842
  0
ARC
  8
0
 10
60.968388
 20
-12.568839
 30
0.0
 40
17.0
 50
184.899953
 51
188.270779
  0
LINE
  8
0
 10
45.102719
 20
-16.306558
 30
0.0
 11
44.45068
 21
-16.589449
 31
0.0
  0
LINE
  8
0
 10
45.420697
 20
-17.463662
 30
0.0
 11
44.715661
 21
-17.553702
 31
0.0
  0
ARC
  8
0
 10
60.968388
 20
-12.568839
 30
0.0
 40
16.3
 50
188.69489
 51
193.25633
  0
ARC
  8
0
 10
60.968388
 20
-12.568839
 30
0.0
 40
17.0
 50
193.680441
 51
197.051267
  0
LINE
  8
0
 10
45.859218
 20
-18.684636
 30
0.0
 11
45.258004
 21
-19.063745
 31
0.0
  0
LINE
  8
0
 10
46.350101
 20
-19.779641
 30
0.0
 11
45.667072
 21
-19.976249
 31
0.0
  0
ARC
  8
0
 10
60.968388
 20
-12.568839
 30
0.0
 40
16.3
 50
197.475377
 51
202.036818
  0
ARC
  8
0
 10
60.968388
 20
-12.568839
 30
0.0
 40
17.0
 50
202.460928
 51
205.831755
  0
LINE
  8
0
 10
46.969864
 20
-20.919366
 30
0.0
 11
46.433565
 21
-21.385807
 31
0.0
  0
LINE
  8
0
 10
47.622145
 20
-21.926604
 30
0.0
 11
46.977133
 21
-22.225172
 31
0.0
  0
ARC
  8
0
 10
60.968388
 20
-12.568839
 30
0.0
 40
16.3
 50
206.255865
 51
210.817306
  0
ARC
  8
0
 10
60.968388
 20
-12.568839
 30
0.0
 40
17.0
 50
211.241416
 51
214.612242
  0
LINE
  8
0
 10
48.408622
 20
-22.958366
 30
0.0
 11
47.949811
 21
-23.501206
 31
0.0
  0
LINE
  8
0
 10
49.207013
 20
-23.85423
 30
0.0
 11
48.615137
 21
-24.247759
 31
0.0
  0
ARC
  8
0
 10
60.968388
 20
-12.568839
 30
0.0
 40
16.3
 50
215.036353
 51
219.597793
  0
ARC
  8
0
 10
60.968388
 20
-12.568839
 30
0.0
 40
17.0
 50
220.021904
 51
223.39273
  0
LINE
  8
0
 10
50.141771
 20
-24.753844
 30
0.0
 11
49.771201
 21
-25.36036
 31
0.0
  0
LINE
  8
0
 10
51.067558
 20
-25.517335
 30
0.0
 11
50.542691
 21
-25.996602
 31
0.0
  0
ARC
  8
0
 10
60.968388
 20
-12.568839
 30
0.0
 40
16.3
 50
223.816841
 51
228.378281
  0
ARC
  8
0
 10
60.968388
 20
-12.568839
 30
0.0
 40
17.0
 50
228.802392
 51
232.173218
  0
LINE
  8
0
 10
52.128687
 20
-26.263717
 30
0.0
 11
51.855044
 21
-26.919691
 31
0.0
  0
LINE
  8
0
 10
53.160171
 20
-26.876939
 30
0.0
 11
52.714614
 21
-27.43071
 31
0.0
  0
ARC
  8
0
 10
60.968388
 20
-12.568839
 30
0.0
 40
16.3
 50
232.597329
 51
237.158769
  0
ARC
  8
0
 10
60.968388
 20
-12.568839
 30
0.0
 40
17.0
 50
237.58288
 51
240.953706
  0
LINE
  8
0
 10
54.322798
 20
-27.452593
 30
0.0
 11
54.152496
 21
-28.14265
 31
0.0
  0
LINE
  8
0
 10
55.435801
 20
-27.901173
 30
0.0
 11
55.079999
 21
-28.516467
 31
0.0
  0
ARC
  8
0
 10
60.968388
 20
-12.568839
 30
0.0
 40
16.3
 50
241.377816
 51
245.939257
  0
ARC
  8
0
 10
60.968388
 20
-12.568839
 30
0.0
 40
17.0
 50
246.363367
 51
249.734194
  0
LINE
  8
0
 10
56.672676
 20
-28.292606
 30
0.0
 11
56.609707
 21
-29.000573
 31
0.0
  0
LINE
  8
0
 10
57.84111
 20
-28.56603
 30
0.0
 11
57.583402
 21
-29.228427
 31
0.0
  0
ARC
  8
0
 10
60.968388
 20
-12.568839
 30
0.0
 40
16.3
 50
250.158304
 51
254.719745
  0
ARC
  8
0
 10
60.968388
 20
-12.568839
 30
0.0
 40
17.0
 50
255.143855
 51
258.514681
  0
LINE
  8
0
 10
59.123242
 20
-28.764067
 30
0.0
 11
59.169081
 21
-29.47335
 31
0.0
  0
LINE
  8
0
 10
60.319721
 20
-28.855926
 30
0.0
 11
60.166147
 21
-29.549899
 31
0.0
  0
ARC
  8
0
 10
60.968388
 20
-12.568839
 30
0.0
 40
16.3
 50
258.938792
 51
263.500232
  0
ARC
  8
0
 10
60.968388
 20
-12.568839
 30
0.0
 40
17.0
 50
263.924343
 51
267.295169
  0
LINE
  8
0
 10
61.617056
 20
-28.855926
 30
0.0
 11
61.77063
 21
-29.549899
 31
0.0
  0
LINE
  8
0
 10
62.813535
 20
-28.764067
 30
0.0
 11
62.767695
 21
-29.47335
 31
0.0
  0
ARC
  8
0
 10
60.968388
 20
-12.568839
 30
0.0
 40
16.3
 50
267.71928
 51
272.28072
  0
ARC
  8
0
 10
60.968388
 20
-12.568839
 30
0.0
 40
17.0
 50
272.704831
 51
276.075657
  0
LINE
  8
0
 10
64.095666
 20
-28.56603
 30
0.0
 11
64.353374
 21
-29.228427
 31
0.0
  0
LINE
  8
0
 10
65.264101
 20
-28.292606
 30
0.0
 11
65.32707
 21
-29.000573
 31
0.0
  0
ARC
  8
0
 10
60.968388
 20
-12.568839
 30
0.0
 40
16.3
 50
276.499768
 51
281.061208
  0
ARC
  8
0
 10
60.968388
 20
-12.568839
 30
0.0
 40
17.0
 50
281.485319
 51
284.856145
  0
LINE
  8
0
 10
66.500976
 20
-27.901173
 30
0.0
 11
66.856778
 21
-28.516467
 31
0.0
  0
LINE
  8
0
 10
67.613979
 20
-27.452593
 30
0.0
 11
67.78428
 21
-28.14265
 31
0.0
  0
ARC
  8
0
 10
60.968388
 20
-12.568839
 30
0.0
 40
16.3
 50
285.280255
 51
289.841696
  0
ARC
  8
0
 10
60.968388
 20
-12.568839
 30
0.0
 40
17.0
 50
290.265806
 51
293.636633
  0
LINE
  8
0
 10
68.776606
 20
-26.876939
 30
0.0
 11
69.222163
 21
-27.43071
 31
0.0
  0
LINE
  8
0
 10
69.808089
 20
-26.263717
 30
0.0
 11
70.081732
 21
-26.919691
 31
0.0
  0
ARC
  8
0
 10
60.968388
 20
-12.568839
 30
0.0
 40
16.3
 50
294.060743
 51
298.622184
  0
ARC
  8
0
 10
60.968388
 20
-12.568839
 30
0.0
 40
17.0
 50
299.046294
 51
302.41712
  0
LINE
  8
0
 10
70.869218
 20
-25.517335
 30
0.0
 11
71.394086
 21
-25.996602
 31
0.0
  0
LINE
  8
0
 10
71.795005
 20
-24.753844
 30
0.0
 11
72.165575
 21
-25.36036
 31
0.0
  0
ARC
  8
0
 10
60.968388
 20
-12.568839
 30
0.0
 40
16.3
 50
302.841231
 51
307.402671
  0
ARC
  8
0
 10
60.968388
 20
-12.568839
 30
0.0
 40
17.0
 50
307.826782
 51
311.197608
  0
LINE
  8
0
 10
72.729763
 20
-23.85423
 30
0.0
 11
73.32164
 21
-24.247759
 31
0.0
  0
LINE
  8
0
 10
73.528154
 20
-22.958366
 30
0.0
 11
73.986965
 21
-23.501206
 31
0.0
  0
ARC
  8
0
 10
60.968388
 20
-12.568839
 30
0.0
 40
16.3
 50
311.621719
 51
316.183159
  0
ARC
  8
0
 10
60.968388
 20
-12.568839
 30
0.0
 40
17.0
 50
316.60727
 51
319.978096
  0
LINE
  8
0
 10
74.314632
 20
-21.926604
 30
0.0
 11
74.959644
 21
-22.225172
 31
0.0
  0
LINE
  8
0
 10
74.966913
 20
-20.919366
 30
0.0
 11
75.503211
 21
-21.385807
 31
0.0
  0
ARC
  8
0
 10
60.968388
 20
-12.568839
 30
0.0
 40
16.3
 50
320.402207
 51
324.963647
  0
ARC
  8
0
 10
60.968388
 20
-12.568839
 30
0.0
 40
17.0
 50
325.387758
 51
328.758584
  0
LINE
  8
0
 10
75.586676
 20
-19.779641
 30
0.0
 11
76.269704
 21
-19.976249
 31
0.0
  0
LINE
  8
0
 10
76.077558
 20
-18.684636
 30
0.0
 11
76.678773
 21
-19.063745
 31
0.0
  0
ARC
  8
0
 10
60.968388
 20
-12.568839
 30
0.0
 40
16.3
 50
329.182694
 51
333.744135
  0
ARC
  8
0
 10
60.968388
 20
-12.568839
 30
0.0
 40
17.0
 50
334.168245
 51
337.539072
  0
LINE
  8
0
 10
76.51608
 20
-17.463662
 30
0.0
 11
77.221115
 21
-17.553702
 31
0.0
  0
LINE
  8
0
 10
76.834057
 20
-16.306558
 30
0.0
 11
77.486097
 21
-16.589449
 31
0.0
  0
ARC
  8
0
 10
60.968388
 20
-12.568839
 30
0.0
 40
16.3
 50
337.963182
 51
342.524623
  0
ARC
  8
0
 10
60.968388
 20
-12.568839
 30
0.0
 40
17.0
 50
342.948733
 51
346.319559
  0
LINE
  8
0
 10
77.081058
 20
-15.032953
 30
0.0
 11
77.791576
 21
-15.014314
 31
0.0
  0
LINE
  8
0
 10
77.218679
 20
-13.84087
 30
0.0
 11
77.90626
 21
-14.020912
 31
0.0
  0
ARC
  8
0
 10
60.968388
 20
-12.568839
 30
0.0
 40
16.3
 50
346.74367
 51
351.30511
  0
ARC
  8
0
 10
60.968388
 20
-12.568839
 30
0.0
 40
17.0
 50
351.729221
 51
355.100047
  0
LINE
  8
0
 10
77.26837
 20
-12.544487
 30
0.0
 11
77.967716
 21
-12.417607
 31
0.0
  0
LINE
  8
0
 10
77.222407
 20
-11.345367
 30
0.0
 11
77.929413
 21
-11.418341
 31
0.0
  0
ARC
  8
0
 10
60.968388
 20
-12.568839
 30
0.0
 40
16.3
 50
355.524158
 51
0.085598
  0
ARC
  8
0
 10
60.968388
 20
-12.568839
 30
0.0
 40
17.0
 50
0.509709
 51
3.880535
  0
LINE
  8
0
 10
77.073624
 20
-10.056592
 30
0.0
 11
77.745405
 21
-9.824444
 31
0.0
  0
LINE
  8
0
 10
76.845155
 20
-8.878542
 30
0.0
 11
77.555014
 21
-8.842736
 31
0.0
  0
ARC
  8
0
 10
60.968388
 20
-12.568839
 30
0.0
 40
16.3
 50
4.304646
 51
8.866086
  0
ARC
  8
0
 10
60.968388
 20
-12.568839
 30
0.0
 40
17.0
 50
9.290197
 51
12.661023
  0
LINE
  8
0
 10
76.501385
 20
-7.627582
 30
0.0
 11
77.129856
 21
-7.295608
 31
0.0
  0
LINE
  8
0
 10
76.095764
 20
-6.498213
 30
0.0
 11
76.791839
 21
-6.354468
 31
0.0
  0
ARC
  8
0
 10
60.968388
 20
-12.568839
 30
0.0
 40
16.3
 50
13.085133
 51
17.646574
  0
ARC
  8
0
 10
60.968388
 20
-12.568839
 30
0.0
 40
17.0
 50
18.070685
 51
21.441511
  0
LINE
  8
0
 10
75.565065
 20
-5.31439
 30
0.0
 11
76.135495
 21
-4.890371
 31
0.0
  0
LINE
  8
0
 10
74.991801
 20
-4.260175
 30
0.0
 11
75.657776
 21
-4.011859
 31
0.0
  0
ARC
  8
0
 10
60.968388
 20
-12.568839
 30
0.0
 40
16.3
 50
21.865621
 51
26.427062
  0
ARC
  8
0
 10
60.968388
 20
-12.568839
 30
0.0
 40
17.0
 50
26.851172
 51
30.221998
  0
LINE
  8
0
 10
74.286612
 20
-3.171237
 30
0.0
 11
74.785631
 21
-2.665112
 31
0.0
  0
LINE
  8
0
 10
73.559141
 20
-2.216885
 30
0.0
 11
74.179405
 21
-1.869819
 31
0.0
  0
ARC
  8
0
 10
60.968388
 20
-12.568839
 30
0.0
 40
16.3
 50
30.646109
 51
35.20755
  0
ARC
  8
0
 10
60.968388
 20
-12.568839
 30
0.0
 40
17.0
 50
35.63166
 51
39.002486
  0
LINE
  8
0
 10
72.695991
 20
-1.248356
 30
0.0
 11
73.111902
 21
-0.671987
 31
0.0
  0
LINE
  8
0
 10
71.831365
 20
-0.416237
 30
0.0
 11
72.39138
 21
0.021446
 31
0.0
  0
ARC
  8
0
 10
60.968388
 20
-12.568839
 30
0.0
 40
16.3
 50
39.426597
 51
43.988037
  0
ARC
  8
0
 10
60.968388
 20
-12.568839
 30
0.0
 40
17.0
 50
44.412148
 51
47.782974
  0
LINE
  8
0
 10
70.830485
 20
0.409183
 30
0.0
 11
71.153539
 21
1.042286
 31
0.0
  0
LINE
  8
0
 10
69.848969
 20
1.099566
 30
0.0
 11
70.33561
 21
1.617604
 31
0.0
  0
ARC
  8
0
 10
60.968388
 20
-12.568839
 30
0.0
 40
16.3
 50
48.207085
 51
52.768525
  0
ARC
  8
0
 10
60.968388
 20
-12.568839
 30
0.0
 40
17.0
 50
53.192636
 51
56.563462
  0
LINE
  8
0
 10
68.733819
 20
1.762528
 30
0.0
 11
68.956445
 21
2.437525
 31
0.0
  0
LINE
  8
0
 10
67.658421
 20
2.294992
 30
0.0
 11
68.060279
 21
2.881245
 31
0.0
  0
ARC
  8
0
 10
60.968388
 20
-12.568839
 30
0.0
 40
16.3
 50
56.987572
 51
61.549013
  0
ARC
  8
0
 10
60.968388
 20
-12.568839
 30
0.0
 40
17.0
 50
61.973124
 51
65.34395
  0
LINE
  8
0
 10
66.455139
 20
2.779958
 30
0.0
 11
66.572118
 21
3.481028
 31
0.0
  0
LINE
  8
0
 10
65.311063
 20
3.142023
 30
0.0
 11
65.618721
 21
3.782749
 31
0.0
  0
ARC
  8
0
 10
60.968388
 20
-12.568839
 30
0.0
 40
16.3
 50
65.76806
 51
70.329501
  0
ARC
  8
0
 10
60.968388
 20
-12.568839
 30
0.0
 40
17.0
 50
70.753611
 51
74.124437
  0
LINE
  8
0
 10
64.047854
 20
3.437625
 30
0.0
 11
64.056444
 21
4.148336
 31
0.0
  0
LINE
  8
0
 10
62.861917
 20
3.620805
 30
0.0
 11
63.068163
 21
4.300985
 31
0.0
  0
ARC
  8
0
 10
60.968388
 20
-12.568839
 30
0.0
 40
16.3
 50
74.548548
 51
79.109989
  0
ARC
  8
0
 10
60.968388
 20
-12.568839
 30
0.0
 40
17.0
 50
79.534099
 51
82.904925
  0
LINE
  8
0
 10
43.968388
 20
38.059324
 30
0.0
 11
44.768388
 21
38.859324
 31
0.0
  0
LINE
  8
0
 10
77.168388
 20
38.859324
 30
0.0
 11
77.968388
 21
38.059324
 31
0.0
  0
LINE
  8
0
 10
77.968388
 20
38.059324
 30
0.0
 11
60.968388
 21
38.059324
 31
0.0
  0
LINE
  8
0
 10
61.468388
 20
18.859324
 30
0.0
 11
61.468388
 21
38.059324
 31
0.0
  0
LINE
  8
0
 10
61.568388
 20
18.859324
 30
0.0
 11
61.568388
 21
38.059324
 31
0.0
  0
LINE
  8
0
 10
62.861917
 20
18.859324
 30
0.0
 11
62.861917
 21
38.059324
 31
0.0
  0
LINE
  8
0
 10
63.068163
 20
18.859324
 30
0.0
 11
63.068163
 21
38.059324
 31
0.0
  0
LINE
  8
0
 10
64.056444
 20
18.859324
 30
0.0
 11
64.056444
 21
38.059324
 31
0.0
  0
LINE
  8
0
 10
65.311063
 20
18.859324
 30
0.0
 11
65.311063
 21
38.059324
 31
0.0
  0
LINE
  8
0
 10
65.618721
 20
18.859324
 30
0.0
 11
65.618721
 21
38.059324
 31
0.0
  0
LINE
  8
0
 10
66.572118
 20
18.859324
 30
0.0
 11
66.572118
 21
38.059324
 31
0.0
  0
LINE
  8
0
 10
67.658421
 20
18.859324
 30
0.0
 11
67.658421
 21
38.059324
 31
0.0
  0
LINE
  8
0
 10
68.060279
 20
18.859324
 30
0.0
 11
68.060279
 21
38.059324
 31
0.0
  0
LINE
  8
0
 10
68.956445
 20
18.859324
 30
0.0
 11
68.956445
 21
38.059324
 31
0.0
  0
LINE
  8
0
 10
69.848969
 20
18.859324
 30
0.0
 11
69.848969
 21
38.059324
 31
0.0
  0
LINE
  8
0
 10
70.33561
 20
18.859324
 30
0.0
 11
70.33561
 21
38.059324
 31
0.0
  0
LINE
  8
0
 10
71.153539
 20
18.859324
 30
0.0
 11
71.153539
 21
38.059324
 31
0.0
  0
LINE
  8
0
 10
71.831365
 20
18.859324
 30
0.0
 11
71.831365
 21
38.059324
 31
0.0
  0
LINE
  8
0
 10
72.39138
 20
18.859324
 30
0.0
 11
72.39138
 21
38.059324
 31
0.0
  0
LINE
  8
0
 10
73.111902
 20
18.859324
 30
0.0
 11
73.111902
 21
38.059324
 31
0.0
  0
LINE
  8
0
 10
73.559141
 20
18.859324
 30
0.0
 11
73.559141
 21
38.059324
 31
0.0
  0
LINE
  8
0
 10
74.179405
 20
18.859324
 30
0.0
 11
74.179405
 21
38.059324
 31
0.0
  0
LINE
  8
0
 10
74.785631
 20
18.859324
 30
0.0
 11
74.785631
 21
38.059324
 31
0.0
  0
LINE
  8
0
 10
74.991801
 20
18.859324
 30
0.0
 11
74.991801
 21
38.059324
 31
0.0
  0
LINE
  8
0
 10
75.657776
 20
18.859324
 30
0.0
 11
75.657776
 21
38.059324
 31
0.0
  0
LINE
  8
0
 10
76.135495
 20
18.859324
 30
0.0
 11
76.135495
 21
38.059324
 31
0.0
  0
LINE
  8
0
 10
76.791839
 20
18.859324
 30
0.0
 11
76.791839
 21
38.059324
 31
0.0
  0
LINE
  8
0
 10
77.555014
 20
18.859324
 30
0.0
 11
77.555014
 21
38.059324
 31
0.0
  0
LINE
  8
0
 10
77.129856
 20
18.859324
 30
0.0
 11
77.129856
 21
38.059324
 31
0.0
  0
LINE
  8
0
 10
77.745405
 20
18.859324
 30
0.0
 11
77.745405
 21
38.059324
 31
0.0
  0
LINE
  8
0
 10
77.929413
 20
18.859324
 30
0.0
 11
77.929413
 21
38.059324
 31
0.0
  0
LINE
  8
0
 10
48.468388
 20
32.659324
 30
0.0
 11
48.468388
 21
38.859324
 31
0.0
  0
LINE
  8
0
 10
48.468388
 20
32.659324
 30
0.0
 11
60.968388
 21
32.659324
 31
0.0
  0
LINE
  8
0
 10
57.968388
 20
18.859324
 30
0.0
 11
57.968388
 21
32.659324
 31
0.0
  0
LINE
  8
0
 10
49.468388
 20
36.959324
 30
0.0
 11
60.968388
 21
36.959324
 31
0.0
  0
LINE
  8
0
 10
48.468388
 20
37.959324
 30
0.0
 11
60.968388
 21
37.959324
 31
0.0
  0
LINE
  8
0
 10
49.468388
 20
32.659324
 30
0.0
 11
49.468388
 21
36.959324
 31
0.0
  0
CIRCLE
  8
0
 10
60.968388
 20
-12.568839
 30
0.0
 40
16.2
  0
CIRCLE
  8
0
 10
60.968388
 20
-12.568839
 30
0.0
 40
12.5
  0
LINE
  8
0
 10
44.668388
 20
18.859324
 30
0.0
 11
44.668388
 21
38.759324
 31
0.0
  0
LINE
  8
0
 10
-0.558612
 20
8.533457
 30
0.0
 11
-0.558612
 21
25.333457
 31
0.0
  0
LINE
  8
0
 10
1.941388
 20
13.033457
 30
0.0
 11
1.941388
 21
15.033457
 31
0.0
  0
LINE
  8
0
 10
1.941388
 20
13.033457
 30
0.0
 11
0.441388
 21
13.033457
 31
0.0
  0
LINE
  8
0
 10
1.941388
 20
15.033457
 30
0.0
 11
0.441388
 21
15.033457
 31
0.0
  0
LINE
  8
0
 10
8.441388
 20
12.383457
 30
0.0
 11
8.091388
 21
12.033457
 31
0.0
  0
LINE
  8
0
 10
8.441388
 20
15.683457
 30
0.0
 11
8.091388
 21
16.033457
 31
0.0
  0
LINE
  8
0
 10
0.441388
 20
12.383457
 30
0.0
 11
0.791388
 21
12.033457
 31
0.0
  0
LINE
  8
0
 10
0.441388
 20
15.683457
 30
0.0
 11
0.791388
 21
16.033457
 31
0.0
  0
LINE
  8
0
 10
8.441388
 20
12.383457
 30
0.0
 11
8.441388
 21
15.683457
 31
0.0
  0
LINE
  8
0
 10
0.441388
 20
12.383457
 30
0.0
 11
0.441388
 21
15.683457
 31
0.0
  0
LINE
  8
0
 10
9.341388
 20
12.383457
 30
0.0
 11
-0.558612
 21
12.383457
 31
0.0
  0
LINE
  8
0
 10
9.341388
 20
15.683457
 30
0.0
 11
-0.558612
 21
15.683457
 31
0.0
  0
LINE
  8
0
 10
9.341388
 20
12.033457
 30
0.0
 11
-0.558612
 21
12.033457
 31
0.0
  0
LINE
  8
0
 10
9.341388
 20
16.033457
 30
0.0
 11
-0.558612
 21
16.033457
 31
0.0
  0
INSERT
  8
0
  2
*X0
 10
63.57004
 20
-19.331356
 30
0.0
  0
LINE
  8
0
 10
44.668388
 20
28.359324
 30
0.0
 11
57.968388
 21
28.359324
 31
0.0
  0
LINE
  8
0
 10
44.668388
 20
23.359324
 30
0.0
 11
57.968388
 21
23.359324
 31
0.0
  0
LINE
  8
0
 10
44.668388
 20
27.959324
 30
0.0
 11
57.968388
 21
27.959324
 31
0.0
  0
LINE
  8
0
 10
44.668388
 20
23.759324
 30
0.0
 11
57.968388
 21
23.759324
 31
0.0
  0
LINE
  8
0
 10
45.168388
 20
23.759324
 30
0.0
 11
45.168388
 21
27.959324
 31
0.0
  0
LINE
  8
0
 10
57.168388
 20
23.759324
 30
0.0
 11
57.168388
 21
27.959324
 31
0.0
  0
LINE
  8
0
 10
45.168388
 20
27.959324
 30
0.0
 11
45.568388
 21
28.359324
 31
0.0
  0
LINE
  8
0
 10
45.168388
 20
23.759324
 30
0.0
 11
45.568388
 21
23.359324
 31
0.0
  0
LINE
  8
0
 10
57.168388
 20
27.959324
 30
0.0
 11
56.768388
 21
28.359324
 31
0.0
  0
LINE
  8
0
 10
57.168388
 20
23.759324
 30
0.0
 11
56.768388
 21
23.359324
 31
0.0
  0
LINE
  8
0
 10
45.168388
 20
27.109324
 30
0.0
 11
47.168388
 21
27.109324
 31
0.0
  0
LINE
  8
0
 10
45.168388
 20
24.609324
 30
0.0
 11
47.168388
 21
24.609324
 31
0.0
  0
LINE
  8
0
 10
47.168388
 20
24.609324
 30
0.0
 11
47.168388
 21
27.109324
 31
0.0
  0
INSERT
  8
0
  2
*X1
 10
114.108
 20
66.452227
 30
0.0
  0
LINE
  8
0
 10
95.233864
 20
22.871376
 30
0.0
 11
95.233864
 21
45.071376
 31
0.0
  0
LINE
  8
0
 10
137.233864
 20
22.871376
 30
0.0
 11
137.233864
 21
45.071376
 31
0.0
  0
LINE
  8
0
 10
95.233864
 20
22.871376
 30
0.0
 11
137.233864
 21
22.871376
 31
0.0
  0
LINE
  8
0
 10
96.033864
 20
45.871376
 30
0.0
 11
136.433864
 21
45.871376
 31
0.0
  0
LINE
  8
0
 10
112.233864
 20
22.871376
 30
0.0
 11
112.233864
 21
39.871376
 31
0.0
  0
LINE
  8
0
 10
100.233864
 20
39.871376
 30
0.0
 11
116.233864
 21
39.871376
 31
0.0
  0
LINE
  8
0
 10
100.233864
 20
39.871376
 30
0.0
 11
100.233864
 21
45.871376
 31
0.0
  0
LINE
  8
0
 10
96.033864
 20
45.871376
 30
0.0
 11
95.233864
 21
45.071376
 31
0.0
  0
LINE
  8
0
 10
136.433864
 20
45.871376
 30
0.0
 11
137.233864
 21
45.071376
 31
0.0
  0
LINE
  8
0
 10
101.233864
 20
39.871376
 30
0.0
 11
101.233864
 21
43.871376
 31
0.0
  0
LINE
  8
0
  6
CENTER
 10
116.233864
 20
19.603536
 30
0.0
 11
116.233864
 21
50.333072
 31
0.0
  0
LINE
  8
0
 10
115.633864
 20
7.611919
 30
0.0
 11
115.733864
 21
8.314834
 31
0.0
  0
ARC
  8
0
 10
116.233864
 20
-12.679212
 30
0.0
 40
20.3
 50
77.576071
 51
81.247458
  0
ARC
  8
0
 10
116.233864
 20
-12.679212
 30
0.0
 40
21.0
 50
74.518039
 51
77.246667
  0
LINE
  8
0
 10
119.322859
 20
7.384389
 30
0.0
 11
119.309997
 21
8.094266
 31
0.0
  0
LINE
  8
0
 10
120.601271
 20
7.145412
 30
0.0
 11
120.869702
 21
7.802707
 31
0.0
  0
ARC
  8
0
 10
116.233864
 20
-12.679212
 30
0.0
 40
20.3
 50
70.517247
 51
74.188635
  0
ARC
  8
0
 10
116.233864
 20
-12.679212
 30
0.0
 40
21.0
 50
67.459215
 51
70.187844
  0
LINE
  8
0
 10
121.765028
 20
6.852716
 30
0.0
 11
121.839499
 21
7.558793
 31
0.0
  0
LINE
  8
0
 10
123.004383
 20
6.458449
 30
0.0
 11
123.351553
 21
7.077774
 31
0.0
  0
ARC
  8
0
 10
116.233864
 20
-12.679212
 30
0.0
 40
20.3
 50
63.458424
 51
67.129811
  0
ARC
  8
0
 10
116.233864
 20
-12.679212
 30
0.0
 40
21.0
 50
60.400392
 51
63.12902
  0
LINE
  8
0
 10
124.12335
 20
6.024959
 30
0.0
 11
124.284025
 21
6.716532
 31
0.0
  0
LINE
  8
0
 10
125.30486
 20
5.481378
 30
0.0
 11
125.725506
 21
6.053346
 31
0.0
  0
ARC
  8
0
 10
116.233864
 20
-12.679212
 30
0.0
 40
20.3
 50
56.3996
 51
60.070988
  0
ARC
  8
0
 10
116.233864
 20
-12.679212
 30
0.0
 40
21.0
 50
53.341568
 51
56.070197
  0
LINE
  8
0
 10
126.362075
 20
4.913665
 30
0.0
 11
126.606519
 21
5.580252
 31
0.0
  0
LINE
  8
0
 10
127.467831
 20
4.22901
 30
0.0
 11
127.955577
 21
4.744951
 31
0.0
  0
ARC
  8
0
 10
116.233864
 20
-12.679212
 30
0.0
 40
20.3
 50
49.340777
 51
53.012164
  0
ARC
  8
0
 10
116.233864
 20
-12.679212
 30
0.0
 40
21.0
 50
46.282745
 51
49.011373
  0
LINE
  8
0
 10
128.447267
 20
3.535682
 30
0.0
 11
128.771774
 21
4.167177
 31
0.0
  0
LINE
  8
0
 10
129.460505
 20
2.720332
 30
0.0
 11
130.007958
 21
3.172423
 31
0.0
  0
ARC
  8
0
 10
116.233864
 20
-12.679212
 30
0.0
 40
20.3
 50
42.281953
 51
45.953341
  0
ARC
  8
0
 10
116.233864
 20
-12.679212
 30
0.0
 40
21.0
 50
39.223921
 51
41.952549
  0
LINE
  8
0
 10
130.347316
 20
1.911897
 30
0.0
 11
130.746967
 21
2.498727
 31
0.0
  0
LINE
  8
0
 10
131.252678
 20
0.978212
 30
0.0
 11
131.851537
 21
1.359601
 31
0.0
  0
ARC
  8
0
 10
116.233864
 20
-12.679212
 30
0.0
 40
20.3
 50
35.22313
 51
38.894517
  0
ARC
  8
0
 10
116.233864
 20
-12.679212
 30
0.0
 40
21.0
 50
32.165098
 51
34.893726
  0
LINE
  8
0
 10
132.03342
 20
0.066926
 30
0.0
 11
132.502156
 21
0.600196
 31
0.0
  0
LINE
  8
0
 10
132.81718
 20
-0.970941
 30
0.0
 11
133.458369
 21
-0.666035
 31
0.0
  0
ARC
  8
0
 10
116.233864
 20
-12.679212
 30
0.0
 40
20.3
 50
28.164306
 51
31.835694
  0
ARC
  8
0
 10
116.233864
 20
-12.679212
 30
0.0
 40
21.0
 50
25.106274
 51
27.834902
  0
LINE
  8
0
 10
133.480018
 20
-1.971264
 30
0.0
 11
134.010734
 21
-1.499638
 31
0.0
  0
LINE
  8
0
 10
134.130297
 20
-3.097579
 30
0.0
 11
134.804095
 21
-2.873779
 31
0.0
  0
ARC
  8
0
 10
116.233864
 20
-12.679212
 30
0.0
 40
20.3
 50
21.105483
 51
24.77687
  0
ARC
  8
0
 10
116.233864
 20
-12.679212
 30
0.0
 40
21.0
 50
18.047451
 51
20.776079
  0
LINE
  8
0
 10
134.665183
 20
-4.171775
 30
0.0
 11
135.249833
 21
-3.768942
 31
0.0
  0
LINE
  8
0
 10
135.172122
 20
-5.369465
 30
0.0
 11
135.868315
 21
-5.230163
 31
0.0
  0
ARC
  8
0
 10
116.233864
 20
-12.679212
 30
0.0
 40
20.3
 50
14.046659
 51
17.718047
  0
ARC
  8
0
 10
116.233864
 20
-12.679212
 30
0.0
 40
21.0
 50
10.988627
 51
13.717255
  0
LINE
  8
0
 10
135.570947
 20
-6.50125
 30
0.0
 11
136.20067
 21
-6.173318
 31
0.0
  0
LINE
  8
0
 10
135.926862
 20
-7.752159
 30
0.0
 11
136.634897
 21
-7.699467
 31
0.0
  0
ARC
  8
0
 10
116.233864
 20
-12.679212
 30
0.0
 40
20.3
 50
6.987836
 51
10.659223
  0
ARC
  8
0
 10
116.233864
 20
-12.679212
 30
0.0
 40
21.0
 50
3.929803
 51
6.658432
  0
LINE
  8
0
 10
136.183581
 20
-8.924377
 30
0.0
 11
136.84883
 21
-8.676315
 31
0.0
  0
LINE
  8
0
 10
136.383076
 20
-10.209543
 30
0.0
 11
137.09222
 21
-10.244259
 31
0.0
  0
ARC
  8
0
 10
116.233864
 20
-12.679212
 30
0.0
 40
20.3
 50
359.929012
 51
3.6004
  0
ARC
  8
0
 10
116.233864
 20
-12.679212
 30
0.0
 40
21.0
 50
356.87098
 51
359.599608
  0
LINE
  8
0
 10
136.493798
 20
-11.404424
 30
0.0
 11
137.184488
 21
-11.239993
 31
0.0
  0
LINE
  8
0
 10
136.533849
 20
-12.704364
 30
0.0
 11
137.233351
 21
-12.825963
 31
0.0
  0
ARC
  8
0
 10
116.233864
 20
-12.679212
 30
0.0
 40
20.3
 50
352.870189
 51
356.541576
  0
ARC
  8
0
 10
116.233864
 20
-12.679212
 30
0.0
 40
21.0
 50
349.812156
 51
352.540785
  0
LINE
  8
0
 10
136.496895
 20
-13.903794
 30
0.0
 11
137.202556
 21
-13.825488
 31
0.0
  0
LINE
  8
0
 10
136.376894
 20
-15.198803
 30
0.0
 11
137.056152
 21
-15.405441
 31
0.0
  0
ARC
  8
0
 10
116.233864
 20
-12.679212
 30
0.0
 40
20.3
 50
345.811365
 51
349.482753
  0
ARC
  8
0
 10
116.233864
 20
-12.679212
 30
0.0
 40
21.0
 50
342.753333
 51
345.481961
  0
LINE
  8
0
 10
136.192824
 20
-16.384602
 30
0.0
 11
136.902761
 21
-16.393607
 31
0.0
  0
LINE
  8
0
 10
135.914592
 20
-17.655049
 30
0.0
 11
136.563308
 21
-17.943593
 31
0.0
  0
ARC
  8
0
 10
116.233864
 20
-12.679212
 30
0.0
 40
20.3
 50
338.752542
 51
342.423929
  0
ARC
  8
0
 10
116.233864
 20
-12.679212
 30
0.0
 40
21.0
 50
335.694509
 51
338.423138
  0
LINE
  8
0
 10
135.586197
 20
-18.809239
 30
0.0
 11
136.289645
 21
-18.905419
 31
0.0
  0
LINE
  8
0
 10
135.15395
 20
-20.035865
 30
0.0
 11
135.762291
 21
-20.401943
 31
0.0
  0
ARC
  8
0
 10
116.233864
 20
-12.679212
 30
0.0
 40
20.3
 50
331.693718
 51
335.365106
  0
ARC
  8
0
 10
116.233864
 20
-12.679212
 30
0.0
 40
21.0
 50
328.635686
 51
331.364314
  0
LINE
  8
0
 10
134.686207
 20
-21.140952
 30
0.0
 11
135.372505
 21
-21.322848
 31
0.0
  0
LINE
  8
0
 10
134.106499
 20
-22.305163
 30
0.0
 11
134.665242
 21
-22.743223
 31
0.0
  0
ARC
  8
0
 10
116.233864
 20
-12.679212
 30
0.0
 40
20.3
 50
324.634894
 51
328.306282
  0
ARC
  8
0
 10
116.233864
 20
-12.679212
 30
0.0
 40
21.0
 50
321.576862
 51
324.305491
  0
LINE
  8
0
 10
133.506499
 20
-23.344393
 30
0.0
 11
134.165242
 21
-23.609249
 31
0.0
  0
LINE
  8
0
 10
132.788117
 20
-24.428541
 30
0.0
 11
133.288793
 21
-24.931944
 31
0.0
  0
ARC
  8
0
 10
116.233864
 20
-12.679212
 30
0.0
 40
20.3
 50
317.576071
 51
321.247458
  0
ARC
  8
0
 10
116.233864
 20
-12.679212
 30
0.0
 40
21.0
 50
314.518039
 51
317.246667
  0
LINE
  8
0
 10
132.064956
 20
-25.386161
 30
0.0
 11
132.686158
 21
-25.729961
 31
0.0
  0
LINE
  8
0
 10
131.21879
 20
-26.37381
 30
0.0
 11
131.653808
 21
-26.934925
 31
0.0
  0
ARC
  8
0
 10
116.233864
 20
-12.679212
 30
0.0
 40
20.3
 50
310.517247
 51
314.188635
  0
ARC
  8
0
 10
116.233864
 20
-12.679212
 30
0.0
 40
21.0
 50
307.459215
 51
310.187844
  0
LINE
  8
0
 10
130.383429
 20
-27.235305
 30
0.0
 11
130.957674
 21
-27.652837
 31
0.0
  0
LINE
  8
0
 10
129.422306
 20
-28.111484
 30
0.0
 11
129.785072
 21
-28.721805
 31
0.0
  0
ARC
  8
0
 10
116.233864
 20
-12.679212
 30
0.0
 40
20.3
 50
303.458424
 51
307.129811
  0
ARC
  8
0
 10
116.233864
 20
-12.679212
 30
0.0
 40
21.0
 50
300.400392
 51
303.12902
  0
LINE
  8
0
 10
128.487409
 20
-28.863793
 30
0.0
 11
129.005992
 21
-29.348728
 31
0.0
  0
LINE
  8
0
 10
127.425899
 20
-29.615221
 30
0.0
 11
127.710914
 21
-30.265495
 31
0.0
  0
ARC
  8
0
 10
116.233864
 20
-12.679212
 30
0.0
 40
20.3
 50
296.3996
 51
300.070988
  0
ARC
  8
0
 10
116.233864
 20
-12.679212
 30
0.0
 40
21.0
 50
293.341568
 51
296.070197
  0
LINE
  8
0
 10
126.405638
 20
-30.246939
 30
0.0
 11
126.860697
 21
-30.791927
 31
0.0
  0
LINE
  8
0
 10
125.259832
 20
-30.862224
 30
0.0
 11
125.462776
 21
-31.542595
 31
0.0
  0
ARC
  8
0
 10
116.233864
 20
-12.679212
 30
0.0
 40
20.3
 50
289.340777
 51
293.012164
  0
ARC
  8
0
 10
116.233864
 20
-12.679212
 30
0.0
 40
21.0
 50
286.282745
 51
289.011373
  0
LINE
  8
0
 10
124.169673
 20
-31.363777
 30
0.0
 11
124.554311
 21
-31.960555
 31
0.0
  0
LINE
  8
0
 10
122.95694
 20
-31.833592
 30
0.0
 11
123.074737
 21
-32.533745
 31
0.0
  0
ARC
  8
0
 10
116.233864
 20
-12.679212
 30
0.0
 40
20.3
 50
282.281953
 51
285.953341
  0
ARC
  8
0
 10
116.233864
 20
-12.679212
 30
0.0
 40
21.0
 50
279.223921
 51
281.952549
  0
LINE
  8
0
 10
121.81341
 20
-32.197375
 30
0.0
 11
122.121795
 21
-32.836898
 31
0.0
  0
LINE
  8
0
 10
120.552134
 20
-32.514599
 30
0.0
 11
120.582997
 21
-33.223921
 31
0.0
  0
ARC
  8
0
 10
116.233864
 20
-12.679212
 30
0.0
 40
20.3
 50
275.22313
 51
278.894517
  0
ARC
  8
0
 10
116.233864
 20
-12.679212
 30
0.0
 40
21.0
 50
272.165098
 51
274.893726
  0
LINE
  8
0
 10
119.372566
 20
-32.735098
 30
0.0
 11
119.600024
 21
-33.40767
 31
0.0
  0
LINE
  8
0
 10
118.081867
 20
-32.894921
 30
0.0
 11
118.025328
 21
-33.60266
 31
0.0
  0
ARC
  8
0
 10
116.233864
 20
-12.679212
 30
0.0
 40
20.3
 50
268.164306
 51
271.835694
  0
ARC
  8
0
 10
116.233864
 20
-12.679212
 30
0.0
 40
21.0
 50
265.106274
 51
267.834902
  0
LINE
  8
0
 10
116.884143
 20
-32.968794
 30
0.0
 11
117.027225
 21
-33.664221
 31
0.0
  0
LINE
  8
0
 10
115.583586
 20
-32.968794
 30
0.0
 11
115.440503
 21
-33.664221
 31
0.0
  0
ARC
  8
0
 10
116.233864
 20
-12.679212
 30
0.0
 40
20.3
 50
261.105483
 51
264.77687
  0
ARC
  8
0
 10
116.233864
 20
-12.679212
 30
0.0
 40
21.0
 50
258.047451
 51
260.776079
  0
LINE
  8
0
 10
114.385862
 20
-32.894921
 30
0.0
 11
114.4424
 21
-33.60266
 31
0.0
  0
LINE
  8
0
 10
113.095163
 20
-32.735098
 30
0.0
 11
112.867705
 21
-33.40767
 31
0.0
  0
ARC
  8
0
 10
116.233864
 20
-12.679212
 30
0.0
 40
20.3
 50
254.046659
 51
257.718047
  0
ARC
  8
0
 10
116.233864
 20
-12.679212
 30
0.0
 40
21.0
 50
250.988627
 51
253.717255
  0
LINE
  8
0
 10
111.915595
 20
-32.514599
 30
0.0
 11
111.884732
 21
-33.223921
 31
0.0
  0
LINE
  8
0
 10
110.654319
 20
-32.197375
 30
0.0
 11
110.345934
 21
-32.836898
 31
0.0
  0
ARC
  8
0
 10
116.233864
 20
-12.679212
 30
0.0
 40
20.3
 50
246.987836
 51
250.659223
  0
ARC
  8
0
 10
116.233864
 20
-12.679212
 30
0.0
 40
21.0
 50
243.929803
 51
246.658432
  0
LINE
  8
0
 10
109.510788
 20
-31.833592
 30
0.0
 11
109.392992
 21
-32.533745
 31
0.0
  0
LINE
  8
0
 10
108.298055
 20
-31.363777
 30
0.0
 11
107.913418
 21
-31.960555
 31
0.0
  0
ARC
  8
0
 10
116.233864
 20
-12.679212
 30
0.0
 40
20.3
 50
239.929012
 51
243.6004
  0
ARC
  8
0
 10
116.233864
 20
-12.679212
 30
0.0
 40
21.0
 50
236.87098
 51
239.599608
  0
LINE
  8
0
 10
107.207897
 20
-30.862224
 30
0.0
 11
107.004953
 21
-31.542595
 31
0.0
  0
LINE
  8
0
 10
106.06209
 20
-30.246939
 30
0.0
 11
105.607031
 21
-30.791927
 31
0.0
  0
ARC
  8
0
 10
116.233864
 20
-12.679212
 30
0.0
 40
20.3
 50
232.870189
 51
236.541576
  0
ARC
  8
0
 10
116.233864
 20
-12.679212
 30
0.0
 40
21.0
 50
229.812156
 51
232.540785
  0
LINE
  8
0
 10
105.04183
 20
-29.615221
 30
0.0
 11
104.756814
 21
-30.265495
 31
0.0
  0
LINE
  8
0
 10
103.980319
 20
-28.863793
 30
0.0
 11
103.461737
 21
-29.348728
 31
0.0
  0
ARC
  8
0
 10
116.233864
 20
-12.679212
 30
0.0
 40
20.3
 50
225.811365
 51
229.482753
  0
ARC
  8
0
 10
116.233864
 20
-12.679212
 30
0.0
 40
21.0
 50
222.753333
 51
225.481961
  0
LINE
  8
0
 10
103.045423
 20
-28.111484
 30
0.0
 11
102.682656
 21
-28.721805
 31
0.0
  0
LINE
  8
0
 10
102.0843
 20
-27.235305
 30
0.0
 11
101.510055
 21
-27.652837
 31
0.0
  0
ARC
  8
0
 10
116.233864
 20
-12.679212
 30
0.0
 40
20.3
 50
218.752542
 51
222.423929
  0
ARC
  8
0
 10
116.233864
 20
-12.679212
 30
0.0
 40
21.0
 50
215.694509
 51
218.423138
  0
LINE
  8
0
 10
101.248939
 20
-26.37381
 30
0.0
 11
100.813921
 21
-26.934925
 31
0.0
  0
LINE
  8
0
 10
100.402773
 20
-25.386161
 30
0.0
 11
99.781571
 21
-25.729961
 31
0.0
  0
ARC
  8
0
 10
116.233864
 20
-12.679212
 30
0.0
 40
20.3
 50
211.693718
 51
215.365106
  0
ARC
  8
0
 10
116.233864
 20
-12.679212
 30
0.0
 40
21.0
 50
208.635686
 51
211.364314
  0
LINE
  8
0
 10
99.679611
 20
-24.428541
 30
0.0
 11
99.178936
 21
-24.931944
 31
0.0
  0
LINE
  8
0
 10
98.961229
 20
-23.344393
 30
0.0
 11
98.302486
 21
-23.609249
 31
0.0
  0
ARC
  8
0
 10
116.233864
 20
-12.679212
 30
0.0
 40
20.3
 50
204.634894
 51
208.306282
  0
ARC
  8
0
 10
116.233864
 20
-12.679212
 30
0.0
 40
21.0
 50
201.576862
 51
204.305491
  0
LINE
  8
0
 10
98.361229
 20
-22.305163
 30
0.0
 11
97.802486
 21
-22.743223
 31
0.0
  0
LINE
  8
0
 10
97.781521
 20
-21.140952
 30
0.0
 11
97.095224
 21
-21.322848
 31
0.0
  0
ARC
  8
0
 10
116.233864
 20
-12.679212
 30
0.0
 40
20.3
 50
197.576071
 51
201.247458
  0
ARC
  8
0
 10
116.233864
 20
-12.679212
 30
0.0
 40
21.0
 50
194.518039
 51
197.246667
  0
LINE
  8
0
 10
97.313778
 20
-20.035865
 30
0.0
 11
96.705438
 21
-20.401943
 31
0.0
  0
LINE
  8
0
 10
96.881532
 20
-18.809239
 30
0.0
 11
96.178083
 21
-18.905419
 31
0.0
  0
ARC
  8
0
 10
116.233864
 20
-12.679212
 30
0.0
 40
20.3
 50
190.517247
 51
194.188635
  0
ARC
  8
0
 10
116.233864
 20
-12.679212
 30
0.0
 40
21.0
 50
187.459215
 51
190.187844
  0
LINE
  8
0
 10
96.553136
 20
-17.655049
 30
0.0
 11
95.90442
 21
-17.943593
 31
0.0
  0
LINE
  8
0
 10
96.274904
 20
-16.384602
 30
0.0
 11
95.564968
 21
-16.393607
 31
0.0
  0
ARC
  8
0
 10
116.233864
 20
-12.679212
 30
0.0
 40
20.3
 50
183.458424
 51
187.129811
  0
ARC
  8
0
 10
116.233864
 20
-12.679212
 30
0.0
 40
21.0
 50
180.400392
 51
183.12902
  0
LINE
  8
0
 10
96.090834
 20
-15.198803
 30
0.0
 11
95.411576
 21
-15.405441
 31
0.0
  0
LINE
  8
0
 10
95.970834
 20
-13.903794
 30
0.0
 11
95.265172
 21
-13.825488
 31
0.0
  0
ARC
  8
0
 10
116.233864
 20
-12.679212
 30
0.0
 40
20.3
 50
176.3996
 51
180.070988
  0
ARC
  8
0
 10
116.233864
 20
-12.679212
 30
0.0
 40
21.0
 50
173.341568
 51
176.070197
  0
LINE
  8
0
 10
95.93388
 20
-12.704364
 30
0.0
 11
95.234377
 21
-12.825963
 31
0.0
  0
LINE
  8
0
 10
95.973931
 20
-11.404424
 30
0.0
 11
95.28324
 21
-11.239993
 31
0.0
  0
ARC
  8
0
 10
116.233864
 20
-12.679212
 30
0.0
 40
20.3
 50
169.340777
 51
173.012164
  0
ARC
  8
0
 10
116.233864
 20
-12.679212
 30
0.0
 40
21.0
 50
166.282745
 51
169.011373
  0
LINE
  8
0
 10
96.084653
 20
-10.209543
 30
0.0
 11
95.375509
 21
-10.244259
 31
0.0
  0
LINE
  8
0
 10
96.284147
 20
-8.924377
 30
0.0
 11
95.618898
 21
-8.676315
 31
0.0
  0
ARC
  8
0
 10
116.233864
 20
-12.679212
 30
0.0
 40
20.3
 50
162.281953
 51
165.953341
  0
ARC
  8
0
 10
116.233864
 20
-12.679212
 30
0.0
 40
21.0
 50
159.223921
 51
161.952549
  0
LINE
  8
0
 10
96.540867
 20
-7.752159
 30
0.0
 11
95.832831
 21
-7.699467
 31
0.0
  0
LINE
  8
0
 10
96.896781
 20
-6.50125
 30
0.0
 11
96.267059
 21
-6.173318
 31
0.0
  0
ARC
  8
0
 10
116.233864
 20
-12.679212
 30
0.0
 40
20.3
 50
155.22313
 51
158.894517
  0
ARC
  8
0
 10
116.233864
 20
-12.679212
 30
0.0
 40
21.0
 50
152.165098
 51
154.893726
  0
LINE
  8
0
 10
97.295607
 20
-5.369465
 30
0.0
 11
96.599413
 21
-5.230163
 31
0.0
  0
LINE
  8
0
 10
97.802546
 20
-4.171775
 30
0.0
 11
97.217895
 21
-3.768942
 31
0.0
  0
ARC
  8
0
 10
116.233864
 20
-12.679212
 30
0.0
 40
20.3
 50
148.164306
 51
151.835694
  0
ARC
  8
0
 10
116.233864
 20
-12.679212
 30
0.0
 40
21.0
 50
145.106274
 51
147.834902
  0
LINE
  8
0
 10
98.337432
 20
-3.097579
 30
0.0
 11
97.663633
 21
-2.873779
 31
0.0
  0
LINE
  8
0
 10
98.98771
 20
-1.971264
 30
0.0
 11
98.456994
 21
-1.499638
 31
0.0
  0
ARC
  8
0
 10
116.233864
 20
-12.679212
 30
0.0
 40
20.3
 50
141.105483
 51
144.77687
  0
ARC
  8
0
 10
116.233864
 20
-12.679212
 30
0.0
 40
21.0
 50
138.047451
 51
140.776079
  0
LINE
  8
0
 10
99.650548
 20
-0.970941
 30
0.0
 11
99.009359
 21
-0.666035
 31
0.0
  0
LINE
  8
0
 10
100.434309
 20
0.066926
 30
0.0
 11
99.965573
 21
0.600196
 31
0.0
  0
ARC
  8
0
 10
116.233864
 20
-12.679212
 30
0.0
 40
20.3
 50
134.046659
 51
137.718047
  0
ARC
  8
0
 10
116.233864
 20
-12.679212
 30
0.0
 40
21.0
 50
130.988627
 51
133.717255
  0
LINE
  8
0
 10
101.215051
 20
0.978212
 30
0.0
 11
100.616191
 21
1.359601
 31
0.0
  0
LINE
  8
0
 10
102.120412
 20
1.911897
 30
0.0
 11
101.720762
 21
2.498727
 31
0.0
  0
ARC
  8
0
 10
116.233864
 20
-12.679212
 30
0.0
 40
20.3
 50
126.987836
 51
130.659223
  0
ARC
  8
0
 10
116.233864
 20
-12.679212
 30
0.0
 40
21.0
 50
123.929803
 51
126.658432
  0
LINE
  8
0
 10
103.007223
 20
2.720332
 30
0.0
 11
102.459771
 21
3.172423
 31
0.0
  0
LINE
  8
0
 10
104.020462
 20
3.535682
 30
0.0
 11
103.695955
 21
4.167177
 31
0.0
  0
ARC
  8
0
 10
116.233864
 20
-12.679212
 30
0.0
 40
20.3
 50
119.929012
 51
123.6004
  0
ARC
  8
0
 10
116.233864
 20
-12.679212
 30
0.0
 40
21.0
 50
116.87098
 51
119.599608
  0
LINE
  8
0
 10
104.999898
 20
4.22901
 30
0.0
 11
104.512152
 21
4.744951
 31
0.0
  0
LINE
  8
0
 10
106.105654
 20
4.913665
 30
0.0
 11
105.86121
 21
5.580252
 31
0.0
  0
ARC
  8
0
 10
116.233864
 20
-12.679212
 30
0.0
 40
20.3
 50
112.870189
 51
116.541576
  0
ARC
  8
0
 10
116.233864
 20
-12.679212
 30
0.0
 40
21.0
 50
109.812156
 51
112.540785
  0
LINE
  8
0
 10
107.162868
 20
5.481378
 30
0.0
 11
106.742222
 21
6.053346
 31
0.0
  0
LINE
  8
0
 10
108.344379
 20
6.024959
 30
0.0
 11
108.183704
 21
6.716532
 31
0.0
  0
ARC
  8
0
 10
116.233864
 20
-12.679212
 30
0.0
 40
20.3
 50
105.811365
 51
109.482753
  0
ARC
  8
0
 10
116.233864
 20
-12.679212
 30
0.0
 40
21.0
 50
102.753333
 51
105.481961
  0
LINE
  8
0
 10
109.463346
 20
6.458449
 30
0.0
 11
109.116176
 21
7.077774
 31
0.0
  0
LINE
  8
0
 10
110.702701
 20
6.852716
 30
0.0
 11
110.62823
 21
7.558793
 31
0.0
  0
ARC
  8
0
 10
116.233864
 20
-12.679212
 30
0.0
 40
20.3
 50
98.752542
 51
102.423929
  0
ARC
  8
0
 10
116.233864
 20
-12.679212
 30
0.0
 40
21.0
 50
95.694509
 51
98.423138
  0
LINE
  8
0
 10
111.866457
 20
7.145412
 30
0.0
 11
111.598027
 21
7.802707
 31
0.0
  0
LINE
  8
0
 10
113.14487
 20
7.384389
 30
0.0
 11
113.157731
 21
8.094266
 31
0.0
  0
ARC
  8
0
 10
116.233864
 20
-12.679212
 30
0.0
 40
20.3
 50
91.693718
 51
95.365106
  0
ARC
  8
0
 10
116.233864
 20
-12.679212
 30
0.0
 40
21.0
 50
88.635686
 51
91.364314
  0
LINE
  8
0
 10
114.335774
 20
7.531855
 30
0.0
 11
114.150152
 21
8.217154
 31
0.0
  0
LINE
  8
0
 10
115.633864
 20
7.611919
 30
0.0
 11
115.733864
 21
8.314834
 31
0.0
  0
LINE
  8
0
 10
118.131954
 20
7.531855
 30
0.0
 11
118.317576
 21
8.217154
 31
0.0
  0
LINE
  8
0
 10
116.833864
 20
7.611919
 30
0.0
 11
116.733864
 21
8.314834
 31
0.0
  0
ARC
  8
0
 10
116.233864
 20
-12.679212
 30
0.0
 40
21.0
 50
81.576862
 51
84.305491
  0
ARC
  8
0
 10
116.233864
 20
-12.679212
 30
0.0
 40
20.3
 50
84.634894
 51
88.306282
  0
CIRCLE
  8
0
 10
116.233864
 20
-12.679212
 30
0.0
 40
16.0
  0
LINE
  8
0
 10
116.733864
 20
22.871376
 30
0.0
 11
116.733864
 21
45.071376
 31
0.0
  0
LINE
  8
0
 10
118.131954
 20
22.871376
 30
0.0
 11
118.131954
 21
45.071376
 31
0.0
  0
LINE
  8
0
 10
118.317576
 20
22.871376
 30
0.0
 11
118.317576
 21
45.071376
 31
0.0
  0
LINE
  8
0
 10
119.32135
 20
22.871376
 30
0.0
 11
119.32135
 21
45.071376
 31
0.0
  0
LINE
  8
0
 10
120.601271
 20
22.871376
 30
0.0
 11
120.601271
 21
45.071376
 31
0.0
  0
LINE
  8
0
 10
120.869702
 20
22.871376
 30
0.0
 11
120.869702
 21
45.071376
 31
0.0
  0
LINE
  8
0
 10
121.839499
 20
22.871376
 30
0.0
 11
121.839499
 21
45.071376
 31
0.0
  0
LINE
  8
0
 10
123.004383
 20
22.871376
 30
0.0
 11
123.004383
 21
45.071376
 31
0.0
  0
LINE
  8
0
 10
123.351553
 20
22.871376
 30
0.0
 11
123.351553
 21
45.071376
 31
0.0
  0
LINE
  8
0
 10
124.284025
 20
22.871376
 30
0.0
 11
124.284025
 21
45.071376
 31
0.0
  0
LINE
  8
0
 10
125.30486
 20
22.871376
 30
0.0
 11
125.30486
 21
45.071376
 31
0.0
  0
LINE
  8
0
 10
125.725506
 20
22.871376
 30
0.0
 11
125.725506
 21
45.071376
 31
0.0
  0
LINE
  8
0
 10
126.606519
 20
22.871376
 30
0.0
 11
126.606519
 21
45.071376
 31
0.0
  0
LINE
  8
0
 10
127.467831
 20
22.871376
 30
0.0
 11
127.467831
 21
45.071376
 31
0.0
  0
LINE
  8
0
 10
127.955577
 20
22.871376
 30
0.0
 11
127.955577
 21
45.071376
 31
0.0
  0
LINE
  8
0
 10
128.771774
 20
22.871376
 30
0.0
 11
128.771774
 21
45.071376
 31
0.0
  0
LINE
  8
0
 10
129.460505
 20
22.871376
 30
0.0
 11
129.460505
 21
45.071376
 31
0.0
  0
LINE
  8
0
 10
130.007958
 20
22.871376
 30
0.0
 11
130.007958
 21
45.071376
 31
0.0
  0
LINE
  8
0
 10
130.746967
 20
22.871376
 30
0.0
 11
130.746967
 21
45.071376
 31
0.0
  0
LINE
  8
0
 10
131.252678
 20
22.871376
 30
0.0
 11
131.252678
 21
45.071376
 31
0.0
  0
LINE
  8
0
 10
131.851537
 20
22.871376
 30
0.0
 11
131.851537
 21
45.071376
 31
0.0
  0
LINE
  8
0
 10
132.502156
 20
22.871376
 30
0.0
 11
132.502156
 21
45.071376
 31
0.0
  0
LINE
  8
0
 10
132.81718
 20
22.871376
 30
0.0
 11
132.81718
 21
45.071376
 31
0.0
  0
LINE
  8
0
 10
133.458369
 20
22.871376
 30
0.0
 11
133.458369
 21
45.071376
 31
0.0
  0
LINE
  8
0
 10
134.010734
 20
22.871376
 30
0.0
 11
134.010734
 21
45.071376
 31
0.0
  0
LINE
  8
0
 10
134.130297
 20
22.871376
 30
0.0
 11
134.130297
 21
45.071376
 31
0.0
  0
LINE
  8
0
 10
134.804095
 20
22.871376
 30
0.0
 11
134.804095
 21
45.071376
 31
0.0
  0
LINE
  8
0
 10
135.249833
 20
22.871376
 30
0.0
 11
135.249833
 21
45.071376
 31
0.0
  0
LINE
  8
0
 10
135.868315
 20
22.871376
 30
0.0
 11
135.868315
 21
45.071376
 31
0.0
  0
LINE
  8
0
 10
136.20067
 20
22.871376
 30
0.0
 11
136.20067
 21
45.071376
 31
0.0
  0
LINE
  8
0
 10
136.634897
 20
22.871376
 30
0.0
 11
136.634897
 21
45.071376
 31
0.0
  0
LINE
  8
0
 10
136.84883
 20
22.871376
 30
0.0
 11
136.84883
 21
45.071376
 31
0.0
  0
LINE
  8
0
 10
137.09222
 20
22.871376
 30
0.0
 11
137.09222
 21
45.071376
 31
0.0
  0
LINE
  8
0
 10
137.184488
 20
22.871376
 30
0.0
 11
137.184488
 21
45.071376
 31
0.0
  0
LINE
  8
0
 10
137.233864
 20
45.071376
 30
0.0
 11
116.233864
 21
45.071376
 31
0.0
  0
LINE
  8
0
 10
101.233864
 20
43.871376
 30
0.0
 11
116.233864
 21
43.871376
 31
0.0
  0
LINE
  8
0
 10
100.233864
 20
44.871376
 30
0.0
 11
116.233864
 21
44.871376
 31
0.0
  0
LINE
  8
0
 10
95.93388
 20
22.871376
 30
0.0
 11
95.93388
 21
45.771392
 31
0.0
  0
LINE
  8
0
 10
95.93388
 20
33.471376
 30
0.0
 11
112.233864
 21
33.471376
 31
0.0
  0
LINE
  8
0
 10
95.93388
 20
33.871376
 30
0.0
 11
112.233864
 21
33.871376
 31
0.0
  0
LINE
  8
0
 10
99.083872
 20
30.121376
 30
0.0
 11
99.083872
 21
32.621376
 31
0.0
  0
LINE
  8
0
 10
97.083872
 20
30.121376
 30
0.0
 11
99.083872
 21
30.121376
 31
0.0
  0
LINE
  8
0
 10
97.083872
 20
32.621376
 30
0.0
 11
99.083872
 21
32.621376
 31
0.0
  0
LINE
  8
0
 10
97.083872
 20
29.271376
 30
0.0
 11
97.483872
 21
28.871376
 31
0.0
  0
LINE
  8
0
 10
97.083872
 20
33.471376
 30
0.0
 11
97.483872
 21
33.871376
 31
0.0
  0
LINE
  8
0
 10
97.083872
 20
29.271376
 30
0.0
 11
97.083872
 21
33.471376
 31
0.0
  0
LINE
  8
0
 10
111.083872
 20
29.271376
 30
0.0
 11
110.683872
 21
28.871376
 31
0.0
  0
LINE
  8
0
 10
111.083872
 20
33.471376
 30
0.0
 11
110.683872
 21
33.871376
 31
0.0
  0
LINE
  8
0
 10
111.083872
 20
29.271376
 30
0.0
 11
111.083872
 21
33.471376
 31
0.0
  0
LINE
  8
0
 10
95.93388
 20
29.271376
 30
0.0
 11
112.233864
 21
29.271376
 31
0.0
  0
LINE
  8
0
 10
95.93388
 20
28.871376
 30
0.0
 11
112.233864
 21
28.871376
 31
0.0
  0
CIRCLE
  8
0
 10
116.233864
 20
-12.679212
 30
0.0
 40
20.2
  0
INSERT
  8
0
  2
*X2
 10
169.608
 20
187.861904
 30
0.0
  0
ENDSEC
  0
EOF
