  0
SECTION
  2
HEADER
  9
$ACADVER
  1
AC1009
  9
$INSBASE
 10
0.0
 20
0.0
 30
0.0
  9
$EXTMIN
 10
-192.7241732687921
 20
969.80500444799475
 30
0.0
  9
$EXTMAX
 10
-93.542792805769693
 20
1001.805004447995
 30
0.0
  9
$LIMMIN
 10
0.0
 20
0.0
  9
$LIMMAX
 10
420.0
 20
297.0
  9
$ORTHOMODE
 70
     1
  9
$REGENMODE
 70
     1
  9
$FILLMODE
 70
     1
  9
$QTEXTMODE
 70
     0
  9
$MIRRTEXT
 70
     1
  9
$DRAGMODE
 70
     2
  9
$LTSCALE
 40
1.0
  9
$OSMODE
 70
    40
  9
$ATTMODE
 70
     1
  9
$TEXTSIZE
 40
2.5
  9
$TRACEWID
 40
1.0
  9
$TEXTSTYLE
  7
STANDARD
  9
$CLAYER
  8
0
  9
$CELTYPE
  6
BYLAYER
  9
$CECOLOR
 62
   256
  9
$DIMSCALE
 40
1.0
  9
$DIMASZ
 40
2.5
  9
$DIMEXO
 40
0.625
  9
$DIMDLI
 40
3.75
  9
$DIMRND
 40
0.0
  9
$DIMDLE
 40
0.0
  9
$DIMEXE
 40
1.25
  9
$DIMTP
 40
0.0
  9
$DIMTM
 40
0.0
  9
$DIMTXT
 40
2.5
  9
$DIMCEN
 40
2.5
  9
$DIMTSZ
 40
0.0
  9
$DIMTOL
 70
     0
  9
$DIMLIM
 70
     0
  9
$DIMTIH
 70
     1
  9
$DIMTOH
 70
     1
  9
$DIMSE1
 70
     0
  9
$DIMSE2
 70
     0
  9
$DIMTAD
 70
     1
  9
$DIMZIN
 70
     8
  9
$DIMBLK
  1

  9
$DIMASO
 70
     1
  9
$DIMSHO
 70
     1
  9
$DIMPOST
  1

  9
$DIMAPOST
  1

  9
$DIMALT
 70
     0
  9
$DIMALTD
 70
     3
  9
$DIMALTF
 40
0.03937007874016
  9
$DIMLFAC
 40
1.0
  9
$DIMTOFL
 70
     1
  9
$DIMTVP
 40
0.0
  9
$DIMTIX
 70
     0
  9
$DIMSOXD
 70
     0
  9
$DIMSAH
 70
     0
  9
$DIMBLK1
  1

  9
$DIMBLK2
  1

  9
$DIMSTYLE
  2
ISO-25
  9
$DIMCLRD
 70
     0
  9
$DIMCLRE
 70
     0
  9
$DIMCLRT
 70
     0
  9
$DIMTFAC
 40
1.0
  9
$DIMGAP
 40
0.625
  9
$LUNITS
 70
     2
  9
$LUPREC
 70
     4
  9
$SKETCHINC
 40
1.0
  9
$FILLETRAD
 40
0.5
  9
$AUNITS
 70
     0
  9
$AUPREC
 70
     0
  9
$MENU
  1
.
  9
$ELEVATION
 40
0.0
  9
$PELEVATION
 40
0.0
  9
$THICKNESS
 40
0.0
  9
$LIMCHECK
 70
     0
  9
$BLIPMODE
 70
     0
  9
$CHAMFERA
 40
0.25
  9
$CHAMFERB
 40
0.25
  9
$SKPOLY
 70
     0
  9
$TDCREATE
 40
2453308.3294891082
  9
$TDUPDATE
 40
2453308.379579294
  9
$TDINDWG
 40
0.0418007407
  9
$TDUSRTIMER
 40
0.0418007407
  9
$USRTIMER
 70
     1
  9
$ANGBASE
 50
0.0
  9
$ANGDIR
 70
     0
  9
$PDMODE
 70
     3
  9
$PDSIZE
 40
2.0
  9
$PLINEWID
 40
0.0
  9
$COORDS
 70
     0
  9
$SPLFRAME
 70
     0
  9
$SPLINETYPE
 70
     6
  9
$SPLINESEGS
 70
     8
  9
$ATTDIA
 70
     0
  9
$ATTREQ
 70
     1
  9
$HANDLING
 70
-16383
  9
$HANDSEED
  5
5C7
  9
$SURFTAB1
 70
     6
  9
$SURFTAB2
 70
     6
  9
$SURFTYPE
 70
     6
  9
$SURFU
 70
     6
  9
$SURFV
 70
     6
  9
$UCSNAME
  2

  9
$UCSORG
 10
0.0
 20
0.0
 30
0.0
  9
$UCSXDIR
 10
1.0
 20
0.0
 30
0.0
  9
$UCSYDIR
 10
0.0
 20
1.0
 30
0.0
  9
$PUCSNAME
  2

  9
$PUCSORG
 10
0.0
 20
0.0
 30
0.0
  9
$PUCSXDIR
 10
1.0
 20
0.0
 30
0.0
  9
$PUCSYDIR
 10
0.0
 20
1.0
 30
0.0
  9
$USERI1
 70
     0
  9
$USERI2
 70
     0
  9
$USERI3
 70
     0
  9
$USERI4
 70
     0
  9
$USERI5
 70
     0
  9
$USERR1
 40
0.0
  9
$USERR2
 40
0.0
  9
$USERR3
 40
0.0
  9
$USERR4
 40
0.0
  9
$USERR5
 40
0.0
  9
$WORLDVIEW
 70
     1
  9
$SHADEDGE
 70
     3
  9
$SHADEDIF
 70
    70
  9
$TILEMODE
 70
     1
  9
$MAXACTVP
 70
    48
  9
$PLIMCHECK
 70
     0
  9
$PEXTMIN
 10
28.674485683441159
 20
19.97498331069945
 30
0.0
  9
$PEXTMAX
 10
258.0703711509704
 20
179.77484979629509
 30
0.0
  9
$PLIMMIN
 10
-5.027069091796875
 20
-5.0270833969116211
  9
$PLIMMAX
 10
291.98358154296869
 20
204.98858737945551
  9
$UNITMODE
 70
     0
  9
$VISRETAIN
 70
     1
  9
$PLINEGEN
 70
     0
  9
$PSLTSCALE
 70
     1
  0
ENDSEC
  0
SECTION
  2
TABLES
  0
TABLE
  2
VPORT
 70
     3
  0
VPORT
  2
*ACTIVE
 70
     0
 10
0.0
 20
0.0
 11
1.0
 21
1.0
 12
-143.30410713551299
 22
985.79011267563772
 13
0.0
 23
0.0
 14
10.0
 24
10.0
 15
10.0
 25
10.0
 16
0.0
 26
0.0
 36
1.0
 17
0.0
 27
0.0
 37
0.0
 40
65.917402887877486
 41
1.508135168961201
 42
50.0
 43
0.0
 44
0.0
 50
0.0
 51
0.0
 71
     0
 72
   100
 73
     1
 74
     2
 75
     0
 76
     0
 77
     0
 78
     0
  0
ENDTAB
  0
TABLE
  2
LTYPE
 70
     3
  0
LTYPE
  2
CONTINUOUS
 70
     0
  3
Solid line
 72
    65
 73
     0
 40
0.0
  0
LTYPE
  2
CENTER
 70
     0
  3
Center (.5x) ___ _ ___ _ ___ _ ___ _ ___ _ ___
 72
    65
 73
     4
 40
28.574999999999989
 49
19.050000000000001
 49
-3.1749999999999989
 49
3.1749999999999989
 49
-3.1749999999999989
  0
LTYPE
  2
DASHED
 70
     0
  3
Dashed (.5x) _ _ _ _ _ _ _ _ _ _ _ _ _ _ _ _ _
 72
    65
 73
     2
 40
9.5249999999999986
 49
6.3499999999999988
 49
-3.1749999999999989
  0
ENDTAB
  0
TABLE
  2
LAYER
 70
     2
  0
LAYER
  2
0
 70
     0
 62
     7
  6
CONTINUOUS
  0
ENDTAB
  0
TABLE
  2
STYLE
 70
     1
  0
STYLE
  2
STANDARD
 70
     0
 40
0.0
 41
1.0
 50
0.0
 71
     0
 42
2.5
  3
txt
  4

  0
ENDTAB
  0
TABLE
  2
VIEW
 70
     0
  0
ENDTAB
  0
TABLE
  2
UCS
 70
     0
  0
ENDTAB
  0
TABLE
  2
APPID
 70
     1
  0
APPID
  2
ACAD
 70
     0
  0
ENDTAB
  0
TABLE
  2
DIMSTYLE
 70
     1
  0
DIMSTYLE
  2
ISO-25
 70
     0
  3

  4

  5

  6

  7

 40
1.0
 41
2.5
 42
0.625
 43
3.75
 44
1.25
 45
0.0
 46
0.0
 47
0.0
 48
0.0
140
2.5
141
2.5
142
0.0
143
0.03937007874016
144
1.0
145
0.0
146
1.0
147
0.625
 71
     0
 72
     0
 73
     1
 74
     1
 75
     0
 76
     0
 77
     1
 78
     8
170
     0
171
     3
172
     1
173
     0
174
     0
175
     0
176
     0
177
     0
178
     0
  0
ENDTAB
  0
ENDSEC
  0
SECTION
  2
BLOCKS
  0
BLOCK
  8
0
  2
$MODEL_SPACE
 70
     0
 10
0.0
 20
0.0
 30
0.0
  3
$MODEL_SPACE
  1

  0
ENDBLK
  5
21
  8
0
  0
BLOCK
 67
     1
  8
0
  2
$PAPER_SPACE
 70
     0
 10
0.0
 20
0.0
 30
0.0
  3
$PAPER_SPACE
  1

  0
ENDBLK
  5
53
 67
     1
  8
0
  0
BLOCK
  8
0
  2
*X0
 70
     1
 10
0.0
 20
0.0
 30
0.0
  3
*X0
  1

  0
LINE
  5
519
  8
0
 62
     0
 10
-93.890514684706204
 20
998.18076600456368
 30
0.0
 11
-95.514753128137613
 21
999.80500444799509
 31
0.0
  0
LINE
  5
51A
  8
0
 62
     0
 10
-93.890514684706204
 20
996.76655244219069
 30
0.0
 11
-96.928966690510734
 21
999.80500444799509
 31
0.0
  0
LINE
  5
51B
  8
0
 62
     0
 10
-93.890514684706204
 20
995.35233887981758
 30
0.0
 11
-98.343180252883826
 21
999.80500444799509
 31
0.0
  0
LINE
  5
51C
  8
0
 62
     0
 10
-93.926565883157139
 20
993.97417651589535
 30
0.0
 11
-99.757393815256819
 21
999.80500444799509
 31
0.0
  0
LINE
  5
51D
  8
0
 62
     0
 10
-95.171607377630153
 20
993.8050044479952
 30
0.0
 11
-101.1716073776299
 21
999.80500444799509
 31
0.0
  0
LINE
  5
51E
  8
0
 62
     0
 10
-96.585820940003259
 20
993.8050044479952
 30
0.0
 11
-102.585820940003
 21
999.80500444799509
 31
0.0
  0
LINE
  5
51F
  8
0
 62
     0
 10
-98.000034502376323
 20
993.8050044479952
 30
0.0
 11
-104.0000345023761
 21
999.80500444799509
 31
0.0
  0
LINE
  5
520
  8
0
 62
     0
 10
-99.414248064749302
 20
993.8050044479952
 30
0.0
 11
-105.4142480647491
 21
999.80500444799509
 31
0.0
  0
LINE
  5
521
  8
0
 62
     0
 10
-100.82846162712239
 20
993.8050044479952
 30
0.0
 11
-106.8284616271221
 21
999.80500444799509
 31
0.0
  0
LINE
  5
522
  8
0
 62
     0
 10
-102.2426751894955
 20
993.8050044479952
 30
0.0
 11
-108.2426751894952
 21
999.80500444799486
 31
0.0
  0
LINE
  5
523
  8
0
 62
     0
 10
-109.3905146847062
 20
999.53863038083296
 30
0.0
 11
-109.65688875186849
 21
999.80500444799509
 31
0.0
  0
LINE
  5
524
  8
0
 62
     0
 10
-103.65688875186861
 20
993.8050044479952
 30
0.0
 11
-109.3905146847062
 21
999.53863038083296
 31
0.0
  0
LINE
  5
525
  8
0
 62
     0
 10
-109.3905146847062
 20
998.12441681845985
 30
0.0
 11
-111.0711023142416
 21
999.80500444799509
 31
0.0
  0
LINE
  5
526
  8
0
 62
     0
 10
-105.0711023142416
 20
993.8050044479952
 30
0.0
 11
-109.3905146847062
 21
998.12441681845985
 31
0.0
  0
LINE
  5
527
  8
0
 62
     0
 10
-109.3905146847062
 20
996.71020325608686
 30
0.0
 11
-112.48531587661461
 21
999.80500444799509
 31
0.0
  0
LINE
  5
528
  8
0
 62
     0
 10
-106.48531587661471
 20
993.80500444799497
 30
0.0
 11
-109.3905146847062
 21
996.71020325608686
 31
0.0
  0
LINE
  5
529
  8
0
 62
     0
 10
-109.3905146847062
 20
995.29598969371364
 30
0.0
 11
-113.8995294389877
 21
999.80500444799509
 31
0.0
  0
LINE
  5
52A
  8
0
 62
     0
 10
-107.8995294389878
 20
993.80500444799497
 30
0.0
 11
-109.3905146847061
 21
995.29598969371364
 31
0.0
  0
LINE
  5
52B
  8
0
 62
     0
 10
-109.3905146847062
 20
993.88177613134053
 30
0.0
 11
-115.31374300136081
 21
999.80500444799509
 31
0.0
  0
LINE
  5
52C
  8
0
 62
     0
 10
-109.31374300136081
 20
993.80500444799497
 30
0.0
 11
-109.3905146847062
 21
993.88177613134053
 31
0.0
  0
LINE
  5
52D
  8
0
 62
     0
 10
-110.7279565637341
 20
993.8050044479952
 30
0.0
 11
-116.7279565637339
 21
999.80500444799509
 31
0.0
  0
LINE
  5
52E
  8
0
 62
     0
 10
-112.1421701261071
 20
993.8050044479952
 30
0.0
 11
-118.142170126107
 21
999.80500444799509
 31
0.0
  0
LINE
  5
52F
  8
0
 62
     0
 10
-113.5563836884801
 20
993.8050044479952
 30
0.0
 11
-119.5563836884801
 21
999.80500444799509
 31
0.0
  0
LINE
  5
530
  8
0
 62
     0
 10
-114.9705972508532
 20
993.8050044479952
 30
0.0
 11
-120.9705972508532
 21
999.80500444799509
 31
0.0
  0
LINE
  5
531
  8
0
 62
     0
 10
-116.3848108132262
 20
993.80500444799497
 30
0.0
 11
-122.3848108132263
 21
999.80500444799509
 31
0.0
  0
LINE
  5
532
  8
0
 62
     0
 10
-117.7990243755992
 20
993.80500444799497
 30
0.0
 11
-123.7990243755994
 21
999.80500444799509
 31
0.0
  0
LINE
  5
533
  8
0
 62
     0
 10
-119.21323793797239
 20
993.80500444799497
 30
0.0
 11
-124.8905146847062
 21
999.4822811947289
 31
0.0
  0
LINE
  5
534
  8
0
 62
     0
 10
-120.6274515003455
 20
993.80500444799486
 30
0.0
 11
-124.8905146847062
 21
998.06806763235579
 31
0.0
  0
LINE
  5
535
  8
0
 62
     0
 10
-122.04166506271859
 20
993.80500444799486
 30
0.0
 11
-124.8905146847062
 21
996.65385406998269
 31
0.0
  0
LINE
  5
536
  8
0
 62
     0
 10
-123.4558786250916
 20
993.80500444799497
 30
0.0
 11
-124.8905146847063
 21
995.23964050760969
 31
0.0
  0
LINE
  5
537
  8
0
 62
     0
 10
-93.999536502447484
 20
993.80500444799554
 30
0.0
 11
-93.948663329454348
 21
993.85587762098862
 31
0.0
  0
LINE
  5
538
  8
0
 62
     0
 10
-95.413750064820647
 20
993.80500444799543
 30
0.0
 11
-93.890514684706261
 21
995.32823982810976
 31
0.0
  0
LINE
  5
539
  8
0
 62
     0
 10
-96.827963627193753
 20
993.80500444799543
 30
0.0
 11
-93.890514684706261
 21
996.74245339048298
 31
0.0
  0
LINE
  5
53A
  8
0
 62
     0
 10
-98.242177189566974
 20
993.8050044479952
 30
0.0
 11
-93.890514684706261
 21
998.15666695285609
 31
0.0
  0
LINE
  5
53B
  8
0
 62
     0
 10
-99.65639075194008
 20
993.8050044479952
 30
0.0
 11
-93.898452718323085
 21
999.56294248161225
 31
0.0
  0
LINE
  5
53C
  8
0
 62
     0
 10
-101.0706043143131
 20
993.8050044479952
 30
0.0
 11
-95.070604314313073
 21
999.80500444799532
 31
0.0
  0
LINE
  5
53D
  8
0
 62
     0
 10
-102.48481787668619
 20
993.8050044479952
 30
0.0
 11
-96.484817876686236
 21
999.80500444799532
 31
0.0
  0
LINE
  5
53E
  8
0
 62
     0
 10
-103.8990314390594
 20
993.8050044479952
 30
0.0
 11
-97.899031439059343
 21
999.80500444799532
 31
0.0
  0
LINE
  5
53F
  8
0
 62
     0
 10
-105.31324500143251
 20
993.8050044479952
 30
0.0
 11
-99.313245001432506
 21
999.80500444799532
 31
0.0
  0
LINE
  5
540
  8
0
 62
     0
 10
-106.7274585638056
 20
993.80500444799497
 30
0.0
 11
-100.7274585638056
 21
999.80500444799509
 31
0.0
  0
LINE
  5
541
  8
0
 62
     0
 10
-108.1416721261788
 20
993.8050044479952
 30
0.0
 11
-102.1416721261787
 21
999.80500444799532
 31
0.0
  0
LINE
  5
542
  8
0
 62
     0
 10
-109.3905146847062
 20
993.9703754518406
 30
0.0
 11
-103.5558856885518
 21
999.80500444799509
 31
0.0
  0
LINE
  5
543
  8
0
 62
     0
 10
-109.5558856885517
 20
993.8050044479952
 30
0.0
 11
-109.3905146847062
 21
993.9703754518406
 31
0.0
  0
LINE
  5
544
  8
0
 62
     0
 10
-109.3905146847062
 20
995.38458901421382
 30
0.0
 11
-104.9700992509249
 21
999.80500444799509
 31
0.0
  0
LINE
  5
545
  8
0
 62
     0
 10
-110.9700992509248
 20
993.8050044479952
 30
0.0
 11
-109.3905146847062
 21
995.38458901421382
 31
0.0
  0
LINE
  5
546
  8
0
 62
     0
 10
-109.3905146847063
 20
996.79880257658692
 30
0.0
 11
-106.38431281329819
 21
999.80500444799509
 31
0.0
  0
LINE
  5
547
  8
0
 62
     0
 10
-112.3843128132981
 20
993.80500444799497
 30
0.0
 11
-109.3905146847063
 21
996.79880257658692
 31
0.0
  0
LINE
  5
548
  8
0
 62
     0
 10
-109.3905146847062
 20
998.21301613896014
 30
0.0
 11
-107.7985263756712
 21
999.80500444799509
 31
0.0
  0
LINE
  5
549
  8
0
 62
     0
 10
-113.798526375671
 20
993.8050044479952
 30
0.0
 11
-109.3905146847062
 21
998.21301613896014
 31
0.0
  0
LINE
  5
54A
  8
0
 62
     0
 10
-109.3905146847062
 20
999.62722970133325
 30
0.0
 11
-109.21273993804439
 21
999.80500444799486
 31
0.0
  0
LINE
  5
54B
  8
0
 62
     0
 10
-115.21273993804409
 20
993.80500444799497
 30
0.0
 11
-109.3905146847062
 21
999.62722970133325
 31
0.0
  0
LINE
  5
54C
  8
0
 62
     0
 10
-116.6269535004173
 20
993.8050044479952
 30
0.0
 11
-110.6269535004173
 21
999.80500444799509
 31
0.0
  0
LINE
  5
54D
  8
0
 62
     0
 10
-118.04116706279051
 20
993.80500444799497
 30
0.0
 11
-112.04116706279039
 21
999.80500444799509
 31
0.0
  0
LINE
  5
54E
  8
0
 62
     0
 10
-119.4553806251635
 20
993.80500444799497
 30
0.0
 11
-113.4553806251635
 21
999.80500444799509
 31
0.0
  0
LINE
  5
54F
  8
0
 62
     0
 10
-120.86959418753661
 20
993.80500444799497
 30
0.0
 11
-114.86959418753651
 21
999.80500444799509
 31
0.0
  0
LINE
  5
550
  8
0
 62
     0
 10
-122.2838077499098
 20
993.80500444799486
 30
0.0
 11
-116.2838077499096
 21
999.80500444799509
 31
0.0
  0
LINE
  5
551
  8
0
 62
     0
 10
-123.698021312283
 20
993.80500444799486
 30
0.0
 11
-117.69802131228271
 21
999.80500444799509
 31
0.0
  0
LINE
  5
552
  8
0
 62
     0
 10
-124.8656880777768
 20
994.05155124487419
 30
0.0
 11
-119.1122348746558
 21
999.80500444799509
 31
0.0
  0
LINE
  5
553
  8
0
 62
     0
 10
-124.8905146847062
 20
995.44093820031787
 30
0.0
 11
-120.5264484370289
 21
999.80500444799509
 31
0.0
  0
LINE
  5
554
  8
0
 62
     0
 10
-124.8905146847062
 20
996.85515176269109
 30
0.0
 11
-121.940661999402
 21
999.80500444799532
 31
0.0
  0
LINE
  5
555
  8
0
 62
     0
 10
-124.8905146847063
 20
998.26936532506397
 30
0.0
 11
-123.354875561775
 21
999.80500444799532
 31
0.0
  0
ENDBLK
  5
557
  8
0
  0
BLOCK
  8
0
  2
*X1
 70
     1
 10
0.0
 20
0.0
 30
0.0
  3
*X1
  1

  0
LINE
  5
559
  8
0
 62
     0
 10
-134.87903612609651
 20
994.72088204893817
 30
0.0
 11
-135.46315852515329
 21
995.30500444799509
 31
0.0
  0
LINE
  5
55A
  8
0
 62
     0
 10
-134.87903612609639
 20
993.30666848656517
 30
0.0
 11
-136.87737208752631
 21
995.30500444799509
 31
0.0
  0
LINE
  5
55B
  8
0
 62
     0
 10
-134.87903612609639
 20
991.89245492419207
 30
0.0
 11
-138.29158564989939
 21
995.30500444799509
 31
0.0
  0
LINE
  5
55C
  8
0
 62
     0
 10
-135.1602751714006
 20
990.75948040712319
 30
0.0
 11
-139.70579921227261
 21
995.30500444799532
 31
0.0
  0
LINE
  5
55D
  8
0
 62
     0
 10
-136.1200127746458
 20
990.3050044479952
 30
0.0
 11
-141.12001277464569
 21
995.30500444799532
 31
0.0
  0
LINE
  5
55E
  8
0
 62
     0
 10
-137.53422633701891
 20
990.3050044479952
 30
0.0
 11
-142.53422633701879
 21
995.30500444799532
 31
0.0
  0
LINE
  5
55F
  8
0
 62
     0
 10
-138.94843989939201
 20
990.3050044479952
 30
0.0
 11
-143.9484398993919
 21
995.30500444799532
 31
0.0
  0
LINE
  5
560
  8
0
 62
     0
 10
-140.36265346176501
 20
990.3050044479952
 30
0.0
 11
-145.36265346176501
 21
995.30500444799532
 31
0.0
  0
LINE
  5
561
  8
0
 62
     0
 10
-141.776867024138
 20
990.30500444799497
 30
0.0
 11
-146.77686702413811
 21
995.30500444799532
 31
0.0
  0
LINE
  5
562
  8
0
 62
     0
 10
-147.37903612609639
 20
994.49295998758043
 30
0.0
 11
-148.19108058651099
 21
995.30500444799509
 31
0.0
  0
LINE
  5
563
  8
0
 62
     0
 10
-143.19108058651111
 20
990.30500444799497
 30
0.0
 11
-147.37903612609639
 21
994.49295998758043
 31
0.0
  0
LINE
  5
564
  8
0
 62
     0
 10
-147.37903612609639
 20
993.07874642520733
 30
0.0
 11
-149.6052941488841
 21
995.30500444799509
 31
0.0
  0
LINE
  5
565
  8
0
 62
     0
 10
-144.60529414888421
 20
990.30500444799497
 30
0.0
 11
-147.37903612609639
 21
993.07874642520733
 31
0.0
  0
LINE
  5
566
  8
0
 62
     0
 10
-147.37903612609639
 20
991.66453286283433
 30
0.0
 11
-151.01950771125709
 21
995.30500444799509
 31
0.0
  0
LINE
  5
567
  8
0
 62
     0
 10
-146.01950771125721
 20
990.30500444799497
 30
0.0
 11
-147.37903612609639
 21
991.66453286283433
 31
0.0
  0
LINE
  5
568
  8
0
 62
     0
 10
-147.4337212736306
 20
990.3050044479952
 30
0.0
 11
-152.4337212736302
 21
995.30500444799509
 31
0.0
  0
LINE
  5
569
  8
0
 62
     0
 10
-148.8479348360037
 20
990.3050044479952
 30
0.0
 11
-153.84793483600339
 21
995.30500444799509
 31
0.0
  0
LINE
  5
56A
  8
0
 62
     0
 10
-150.26214839837681
 20
990.3050044479952
 30
0.0
 11
-155.26214839837661
 21
995.30500444799509
 31
0.0
  0
LINE
  5
56B
  8
0
 62
     0
 10
-151.67636196074969
 20
990.3050044479952
 30
0.0
 11
-156.67636196074969
 21
995.30500444799509
 31
0.0
  0
LINE
  5
56C
  8
0
 62
     0
 10
-153.09057552312279
 20
990.3050044479952
 30
0.0
 11
-158.09057552312279
 21
995.30500444799509
 31
0.0
  0
LINE
  5
56D
  8
0
 62
     0
 10
-154.5047890854959
 20
990.3050044479952
 30
0.0
 11
-159.5047890854959
 21
995.30500444799509
 31
0.0
  0
LINE
  5
56E
  8
0
 62
     0
 10
-155.91900264786901
 20
990.3050044479952
 30
0.0
 11
-159.879036126096
 21
994.26503792622225
 31
0.0
  0
LINE
  5
56F
  8
0
 62
     0
 10
-157.333216210242
 20
990.30500444799497
 30
0.0
 11
-159.87903612609611
 21
992.85082436384926
 31
0.0
  0
LINE
  5
570
  8
0
 62
     0
 10
-158.74742977261511
 20
990.30500444799497
 30
0.0
 11
-159.84212846334239
 21
991.39970313872232
 31
0.0
  0
LINE
  5
571
  8
0
 62
     0
 10
-136.82320476336119
 20
990.3050044479952
 30
0.0
 11
-134.87903612609639
 21
992.24917308526005
 31
0.0
  0
LINE
  5
572
  8
0
 62
     0
 10
-138.2374183257343
 20
990.3050044479952
 30
0.0
 11
-134.87903612609639
 21
993.66338664763305
 31
0.0
  0
LINE
  5
573
  8
0
 62
     0
 10
-139.65163188810729
 20
990.3050044479952
 30
0.0
 11
-134.87903612609651
 21
995.07760021000615
 31
0.0
  0
LINE
  5
574
  8
0
 62
     0
 10
-141.0658454504804
 20
990.3050044479952
 30
0.0
 11
-136.06584545048051
 21
995.30500444799509
 31
0.0
  0
LINE
  5
575
  8
0
 62
     0
 10
-142.4800590128537
 20
990.30500444799497
 30
0.0
 11
-137.48005901285359
 21
995.30500444799509
 31
0.0
  0
LINE
  5
576
  8
0
 62
     0
 10
-143.89427257522669
 20
990.30500444799497
 30
0.0
 11
-138.89427257522669
 21
995.30500444799509
 31
0.0
  0
LINE
  5
577
  8
0
 62
     0
 10
-145.3084861375998
 20
990.30500444799497
 30
0.0
 11
-140.3084861375998
 21
995.30500444799509
 31
0.0
  0
LINE
  5
578
  8
0
 62
     0
 10
-146.72269969997291
 20
990.30500444799497
 30
0.0
 11
-141.72269969997291
 21
995.30500444799509
 31
0.0
  0
LINE
  5
579
  8
0
 62
     0
 10
-147.37903612609639
 20
991.06288158424456
 30
0.0
 11
-143.13691326234601
 21
995.30500444799509
 31
0.0
  0
LINE
  5
57A
  8
0
 62
     0
 10
-148.13691326234579
 20
990.3050044479952
 30
0.0
 11
-147.37903612609639
 21
991.06288158424456
 31
0.0
  0
LINE
  5
57B
  8
0
 62
     0
 10
-147.37903612609639
 20
992.47709514661767
 30
0.0
 11
-144.55112682471909
 21
995.30500444799509
 31
0.0
  0
LINE
  5
57C
  8
0
 62
     0
 10
-149.55112682471901
 20
990.3050044479952
 30
0.0
 11
-147.37903612609639
 21
992.47709514661767
 31
0.0
  0
LINE
  5
57D
  8
0
 62
     0
 10
-147.37903612609639
 20
993.89130870899089
 30
0.0
 11
-145.9653403870922
 21
995.30500444799509
 31
0.0
  0
LINE
  5
57E
  8
0
 62
     0
 10
-150.9653403870922
 20
990.30500444799497
 30
0.0
 11
-147.37903612609639
 21
993.89130870899089
 31
0.0
  0
LINE
  5
57F
  8
0
 62
     0
 10
-152.3795539494653
 20
990.30500444799497
 30
0.0
 11
-147.3795539494655
 21
995.30500444799509
 31
0.0
  0
LINE
  5
580
  8
0
 62
     0
 10
-153.79376751183841
 20
990.3050044479952
 30
0.0
 11
-148.7937675118385
 21
995.30500444799509
 31
0.0
  0
LINE
  5
581
  8
0
 62
     0
 10
-155.2079810742116
 20
990.30500444799497
 30
0.0
 11
-150.2079810742116
 21
995.30500444799509
 31
0.0
  0
LINE
  5
582
  8
0
 62
     0
 10
-156.62219463658479
 20
990.30500444799497
 30
0.0
 11
-151.62219463658471
 21
995.30500444799509
 31
0.0
  0
LINE
  5
583
  8
0
 62
     0
 10
-158.0364081989579
 20
990.30500444799497
 30
0.0
 11
-153.03640819895779
 21
995.30500444799509
 31
0.0
  0
LINE
  5
584
  8
0
 62
     0
 10
-159.33967936505661
 20
990.41594684426946
 30
0.0
 11
-154.45062176133081
 21
995.30500444799532
 31
0.0
  0
LINE
  5
585
  8
0
 62
     0
 10
-159.8296026339585
 20
991.34023713774059
 30
0.0
 11
-155.86483532370389
 21
995.30500444799532
 31
0.0
  0
LINE
  5
586
  8
0
 62
     0
 10
-159.87903612609611
 20
992.70501720797608
 30
0.0
 11
-157.27904888607699
 21
995.30500444799532
 31
0.0
  0
LINE
  5
587
  8
0
 62
     0
 10
-159.87903612609611
 20
994.11923077034896
 30
0.0
 11
-158.6932624484501
 21
995.30500444799532
 31
0.0
  0
ENDBLK
  5
589
  8
0
  0
BLOCK
  8
0
  2
*X2
 70
     1
 10
0.0
 20
0.0
 30
0.0
  3
*X2
  1

  0
LINE
  5
58B
  8
0
 62
     0
 10
-171.520193589527
 20
990.34984620354908
 30
0.0
 11
-171.97535183397261
 21
990.80500444799475
 31
0.0
  0
LINE
  5
58C
  8
0
 62
     0
 10
-171.52019358952711
 20
989.28918603176942
 30
0.0
 11
-173.03601200575241
 21
990.80500444799475
 31
0.0
  0
LINE
  5
58D
  8
0
 62
     0
 10
-171.52019358952711
 20
988.22852585998965
 30
0.0
 11
-174.09667217753221
 21
990.80500444799475
 31
0.0
  0
LINE
  5
58E
  8
0
 62
     0
 10
-171.52019358952711
 20
987.16786568820976
 30
0.0
 11
-175.1573323493121
 21
990.80500444799475
 31
0.0
  0
LINE
  5
58F
  8
0
 62
     0
 10
-171.53179496362301
 20
986.118806890526
 30
0.0
 11
-176.2179925210919
 21
990.80500444799475
 31
0.0
  0
LINE
  5
590
  8
0
 62
     0
 10
-172.2786526928719
 20
985.80500444799497
 30
0.0
 11
-177.2786526928717
 21
990.80500444799475
 31
0.0
  0
LINE
  5
591
  8
0
 62
     0
 10
-173.33931286465159
 20
985.80500444799486
 30
0.0
 11
-178.3393128646515
 21
990.80500444799475
 31
0.0
  0
LINE
  5
592
  8
0
 62
     0
 10
-174.39997303643139
 20
985.80500444799486
 30
0.0
 11
-179.39997303643131
 21
990.80500444799475
 31
0.0
  0
LINE
  5
593
  8
0
 62
     0
 10
-175.46063320821131
 20
985.80500444799486
 30
0.0
 11
-180.46063320821119
 21
990.80500444799475
 31
0.0
  0
LINE
  5
594
  8
0
 62
     0
 10
-176.52129337999111
 20
985.80500444799486
 30
0.0
 11
-181.52129337999099
 21
990.80500444799475
 31
0.0
  0
LINE
  5
595
  8
0
 62
     0
 10
-182.02019358952711
 20
990.24324448575078
 30
0.0
 11
-182.58195355177091
 21
990.80500444799475
 31
0.0
  0
LINE
  5
596
  8
0
 62
     0
 10
-177.58195355177091
 20
985.80500444799486
 30
0.0
 11
-182.02019358952711
 21
990.24324448575078
 31
0.0
  0
LINE
  5
597
  8
0
 62
     0
 10
-182.020193589527
 20
989.18258431397112
 30
0.0
 11
-183.6426137235506
 21
990.80500444799475
 31
0.0
  0
LINE
  5
598
  8
0
 62
     0
 10
-178.64261372355071
 20
985.80500444799486
 30
0.0
 11
-182.020193589527
 21
989.18258431397112
 31
0.0
  0
LINE
  5
599
  8
0
 62
     0
 10
-182.02019358952711
 20
988.12192414219146
 30
0.0
 11
-184.7032738953304
 21
990.80500444799475
 31
0.0
  0
LINE
  5
59A
  8
0
 62
     0
 10
-179.70327389533051
 20
985.80500444799486
 30
0.0
 11
-182.020193589527
 21
988.12192414219135
 31
0.0
  0
LINE
  5
59B
  8
0
 62
     0
 10
-182.02019358952711
 20
987.06126397041157
 30
0.0
 11
-185.76393406711031
 21
990.80500444799475
 31
0.0
  0
LINE
  5
59C
  8
0
 62
     0
 10
-180.7639340671104
 20
985.80500444799497
 30
0.0
 11
-182.020193589527
 21
987.06126397041157
 31
0.0
  0
LINE
  5
59D
  8
0
 62
     0
 10
-182.020193589527
 20
986.0006037986318
 30
0.0
 11
-186.8245942388902
 21
990.80500444799475
 31
0.0
  0
LINE
  5
59E
  8
0
 62
     0
 10
-181.82459423889011
 20
985.80500444799486
 30
0.0
 11
-182.020193589527
 21
986.0006037986318
 31
0.0
  0
LINE
  5
59F
  8
0
 62
     0
 10
-182.88525441066989
 20
985.80500444799486
 30
0.0
 11
-187.88525441067009
 21
990.80500444799475
 31
0.0
  0
LINE
  5
5A0
  8
0
 62
     0
 10
-183.9459145824498
 20
985.80500444799475
 30
0.0
 11
-188.9459145824498
 21
990.80500444799475
 31
0.0
  0
LINE
  5
5A1
  8
0
 62
     0
 10
-185.00657475422969
 20
985.80500444799486
 30
0.0
 11
-190.00657475422969
 21
990.80500444799486
 31
0.0
  0
LINE
  5
5A2
  8
0
 62
     0
 10
-186.06723492600941
 20
985.80500444799486
 30
0.0
 11
-191.06723492600949
 21
990.80500444799486
 31
0.0
  0
LINE
  5
5A3
  8
0
 62
     0
 10
-187.12789509778921
 20
985.80500444799486
 30
0.0
 11
-192.12789509778929
 21
990.80500444799475
 31
0.0
  0
LINE
  5
5A4
  8
0
 62
     0
 10
-188.18855526956901
 20
985.80500444799486
 30
0.0
 11
-192.520193589527
 21
990.13664276795259
 31
0.0
  0
LINE
  5
5A5
  8
0
 62
     0
 10
-189.24921544134889
 20
985.80500444799486
 30
0.0
 11
-192.520193589527
 21
989.07598259617305
 31
0.0
  0
LINE
  5
5A6
  8
0
 62
     0
 10
-190.3098756131287
 20
985.80500444799486
 30
0.0
 11
-192.520193589527
 21
988.01532242439305
 31
0.0
  0
LINE
  5
5A7
  8
0
 62
     0
 10
-191.3705357849085
 20
985.80500444799486
 30
0.0
 11
-192.520193589527
 21
986.95466225261328
 31
0.0
  0
LINE
  5
5A8
  8
0
 62
     0
 10
-192.4311959566883
 20
985.80500444799486
 30
0.0
 11
-192.4361483409906
 21
985.80995683229696
 31
0.0
  0
LINE
  5
5A9
  8
0
 62
     0
 10
-172.43590313556979
 20
985.80500444799486
 30
0.0
 11
-171.52019358952711
 21
986.72071399403762
 31
0.0
  0
LINE
  5
5AA
  8
0
 62
     0
 10
-173.4965633073497
 20
985.80500444799497
 30
0.0
 11
-171.52019358952711
 21
987.7813741658174
 31
0.0
  0
LINE
  5
5AB
  8
0
 62
     0
 10
-174.55722347912939
 20
985.80500444799486
 30
0.0
 11
-171.52019358952711
 21
988.84203433759717
 31
0.0
  0
LINE
  5
5AC
  8
0
 62
     0
 10
-175.61788365090931
 20
985.80500444799486
 30
0.0
 11
-171.520193589527
 21
989.90269450937706
 31
0.0
  0
LINE
  5
5AD
  8
0
 62
     0
 10
-176.67854382268911
 20
985.80500444799486
 30
0.0
 11
-171.72436870610809
 21
990.7591795645759
 31
0.0
  0
LINE
  5
5AE
  8
0
 62
     0
 10
-177.73920399446891
 20
985.80500444799497
 30
0.0
 11
-172.73920399446899
 21
990.80500444799475
 31
0.0
  0
LINE
  5
5AF
  8
0
 62
     0
 10
-178.7998641662488
 20
985.80500444799497
 30
0.0
 11
-173.79986416624891
 21
990.80500444799475
 31
0.0
  0
LINE
  5
5B0
  8
0
 62
     0
 10
-179.8605243380286
 20
985.80500444799486
 30
0.0
 11
-174.8605243380286
 21
990.80500444799475
 31
0.0
  0
LINE
  5
5B1
  8
0
 62
     0
 10
-180.9211845098084
 20
985.80500444799486
 30
0.0
 11
-175.9211845098084
 21
990.80500444799475
 31
0.0
  0
LINE
  5
5B2
  8
0
 62
     0
 10
-181.98184468158831
 20
985.80500444799486
 30
0.0
 11
-176.9818446815882
 21
990.80500444799475
 31
0.0
  0
LINE
  5
5B3
  8
0
 62
     0
 10
-182.02019358952711
 20
986.82731571183592
 30
0.0
 11
-178.0425048533682
 21
990.80500444799475
 31
0.0
  0
LINE
  5
5B4
  8
0
 62
     0
 10
-183.04250485336809
 20
985.80500444799497
 30
0.0
 11
-182.02019358952711
 21
986.82731571183592
 31
0.0
  0
LINE
  5
5B5
  8
0
 62
     0
 10
-182.02019358952711
 20
987.8879758836157
 30
0.0
 11
-179.10316502514789
 21
990.80500444799475
 31
0.0
  0
LINE
  5
5B6
  8
0
 62
     0
 10
-184.10316502514789
 20
985.80500444799497
 30
0.0
 11
-182.02019358952711
 21
987.8879758836157
 31
0.0
  0
LINE
  5
5B7
  8
0
 62
     0
 10
-182.020193589527
 20
988.94863605539558
 30
0.0
 11
-180.16382519692769
 21
990.80500444799475
 31
0.0
  0
LINE
  5
5B8
  8
0
 62
     0
 10
-185.16382519692769
 20
985.80500444799486
 30
0.0
 11
-182.02019358952711
 21
988.94863605539535
 31
0.0
  0
LINE
  5
5B9
  8
0
 62
     0
 10
-182.020193589527
 20
990.00929622717535
 30
0.0
 11
-181.22448536870749
 21
990.80500444799475
 31
0.0
  0
LINE
  5
5BA
  8
0
 62
     0
 10
-186.22448536870749
 20
985.80500444799486
 30
0.0
 11
-182.02019358952711
 21
990.00929622717535
 31
0.0
  0
LINE
  5
5BB
  8
0
 62
     0
 10
-187.28514554048729
 20
985.80500444799486
 30
0.0
 11
-182.28514554048741
 21
990.80500444799475
 31
0.0
  0
LINE
  5
5BC
  8
0
 62
     0
 10
-188.34580571226721
 20
985.80500444799497
 30
0.0
 11
-183.34580571226729
 21
990.80500444799475
 31
0.0
  0
LINE
  5
5BD
  8
0
 62
     0
 10
-189.40646588404701
 20
985.80500444799486
 30
0.0
 11
-184.40646588404701
 21
990.80500444799475
 31
0.0
  0
LINE
  5
5BE
  8
0
 62
     0
 10
-190.46712605582681
 20
985.80500444799486
 30
0.0
 11
-185.46712605582681
 21
990.80500444799475
 31
0.0
  0
LINE
  5
5BF
  8
0
 62
     0
 10
-191.52778622760661
 20
985.80500444799486
 30
0.0
 11
-186.52778622760661
 21
990.80500444799475
 31
0.0
  0
LINE
  5
5C0
  8
0
 62
     0
 10
-192.47067635720919
 20
985.92277449017206
 30
0.0
 11
-187.58844639938641
 21
990.80500444799486
 31
0.0
  0
LINE
  5
5C1
  8
0
 62
     0
 10
-192.5201935895272
 20
986.93391742963399
 30
0.0
 11
-188.6491065711663
 21
990.80500444799475
 31
0.0
  0
LINE
  5
5C2
  8
0
 62
     0
 10
-192.5201935895272
 20
987.99457760141388
 30
0.0
 11
-189.7097667429461
 21
990.80500444799486
 31
0.0
  0
LINE
  5
5C3
  8
0
 62
     0
 10
-192.52019358952711
 20
989.05523777319365
 30
0.0
 11
-190.77042691472579
 21
990.80500444799509
 31
0.0
  0
LINE
  5
5C4
  8
0
 62
     0
 10
-192.52019358952711
 20
990.11589794497365
 30
0.0
 11
-191.83108708650559
 21
990.80500444799509
 31
0.0
  0
ENDBLK
  5
5C6
  8
0
  0
ENDSEC
  0
SECTION
  2
ENTITIES
  0
LINE
  5
BB
  8
0
 10
-118.6405146847061
 20
972.80500444799509
 30
0.0
 11
-100.1405146847061
 21
972.80500444799509
 31
0.0
  0
LINE
  5
BC
  8
0
  6
CENTER
 10
-109.3905146847062
 20
1001.805004447995
 30
0.0
 11
-109.3905146847061
 21
970.27247423526205
 31
0.0
  0
LINE
  5
BD
  8
0
 10
-94.140514684706218
 20
999.80500444799532
 30
0.0
 11
-124.6405146847063
 21
999.80500444799509
 31
0.0
  0
LINE
  5
BE
  8
0
 10
-124.8905146847062
 20
994.38828580443703
 30
0.0
 11
-124.8905146847063
 21
999.55500444799509
 31
0.0
  0
LINE
  5
BF
  8
0
 10
-100.1405146847061
 20
972.80500444799509
 30
0.0
 11
-100.1405146847061
 21
989.80500444799509
 31
0.0
  0
LINE
  5
C0
  8
0
 10
-124.6405146847063
 20
999.80500444799509
 30
0.0
 11
-124.8905146847063
 21
999.55500444799509
 31
0.0
  0
LINE
  5
C1
  8
0
 10
-94.140514684706218
 20
999.80500444799532
 30
0.0
 11
-93.890514684706247
 21
999.55500444799532
 31
0.0
  0
ARC
  5
C2
  8
0
 10
-121.9107688921371
 20
994.43869261612906
 30
0.0
 40
2.980172114995808
 50
180.9691504993894
 51
261.34923932916888
  0
ARC
  5
C3
  8
0
 10
-119.3905146847062
 20
989.80500444799509
 30
0.0
 40
0.75
 50
0.0
 51
57.484353289714711
  0
LINE
  5
C4
  8
0
 10
-118.6405146847062
 20
989.80500444799509
 30
0.0
 11
-118.6405146847061
 21
972.80500444799509
 31
0.0
  0
LINE
  5
C5
  8
0
 10
-95.441696291046753
 20
991.94850485113545
 30
0.0
 11
-99.793662115122089
 21
990.43743796177284
 31
0.0
  0
ARC
  5
C6
  8
0
 10
-99.390514684706176
 20
989.80500444799509
 30
0.0
 40
0.75
 50
122.5156467102852
 51
180.0
  0
ARC
  5
C7
  8
0
 10
-96.632076501999961
 20
994.41833461909016
 30
0.0
 40
2.7417264869612188
 50
295.73260330851468
 51
359.37203629311949
  0
LINE
  5
C8
  8
0
 10
-93.890514684706247
 20
999.55500444799532
 30
0.0
 11
-93.890514684706247
 21
994.38828580443703
 31
0.0
  0
LINE
  5
C9
  8
0
 10
-118.98736725429031
 20
990.43743796177284
 30
0.0
 11
-122.3590203477851
 21
991.49242438877639
 31
0.0
  0
INSERT
  5
CB
  8
0
  6
CONTINUOUS
  2
*X0
 10
0.0
 20
0.0
 30
0.0
1001
ACAD
1000
HATCH
1002
{
1070
    19
1000
_USER
1040
1.0
1040
0.7853981633974483
1000
R14_HATCH_DATA
1000
CB
1011
1.0
1021
0.0
1031
0.0
1021
0.0
1031
0.0
1011
0.0
1021
0.0
1031
0.0
1021
1.0
1031
0.0
1011
0.0
1021
0.0
1031
0.0
1021
0.0
1031
1.0
1040
0.0
1010
0.0
1020
0.0
1030
1.0
1000
_USER
1070
     0
1070
     0
1071
        2
1071
        7
1070
     1
1070
     1
1071
        6
1040
-93.959832083813353
1040
993.80500444799543
1040
0.0537143765220625
1040
-93.890514684706247
1040
994.38828580443976
1040
0.0
1040
-93.890514684706247
1040
999.55500444799532
1040
0.0
1040
-94.140514684706218
1040
999.80500444799532
1040
0.0
1040
-109.3905146847062
1040
999.80500444799509
1040
0.0
1040
-109.3905146847062
1040
993.8050044479952
1040
0.0
1071
        0
1071
        7
1070
     1
1070
     1
1071
        6
1040
-109.3905146847062
1040
993.8050044479952
1040
0.0
1040
-109.3905146847062
1040
999.80500444799509
1040
0.0
1040
-124.6405146847063
1040
999.80500444799509
1040
0.0
1040
-124.8905146847063
1040
999.55500444799475
1040
0.0
1040
-124.8905146847062
1040
994.38828580443658
1040
0.0493790054657659
1040
-124.82278969229721
1040
993.80500444799486
1040
0.0
1071
        0
1070
     0
1070
     0
1040
0.7853981633974483
1040
1.0
1070
     1
1070
     2
1040
0.7853981633974483
1040
129.56727769609651
1040
218.93704361113461
1040
-0.7071067811865475
1040
0.7071067811865476
1070
     0
1040
2.3561944901923439
1040
129.56727769609651
1040
218.93704361113461
1040
-0.7071067811865476
1040
-0.7071067811865475
1070
     0
1040
0.159165637347354
1071
        2
1040
-104.02887767022619
1040
996.45616859130939
1040
0.0
1040
-113.74207237100291
1040
995.34200913950099
1040
0.0
1002
}
  0
LINE
  5
CC
  8
0
  6
DASHED
 10
-113.3905146847062
 20
987.8050044479952
 30
0.0
 11
-105.3905146847062
 21
987.80500444799497
 31
0.0
  0
LINE
  5
CD
  8
0
  6
DASHED
 10
-105.3905146847062
 20
987.80500444799497
 30
0.0
 11
-105.3905146847061
 21
972.80500444799509
 31
0.0
  0
LINE
  5
CE
  8
0
  6
DASHED
 10
-105.9905146847062
 20
988.405004447995
 30
0.0
 11
-105.9905146847061
 21
972.80500444799509
 31
0.0
  0
LINE
  5
CF
  8
0
  6
DASHED
 10
-112.7905146847062
 20
988.405004447995
 30
0.0
 11
-105.9905146847064
 21
988.405004447995
 31
0.0
  0
LINE
  5
D0
  8
0
  6
DASHED
 10
-105.9905146847062
 20
988.405004447995
 30
0.0
 11
-109.3905146847062
 21
990.36799536323986
 31
0.0
  0
LINE
  5
D1
  8
0
  6
DASHED
 10
-112.7905146847062
 20
988.405004447995
 30
0.0
 11
-109.3905146847061
 21
990.36799536323986
 31
0.0
  0
LINE
  5
D2
  8
0
  6
DASHED
 10
-112.7905146847062
 20
988.405004447995
 30
0.0
 11
-112.7905146847062
 21
972.80500444799509
 31
0.0
  0
LINE
  5
D3
  8
0
  6
DASHED
 10
-113.3905146847062
 20
987.80500444799497
 30
0.0
 11
-113.3905146847063
 21
972.80500444799509
 31
0.0
  0
LINE
  5
21C
  8
0
 10
-135.12903612609651
 20
995.30500444799554
 30
0.0
 11
-159.62903612609611
 21
995.30500444799509
 31
0.0
  0
LINE
  5
21F
  8
0
 10
-140.12903612609631
 20
972.80500444799509
 30
0.0
 11
-154.62903612609591
 21
972.80500444799497
 31
0.0
  0
LINE
  5
222
  8
0
  6
CENTER
 10
-147.37903612609651
 20
998.3050044479952
 30
0.0
 11
-147.37903612609631
 21
969.8050044479952
 31
0.0
  0
LINE
  5
223
  8
0
 10
-140.12903612609659
 20
988.32033250535119
 30
0.0
 11
-140.12903612609631
 21
972.80500444799509
 31
0.0
  0
LINE
  5
26A
  8
0
 10
-139.77607905051539
 20
988.79822200971228
 30
0.0
 11
-136.2908644284214
 21
989.87059573958766
 31
0.0
  0
LINE
  5
26C
  8
0
 10
-134.87903612609651
 20
995.05500444799532
 30
0.0
 11
-134.87903612609651
 21
991.78215375703167
 31
0.0
  0
ARC
  5
26D
  8
0
 10
-136.87903612609651
 20
991.78215375703167
 30
0.0
 40
2.0
 50
287.10272896905292
 51
0.0000000000006488
  0
ARC
  5
26E
  8
0
 10
-157.87903612609611
 20
991.78215375703167
 30
0.0
 40
2.0
 50
179.99999999999929
 51
252.89727103094711
  0
LINE
  5
26F
  8
0
 10
-154.9819932016772
 20
988.79822200971228
 30
0.0
 11
-158.46720782377119
 21
989.87059573958766
 31
0.0
  0
LINE
  5
271
  8
0
 10
-159.87903612609611
 20
995.05500444799509
 30
0.0
 11
-159.87903612609611
 21
991.78215375703167
 31
0.0
  0
LINE
  5
272
  8
0
 10
-154.629036126096
 20
988.32033250535142
 30
0.0
 11
-154.629036126096
 21
972.80500444799509
 31
0.0
  0
LINE
  5
273
  8
0
  6
DASHED
 10
-144.37903612609639
 20
984.80500444799509
 30
0.0
 11
-144.37903612609631
 21
972.80500444799509
 31
0.0
  0
LINE
  5
274
  8
0
  6
DASHED
 10
-144.37903612609639
 20
984.80500444799509
 30
0.0
 11
-150.3790361260962
 21
984.8050044479952
 31
0.0
  0
LINE
  5
275
  8
0
  6
DASHED
 10
-144.87903612609639
 20
985.30500444799509
 30
0.0
 11
-144.87903612609631
 21
972.80500444799509
 31
0.0
  0
LINE
  5
276
  8
0
  6
DASHED
 10
-144.87903612609639
 20
985.30500444799509
 30
0.0
 11
-149.8790361260962
 21
985.30500444799509
 31
0.0
  0
LINE
  5
277
  8
0
  6
DASHED
 10
-144.87903612609639
 20
985.30500444799509
 30
0.0
 11
-147.37903612609639
 21
986.74838012096905
 31
0.0
  0
LINE
  5
278
  8
0
  6
DASHED
 10
-149.8790361260962
 20
985.30500444799509
 30
0.0
 11
-147.3790361260962
 21
986.74838012096905
 31
0.0
  0
LINE
  5
279
  8
0
  6
DASHED
 10
-149.8790361260962
 20
985.30500444799509
 30
0.0
 11
-149.87903612609631
 21
972.80500444799509
 31
0.0
  0
LINE
  5
27A
  8
0
  6
DASHED
 10
-150.3790361260962
 20
984.80500444799509
 30
0.0
 11
-150.37903612609631
 21
972.80500444799509
 31
0.0
  0
INSERT
  5
288
  8
0
  6
CONTINUOUS
  2
*X1
 10
0.0
 20
0.0
 30
0.0
1001
ACAD
1000
HATCH
1002
{
1070
    19
1000
_USER
1040
1.0
1040
0.7853981633974483
1000
R14_HATCH_DATA
1000
288
1011
1.0
1021
0.0
1031
0.0
1021
0.0
1031
0.0
1011
0.0
1021
0.0
1031
0.0
1021
1.0
1031
0.0
1011
0.0
1021
0.0
1031
0.0
1021
0.0
1031
1.0
1040
0.0
1010
0.0
1020
0.0
1030
1.0
1000
_USER
1070
     0
1070
     0
1071
        2
1071
        7
1070
     1
1070
     1
1071
        5
1040
-134.87903612609651
1040
995.30500444799509
1040
0.0
1040
-147.37903612609651
1040
995.30500444799509
1040
0.0
1040
-147.37903612609639
1040
990.3050044479952
1040
0.0
1040
-135.5306927281398
1040
990.3050044479952
1040
0.2107792579786026
1040
-134.87903612609651
1040
991.78215375703167
1040
0.0
1071
        0
1071
        7
1070
     1
1070
     1
1071
        5
1040
-147.37903612609651
1040
995.30500444799509
1040
0.0
1040
-159.87903612609611
1040
995.30500444799509
1040
0.0
1040
-159.87903612609611
1040
991.78215375703167
1040
0.2107792579786456
1040
-159.22737952405259
1040
990.30500444799497
1040
0.0
1040
-147.37903612609651
1040
990.3050044479952
1040
0.0
1071
        0
1070
     0
1070
     0
1040
0.7853981633974483
1040
1.0
1070
     1
1070
     2
1040
0.7853981633974483
1040
0.0
1040
0.0
1040
-0.7071067811865475
1040
0.7071067811865476
1070
     0
1040
2.3561944901923439
1040
0.0
1040
0.0
1040
-0.7071067811865476
1040
-0.7071067811865475
1070
     0
1040
0.0793510433219521
1071
        2
1040
-138.9773576313743
1040
994.03809045461787
1040
0.0
1040
-151.8376429159074
1040
993.08587810174924
1040
0.0
1002
}
  0
LINE
  5
2C9
  8
0
 10
-175.77019358952711
 20
972.80500444799475
 30
0.0
 11
-188.27019358952711
 21
972.80500444799475
 31
0.0
  0
LINE
  5
2CA
  8
0
 10
-188.27019358952711
 20
972.80500444799497
 30
0.0
 11
-188.27019358952711
 21
983.30500444799475
 31
0.0
  0
LINE
  5
2CB
  8
0
 10
-175.77019358952711
 20
972.80500444799497
 30
0.0
 11
-175.77019358952711
 21
983.30500444799475
 31
0.0
  0
LINE
  5
2CC
  8
0
 10
-171.77019358952711
 20
990.80500444799475
 30
0.0
 11
-192.270193589527
 21
990.80500444799475
 31
0.0
  0
LINE
  5
2CF
  8
0
  6
CENTER
 10
-182.02019358952711
 20
993.80500444799486
 30
0.0
 11
-182.02019358952711
 21
969.80500444799475
 31
0.0
  0
LINE
  5
2D2
  8
0
 10
-159.87903612609611
 20
995.05500444799509
 30
0.0
 11
-159.62903612609611
 21
995.30500444799509
 31
0.0
  0
LINE
  5
2D3
  8
0
 10
-135.12903612609651
 20
995.30500444799554
 30
0.0
 11
-134.87903612609651
 21
995.05500444799532
 31
0.0
  0
LINE
  5
315
  8
0
 10
-192.52019358952711
 20
986.30500444799475
 30
0.0
 11
-192.52019358952711
 21
990.55500444799475
 31
0.0
  0
LINE
  5
316
  8
0
 10
-171.52019358952711
 20
986.30500444799475
 30
0.0
 11
-171.52019358952711
 21
990.55500444799475
 31
0.0
  0
ARC
  5
317
  8
0
 10
-173.02019358952711
 20
986.30500444799475
 30
0.0
 40
1.5
 50
293.78745388185803
 51
0.0
  0
ARC
  5
31A
  8
0
 10
-175.52019358952711
 20
983.30500444799475
 30
0.0
 40
0.25
 50
95.072534074942155
 51
180.0
  0
LINE
  5
31C
  8
0
 10
-175.5422977929382
 20
983.55402533906954
 30
0.0
 11
-172.4151761840541
 21
984.93243243200629
 31
0.0
  0
ARC
  5
31D
  8
0
 10
-155.129036126096
 20
988.32033250535142
 30
0.0
 40
0.5
 50
0.0000000000002036
 51
72.897271030942633
  0
ARC
  5
31E
  8
0
 10
-139.62903612609659
 20
988.32033250535119
 30
0.0
 40
0.5
 50
107.1027289690573
 51
180.00000000000111
  0
ARC
  5
31F
  8
0
 10
-188.52019358952711
 20
983.30500444799475
 30
0.0
 40
0.25
 50
0.000000000000007
 51
84.927465925057845
  0
LINE
  5
320
  8
0
 10
-192.52019358952711
 20
986.30500444799475
 30
0.0
 11
-192.52019358952711
 21
990.55500444799475
 31
0.0
  0
ARC
  5
321
  8
0
 10
-191.02019358952711
 20
986.30500444799475
 30
0.0
 40
1.5
 50
180.0
 51
246.21254611814189
  0
LINE
  5
322
  8
0
 10
-188.49808938611599
 20
983.55402533906954
 30
0.0
 11
-191.625210995
 21
984.93243243200629
 31
0.0
  0
LINE
  5
33A
  8
0
  6
DASHED
 10
-179.52019358952711
 20
982.80500444799486
 30
0.0
 11
-179.52019358952711
 21
972.80500444799475
 31
0.0
  0
LINE
  5
33B
  8
0
  6
DASHED
 10
-179.52019358952711
 20
982.80500444799486
 30
0.0
 11
-184.52019358952711
 21
982.80500444799475
 31
0.0
  0
LINE
  5
33C
  8
0
  6
DASHED
 10
-179.92019358952709
 20
983.20500444799495
 30
0.0
 11
-179.92019358952709
 21
972.80500444799475
 31
0.0
  0
LINE
  5
33D
  8
0
  6
DASHED
 10
-179.9201935895268
 20
983.20500444799495
 30
0.0
 11
-184.1201935895271
 21
983.20500444799495
 31
0.0
  0
LINE
  5
33E
  8
0
  6
DASHED
 10
-179.92019358952709
 20
983.20500444799495
 30
0.0
 11
-182.020193589527
 21
984.41744001329312
 31
0.0
  0
LINE
  5
33F
  8
0
  6
DASHED
 10
-184.1201935895271
 20
983.20500444799495
 30
0.0
 11
-184.1201935895271
 21
972.80500444799475
 31
0.0
  0
LINE
  5
340
  8
0
  6
DASHED
 10
-184.52019358952711
 20
982.80500444799486
 30
0.0
 11
-184.52019358952711
 21
972.80500444799475
 31
0.0
  0
LINE
  5
341
  8
0
  6
DASHED
 10
-184.1201935895271
 20
983.20500444799495
 30
0.0
 11
-182.02019358952711
 21
984.41744001329312
 31
0.0
  0
LINE
  5
402
  8
0
 10
-192.270193589527
 20
990.80500444799475
 30
0.0
 11
-192.52019358952711
 21
990.55500444799475
 31
0.0
  0
LINE
  5
403
  8
0
 10
-171.77019358952711
 20
990.80500444799475
 30
0.0
 11
-171.52019358952711
 21
990.55500444799475
 31
0.0
  0
INSERT
  5
411
  8
0
  6
CONTINUOUS
  2
*X2
 10
0.0
 20
0.0
 30
0.0
1001
ACAD
1000
HATCH
1002
{
1070
    19
1000
_USER
1040
0.75
1040
0.7853981633974483
1000
R14_HATCH_DATA
1000
411
1011
1.0
1021
0.0
1031
0.0
1021
0.0
1031
0.0
1011
0.0
1021
0.0
1031
0.0
1021
1.0
1031
0.0
1011
0.0
1021
0.0
1031
0.0
1021
0.0
1031
1.0
1040
0.0
1010
0.0
1020
0.0
1030
1.0
1000
_USER
1070
     0
1070
     0
1071
        2
1071
        7
1070
     1
1070
     1
1071
        6
1040
-182.020193589527
1040
990.80500444799475
1040
0.0
1040
-192.2701935895268
1040
990.80500444799486
1040
0.0
1040
-192.52019358952711
1040
990.55500444799497
1040
0.0
1040
-192.52019358952711
1040
986.30500444799475
1040
0.0851642331747422
1040
-192.4344071519001
1040
985.80500444799486
1040
0.0
1040
-182.02019358952711
1040
985.80500444799486
1040
0.0
1071
        0
1071
        7
1070
     1
1070
     1
1071
        6
1040
-171.52019358952711
1040
990.55500444799475
1040
0.0
1040
-171.770193589527
1040
990.80500444799475
1040
0.0
1040
-182.02019358952711
1040
990.80500444799475
1040
0.0
1040
-182.02019358952711
1040
985.80500444799486
1040
0.0
1040
-171.60598002715389
1040
985.80500444799497
1040
0.0851642331747214
1040
-171.52019358952711
1040
986.30500444799475
1040
0.0
1071
        0
1070
     0
1070
     0
1040
0.7853981633974483
1040
0.75
1070
     1
1070
     2
1040
0.7853981633974483
1040
0.0
1040
0.0
1040
-0.5303300858899106
1040
0.5303300858899107
1070
     0
1040
2.3561944901923439
1040
0.0
1040
0.0
1040
-0.5303300858899107
1040
-0.5303300858899106
1070
     0
1040
0.0213734514634308
1071
        2
1040
-186.03333435431571
1040
990.42595407594831
1040
0.0
1040
-178.1859725084322
1040
989.84887101958498
1040
0.0
1002
}
  0
VIEWPORT
  5
8D
 67
     1
  8
0
 10
143.47825622558591
 20
99.980751991271987
 30
0.0
 40
339.12752973873143
 41
222.1965796813964
 68
     1
 69
     1
1001
ACAD
1000
MVIEW
1002
{
1070
    16
1010
0.0
1020
0.0
1030
0.0
1010
0.0
1020
0.0
1030
1.0
1040
0.0
1040
222.1965796813964
1040
143.47825622558591
1040
99.980751991271987
1040
50.0
1040
0.0
1040
0.0
1070
     0
1070
   100
1070
     1
1070
     1
1070
     0
1070
     0
1070
     0
1070
     0
1040
0.0
1040
0.0
1040
0.0
1040
10.0
1040
10.0
1040
10.0
1040
10.0
1070
     0
1002
{
1002
}
1002
}
  0
VIEWPORT
  5
8F
 67
     1
  8
0
 10
143.37242841720581
 20
99.874916553497314
 30
0.0
 40
229.3958854675293
 41
159.79986648559569
 68
     2
 69
     2
1001
ACAD
1000
MVIEW
1002
{
1070
    16
1010
0.0
1020
0.0
1030
0.0
1010
0.0
1020
0.0
1030
1.0
1040
0.0
1040
300.10452961672468
1040
210.0
1040
148.5
1040
50.0
1040
0.0
1040
0.0
1070
     0
1070
   100
1070
     1
1070
     2
1070
     0
1070
     0
1070
     0
1070
     0
1040
0.0
1040
0.0
1040
0.0
1040
10.0
1040
10.0
1040
10.0
1040
10.0
1070
     0
1002
{
1002
}
1002
}
  0
ENDSEC
  0
EOF
