  0
SECTION
  2
HEADER
  9
$ACADVER
  1
AC1009
  9
$INSBASE
 10
0.0
 20
0.0
 30
0.0
  9
$EXTMIN
 10
-177.358888
 20
-203.500246
 30
0.0
  9
$EXTMAX
 10
155.215166
 20
39.606798
 30
0.0
  9
$LIMMIN
 10
0.0
 20
0.0
  9
$LIMMAX
 10
12.0
 20
9.0
  9
$ORTHOMODE
 70
     1
  9
$REGENMODE
 70
     1
  9
$FILLMODE
 70
     1
  9
$QTEXTMODE
 70
     0
  9
$MIRRTEXT
 70
     1
  9
$DRAGMODE
 70
     2
  9
$LTSCALE
 40
7.0
  9
$OSMODE
 70
     0
  9
$ATTMODE
 70
     1
  9
$TEXTSIZE
 40
0.2
  9
$TRACEWID
 40
0.05
  9
$TEXTSTYLE
  7
STANDARD
  9
$CLAYER
  8
0
  9
$CELTYPE
  6
BYLAYER
  9
$CECOLOR
 62
   256
  9
$DIMSCALE
 40
1.0
  9
$DIMASZ
 40
2.5
  9
$DIMEXO
 40
0.0
  9
$DIMDLI
 40
5.0
  9
$DIMRND
 40
0.0
  9
$DIMDLE
 40
0.0
  9
$DIMEXE
 40
1.0
  9
$DIMTP
 40
0.0
  9
$DIMTM
 40
0.0
  9
$DIMTXT
 40
2.5
  9
$DIMCEN
 40
0.09
  9
$DIMTSZ
 40
0.0
  9
$DIMTOL
 70
     0
  9
$DIMLIM
 70
     0
  9
$DIMTIH
 70
     0
  9
$DIMTOH
 70
     0
  9
$DIMSE1
 70
     0
  9
$DIMSE2
 70
     0
  9
$DIMTAD
 70
     1
  9
$DIMZIN
 70
     0
  9
$DIMBLK
  1

  9
$DIMASO
 70
     0
  9
$DIMSHO
 70
     0
  9
$DIMPOST
  1

  9
$DIMAPOST
  1

  9
$DIMALT
 70
     0
  9
$DIMALTD
 70
     2
  9
$DIMALTF
 40
25.4
  9
$DIMLFAC
 40
1.0
  9
$DIMTOFL
 70
     1
  9
$DIMTVP
 40
0.0
  9
$DIMTIX
 70
     0
  9
$DIMSOXD
 70
     0
  9
$DIMSAH
 70
     0
  9
$DIMBLK1
  1

  9
$DIMBLK2
  1

  9
$DIMSTYLE
  2
*UNNAMED
  9
$DIMCLRD
 70
     0
  9
$DIMCLRE
 70
     0
  9
$DIMCLRT
 70
     0
  9
$DIMTFAC
 40
1.0
  9
$DIMGAP
 40
0.09
  9
$LUNITS
 70
     2
  9
$LUPREC
 70
     4
  9
$SKETCHINC
 40
0.1
  9
$FILLETRAD
 40
7.0
  9
$AUNITS
 70
     0
  9
$AUPREC
 70
     0
  9
$MENU
  1
wiberger
  9
$ELEVATION
 40
0.0
  9
$PELEVATION
 40
0.0
  9
$THICKNESS
 40
0.0
  9
$LIMCHECK
 70
     0
  9
$BLIPMODE
 70
     1
  9
$CHAMFERA
 40
1.5
  9
$CHAMFERB
 40
1.5
  9
$SKPOLY
 70
     0
  9
$TDCREATE
 40
2450189.535668403
  9
$TDUPDATE
 40
2450198.375190046
  9
$TDINDWG
 40
0.0185284722
  9
$TDUSRTIMER
 40
0.0185284722
  9
$USRTIMER
 70
     1
  9
$ANGBASE
 50
0.0
  9
$ANGDIR
 70
     0
  9
$PDMODE
 70
     0
  9
$PDSIZE
 40
0.0
  9
$PLINEWID
 40
0.0
  9
$COORDS
 70
     0
  9
$SPLFRAME
 70
     0
  9
$SPLINETYPE
 70
     6
  9
$SPLINESEGS
 70
     8
  9
$ATTDIA
 70
     0
  9
$ATTREQ
 70
     1
  9
$HANDLING
 70
     0
  9
$HANDSEED
  5
0
  9
$SURFTAB1
 70
     6
  9
$SURFTAB2
 70
     6
  9
$SURFTYPE
 70
     6
  9
$SURFU
 70
     6
  9
$SURFV
 70
     6
  9
$UCSNAME
  2

  9
$UCSORG
 10
0.0
 20
0.0
 30
0.0
  9
$UCSXDIR
 10
1.0
 20
0.0
 30
0.0
  9
$UCSYDIR
 10
0.0
 20
1.0
 30
0.0
  9
$PUCSNAME
  2

  9
$PUCSORG
 10
0.0
 20
0.0
 30
0.0
  9
$PUCSXDIR
 10
1.0
 20
0.0
 30
0.0
  9
$PUCSYDIR
 10
0.0
 20
1.0
 30
0.0
  9
$USERI1
 70
     0
  9
$USERI2
 70
     0
  9
$USERI3
 70
     0
  9
$USERI4
 70
     0
  9
$USERI5
 70
     0
  9
$USERR1
 40
0.0
  9
$USERR2
 40
0.0
  9
$USERR3
 40
0.0
  9
$USERR4
 40
0.0
  9
$USERR5
 40
0.0
  9
$WORLDVIEW
 70
     1
  9
$SHADEDGE
 70
     3
  9
$SHADEDIF
 70
    70
  9
$TILEMODE
 70
     1
  9
$MAXACTVP
 70
    16
  9
$PINSBASE
 10
0.0
 20
0.0
 30
0.0
  9
$PLIMCHECK
 70
     0
  9
$PEXTMIN
 10
1.000000E+20
 20
1.000000E+20
 30
1.000000E+20
  9
$PEXTMAX
 10
-1.000000E+20
 20
-1.000000E+20
 30
-1.000000E+20
  9
$PLIMMIN
 10
0.0
 20
0.0
  9
$PLIMMAX
 10
12.0
 20
9.0
  9
$UNITMODE
 70
     0
  9
$VISRETAIN
 70
     0
  9
$PLINEGEN
 70
     0
  9
$PSLTSCALE
 70
     0
  9
$TREEDEPTH
 70
  3020
  9
$DWGCODEPAGE
  3
undefined
  0
ENDSEC
  0
SECTION
  2
TABLES
  0
TABLE
  2
VPORT
 70
     2
  0
VPORT
  2
*ACTIVE
 70
     0
 10
0.0
 20
0.0
 11
1.0
 21
1.0
 12
42.621394
 22
-81.946724
 13
0.0
 23
0.0
 14
1.0
 24
1.0
 15
0.0
 25
0.0
 16
0.0
 26
0.0
 36
1.0
 17
0.0
 27
0.0
 37
0.0
 40
270.118937
 41
1.767507
 42
50.0
 43
0.0
 44
0.0
 50
0.0
 51
0.0
 71
     0
 72
   100
 73
     1
 74
     0
 75
     0
 76
     0
 77
     0
 78
     0
  0
ENDTAB
  0
TABLE
  2
LTYPE
 70
     3
  0
LTYPE
  2
CONTINUOUS
 70
    64
  3
Solid line
 72
    65
 73
     0
 40
0.0
  0
LTYPE
  2
DASHED
 70
     0
  3
__ __ __ __ __ __ __ __ __ __ __ __ __ __ __
 72
    65
 73
     2
 40
0.75
 49
0.5
 49
-0.25
  0
LTYPE
  2
CENTER
 70
    64
  3
____ _ ____ _ ____ _ ____ _ ____ _ ____ _ ____
 72
    65
 73
     4
 40
2.0
 49
1.25
 49
-0.25
 49
0.25
 49
-0.25
  0
ENDTAB
  0
TABLE
  2
LAYER
 70
     1
  0
LAYER
  2
0
 70
    64
 62
     7
  6
CONTINUOUS
  0
ENDTAB
  0
TABLE
  2
STYLE
 70
     1
  0
STYLE
  2
STANDARD
 70
     0
 40
0.0
 41
1.0
 50
0.0
 71
     0
 42
0.2
  3
txt
  4

  0
ENDTAB
  0
TABLE
  2
VIEW
 70
     0
  0
ENDTAB
  0
TABLE
  2
UCS
 70
     0
  0
ENDTAB
  0
TABLE
  2
APPID
 70
     1
  0
APPID
  2
ACAD
 70
    64
  0
ENDTAB
  0
TABLE
  2
DIMSTYLE
 70
     0
  0
ENDTAB
  0
ENDSEC
  0
SECTION
  2
BLOCKS
  0
BLOCK
  8
0
  2
*X0
 70
    65
 10
0.0
 20
0.0
 30
0.0
  3
*X
  0
LINE
  8
0
 62
     0
 10
-84.646191
 20
44.75435
 30
0.0
 11
-77.881123
 21
51.519418
 31
0.0
  0
LINE
  8
0
 62
     0
 10
-73.646191
 20
55.75435
 30
0.0
 11
-70.881123
 21
58.519418
 31
0.0
  0
LINE
  8
0
 62
     0
 10
-86.767512
 20
44.75435
 30
0.0
 11
-77.881123
 21
53.640738
 31
0.0
  0
LINE
  8
0
 62
     0
 10
-75.767512
 20
55.75435
 30
0.0
 11
-72.794367
 21
58.727495
 31
0.0
  0
LINE
  8
0
 62
     0
 10
-88.845352
 20
44.797829
 30
0.0
 11
-75.014248
 21
58.628933
 31
0.0
  0
LINE
  8
0
 62
     0
 10
-90.212227
 20
45.552275
 30
0.0
 11
-77.314404
 21
58.450098
 31
0.0
  0
LINE
  8
0
 62
     0
 10
-90.869743
 20
47.016079
 30
0.0
 11
-79.70499
 21
58.180832
 31
0.0
  0
LINE
  8
0
 62
     0
 10
-90.881123
 20
49.126019
 30
0.0
 11
-82.198911
 21
57.808231
 31
0.0
  0
LINE
  8
0
 62
     0
 10
-90.881123
 20
51.24734
 30
0.0
 11
-84.812994
 21
57.315469
 31
0.0
  0
LINE
  8
0
 62
     0
 10
-90.881123
 20
53.36866
 30
0.0
 11
-87.569898
 21
56.679886
 31
0.0
  0
LINE
  8
0
 62
     0
 10
-82.524871
 20
44.75435
 30
0.0
 11
-77.881123
 21
49.398097
 31
0.0
  0
LINE
  8
0
 62
     0
 10
-71.524871
 20
55.75435
 30
0.0
 11
-70.881123
 21
56.398097
 31
0.0
  0
LINE
  8
0
 62
     0
 10
-80.546858
 20
44.611042
 30
0.0
 11
-77.403551
 21
47.75435
 31
0.0
  0
LINE
  8
0
 62
     0
 10
-79.339456
 20
43.697123
 30
0.0
 11
-76.381123
 21
46.655456
 31
0.0
  0
LINE
  8
0
 62
     0
 10
-78.881123
 20
42.034136
 30
0.0
 11
-76.381123
 21
44.534136
 31
0.0
  0
LINE
  8
0
 62
     0
 10
-77.03959
 20
41.75435
 30
0.0
 11
-76.381123
 21
42.412816
 31
0.0
  0
LINE
  8
0
 62
     0
 10
-76.381123
 20
46.682639
 30
0.0
 11
-77.452835
 21
47.75435
 31
0.0
  0
LINE
  8
0
 62
     0
 10
-77.881123
 20
48.182639
 30
0.0
 11
-86.612719
 21
56.914234
 31
0.0
  0
LINE
  8
0
 62
     0
 10
-76.381123
 20
44.561318
 30
0.0
 11
-88.308726
 21
56.488921
 31
0.0
  0
LINE
  8
0
 62
     0
 10
-76.381123
 20
42.439998
 30
0.0
 11
-89.846318
 21
55.905192
 31
0.0
  0
LINE
  8
0
 62
     0
 10
-77.816796
 20
41.75435
 30
0.0
 11
-78.967215
 21
42.904769
 31
0.0
  0
LINE
  8
0
 62
     0
 10
-80.730704
 20
44.668258
 30
0.0
 11
-90.747726
 21
54.68528
 31
0.0
  0
LINE
  8
0
 62
     0
 10
-82.938116
 20
44.75435
 30
0.0
 11
-90.881123
 21
52.697357
 31
0.0
  0
LINE
  8
0
 62
     0
 10
-85.059436
 20
44.75435
 30
0.0
 11
-90.881123
 21
50.576037
 31
0.0
  0
LINE
  8
0
 62
     0
 10
-87.180757
 20
44.75435
 30
0.0
 11
-90.881123
 21
48.454717
 31
0.0
  0
LINE
  8
0
 62
     0
 10
-89.645204
 20
45.097477
 30
0.0
 11
-90.537996
 21
45.990269
 31
0.0
  0
LINE
  8
0
 62
     0
 10
-77.881123
 20
50.303959
 30
0.0
 11
-84.87885
 21
57.301685
 31
0.0
  0
LINE
  8
0
 62
     0
 10
-77.881123
 20
52.425279
 30
0.0
 11
-83.10519
 21
57.649346
 31
0.0
  0
LINE
  8
0
 62
     0
 10
-77.734998
 20
54.400475
 30
0.0
 11
-81.289551
 21
57.955027
 31
0.0
  0
LINE
  8
0
 62
     0
 10
-76.674338
 20
55.461135
 30
0.0
 11
-79.429437
 21
58.216233
 31
0.0
  0
LINE
  8
0
 62
     0
 10
-74.846233
 20
55.75435
 30
0.0
 11
-77.521982
 21
58.430099
 31
0.0
  0
LINE
  8
0
 62
     0
 10
-72.724912
 20
55.75435
 30
0.0
 11
-75.56388
 21
58.593317
 31
0.0
  0
LINE
  8
0
 62
     0
 10
-70.881123
 20
56.031881
 30
0.0
 11
-73.551276
 21
58.702033
 31
0.0
  0
LINE
  8
0
 62
     0
 10
-70.881123
 20
58.153201
 30
0.0
 11
-71.479644
 21
58.751722
 31
0.0
  0
ENDBLK
  8
0
  0
BLOCK
  8
0
  2
*X1
 70
    65
 10
0.0
 20
0.0
 30
0.0
  3
*X
  0
LINE
  8
0
 62
     0
 10
-35.855823
 20
44.75435
 30
0.0
 11
-29.339675
 21
51.270498
 31
0.0
  0
LINE
  8
0
 62
     0
 10
-24.855823
 20
55.75435
 30
0.0
 11
-22.339675
 21
58.270498
 31
0.0
  0
LINE
  8
0
 62
     0
 10
-37.977144
 20
44.75435
 30
0.0
 11
-29.339675
 21
53.391818
 31
0.0
  0
LINE
  8
0
 62
     0
 10
-26.977144
 20
55.75435
 30
0.0
 11
-23.997301
 21
58.734192
 31
0.0
  0
LINE
  8
0
 62
     0
 10
-40.086272
 20
44.766541
 30
0.0
 11
-26.208331
 21
58.644482
 31
0.0
  0
LINE
  8
0
 62
     0
 10
-41.54648
 20
45.427654
 30
0.0
 11
-28.498586
 21
58.475548
 31
0.0
  0
LINE
  8
0
 62
     0
 10
-42.297637
 20
46.797817
 30
0.0
 11
-30.877954
 21
58.217501
 31
0.0
  0
LINE
  8
0
 62
     0
 10
-42.339675
 20
48.8771
 30
0.0
 11
-33.358967
 21
57.857807
 31
0.0
  0
LINE
  8
0
 62
     0
 10
-42.339675
 20
50.99842
 30
0.0
 11
-35.957912
 21
57.380183
 31
0.0
  0
LINE
  8
0
 62
     0
 10
-42.339675
 20
53.11974
 30
0.0
 11
-38.696627
 21
56.762788
 31
0.0
  0
LINE
  8
0
 62
     0
 10
-33.734503
 20
44.75435
 30
0.0
 11
-29.339675
 21
49.149178
 31
0.0
  0
LINE
  8
0
 62
     0
 10
-22.734503
 20
55.75435
 30
0.0
 11
-22.339675
 21
56.149178
 31
0.0
  0
LINE
  8
0
 62
     0
 10
-31.827325
 20
44.540208
 30
0.0
 11
-28.613183
 21
47.75435
 31
0.0
  0
LINE
  8
0
 62
     0
 10
-30.69958
 20
43.546632
 30
0.0
 11
-27.839675
 21
46.406537
 31
0.0
  0
LINE
  8
0
 62
     0
 10
-30.339675
 20
41.785217
 30
0.0
 11
-27.839675
 21
44.285217
 31
0.0
  0
LINE
  8
0
 62
     0
 10
-28.249222
 20
41.75435
 30
0.0
 11
-27.839675
 21
42.163896
 31
0.0
  0
LINE
  8
0
 62
     0
 10
-27.839675
 20
44.810238
 30
0.0
 11
-39.570168
 21
56.540731
 31
0.0
  0
LINE
  8
0
 62
     0
 10
-27.839675
 20
42.688917
 30
0.0
 11
-41.155817
 21
56.00506
 31
0.0
  0
LINE
  8
0
 62
     0
 10
-29.026428
 20
41.75435
 30
0.0
 11
-30.566125
 21
43.294047
 31
0.0
  0
LINE
  8
0
 62
     0
 10
-31.799978
 20
44.5279
 30
0.0
 11
-42.137206
 21
54.865128
 31
0.0
  0
LINE
  8
0
 62
     0
 10
-34.147748
 20
44.75435
 30
0.0
 11
-42.339675
 21
52.946277
 31
0.0
  0
LINE
  8
0
 62
     0
 10
-36.269068
 20
44.75435
 30
0.0
 11
-42.339675
 21
50.824956
 31
0.0
  0
LINE
  8
0
 62
     0
 10
-38.390389
 20
44.75435
 30
0.0
 11
-42.339675
 21
48.703636
 31
0.0
  0
LINE
  8
0
 62
     0
 10
-40.644955
 20
44.887596
 30
0.0
 11
-42.206429
 21
46.44907
 31
0.0
  0
LINE
  8
0
 62
     0
 10
-27.839675
 20
46.931558
 30
0.0
 11
-28.662467
 21
47.75435
 31
0.0
  0
LINE
  8
0
 62
     0
 10
-29.339675
 20
48.431558
 30
0.0
 11
-37.869811
 21
56.961694
 31
0.0
  0
LINE
  8
0
 62
     0
 10
-29.339675
 20
50.552879
 30
0.0
 11
-36.131377
 21
57.344581
 31
0.0
  0
LINE
  8
0
 62
     0
 10
-29.339675
 20
52.674199
 30
0.0
 11
-34.352911
 21
57.687434
 31
0.0
  0
LINE
  8
0
 62
     0
 10
-29.06909
 20
54.524934
 30
0.0
 11
-32.532188
 21
57.988033
 31
0.0
  0
LINE
  8
0
 62
     0
 10
-28.00843
 20
55.585595
 30
0.0
 11
-30.666675
 21
58.24384
 31
0.0
  0
LINE
  8
0
 62
     0
 10
-26.055865
 20
55.75435
 30
0.0
 11
-28.753459
 21
58.451943
 31
0.0
  0
LINE
  8
0
 62
     0
 10
-23.934545
 20
55.75435
 30
0.0
 11
-26.789172
 21
58.608977
 31
0.0
  0
LINE
  8
0
 62
     0
 10
-22.339675
 20
56.280801
 30
0.0
 11
-24.769891
 21
58.711016
 31
0.0
  0
LINE
  8
0
 62
     0
 10
-22.339675
 20
58.402121
 30
0.0
 11
-22.690999
 21
58.753444
 31
0.0
  0
ENDBLK
  8
0
  0
BLOCK
  8
0
  2
*X2
 70
    65
 10
0.0
 20
0.0
 30
0.0
  3
*X
  0
LINE
  8
0
 62
     0
 10
-172.023883
 20
25.258909
 30
0.0
 11
-166.194674
 21
31.088118
 31
0.0
  0
LINE
  8
0
 62
     0
 10
-164.023883
 20
33.258909
 30
0.0
 11
-161.029964
 21
36.252828
 31
0.0
  0
LINE
  8
0
 62
     0
 10
-174.145203
 20
25.258909
 30
0.0
 11
-163.225318
 21
36.178794
 31
0.0
  0
LINE
  8
0
 62
     0
 10
-175.978562
 20
25.546871
 30
0.0
 11
-165.513659
 21
36.011773
 31
0.0
  0
LINE
  8
0
 62
     0
 10
-176.88253
 20
26.764223
 30
0.0
 11
-167.908926
 21
35.737827
 31
0.0
  0
LINE
  8
0
 62
     0
 10
-176.944674
 20
28.823399
 30
0.0
 11
-170.429642
 21
35.338431
 31
0.0
  0
LINE
  8
0
 62
     0
 10
-176.944674
 20
30.944719
 30
0.0
 11
-173.101358
 21
34.788036
 31
0.0
  0
LINE
  8
0
 62
     0
 10
-176.51766
 20
33.493054
 30
0.0
 11
-176.179873
 21
33.830841
 31
0.0
  0
LINE
  8
0
 62
     0
 10
-169.902562
 20
25.258909
 30
0.0
 11
-166.194674
 21
28.966797
 31
0.0
  0
LINE
  8
0
 62
     0
 10
-161.902562
 20
33.258909
 30
0.0
 11
-160.194674
 21
34.966797
 31
0.0
  0
LINE
  8
0
 62
     0
 10
-168.324407
 20
24.715744
 30
0.0
 11
-165.781242
 21
27.258909
 31
0.0
  0
LINE
  8
0
 62
     0
 10
-167.694674
 20
23.224157
 30
0.0
 11
-164.694674
 21
26.224157
 31
0.0
  0
LINE
  8
0
 62
     0
 10
-166.538601
 20
22.258909
 30
0.0
 11
-164.694674
 21
24.102836
 31
0.0
  0
LINE
  8
0
 62
     0
 10
-164.694674
 20
26.808852
 30
0.0
 11
-165.144732
 21
27.258909
 31
0.0
  0
LINE
  8
0
 62
     0
 10
-166.194674
 20
28.308852
 30
0.0
 11
-172.753131
 21
34.867309
 31
0.0
  0
LINE
  8
0
 62
     0
 10
-164.694674
 20
24.687532
 30
0.0
 11
-174.463136
 21
34.455994
 31
0.0
  0
LINE
  8
0
 62
     0
 10
-164.694674
 20
22.566211
 30
0.0
 11
-176.05188
 21
33.923417
 31
0.0
  0
LINE
  8
0
 62
     0
 10
-166.508693
 20
22.258909
 30
0.0
 11
-167.704259
 21
23.454475
 31
0.0
  0
LINE
  8
0
 62
     0
 10
-169.499108
 20
25.249325
 30
0.0
 11
-176.904836
 21
32.655053
 31
0.0
  0
LINE
  8
0
 62
     0
 10
-171.630013
 20
25.258909
 30
0.0
 11
-176.944674
 21
30.573571
 31
0.0
  0
LINE
  8
0
 62
     0
 10
-173.751333
 20
25.258909
 30
0.0
 11
-176.944674
 21
28.45225
 31
0.0
  0
LINE
  8
0
 62
     0
 10
-166.194674
 20
30.430172
 30
0.0
 11
-170.997084
 21
35.232582
 31
0.0
  0
LINE
  8
0
 62
     0
 10
-165.798383
 20
32.155201
 30
0.0
 11
-169.192069
 21
35.548888
 31
0.0
  0
LINE
  8
0
 62
     0
 10
-164.737722
 20
33.215861
 30
0.0
 11
-167.334673
 21
35.812812
 31
0.0
  0
LINE
  8
0
 62
     0
 10
-162.65945
 20
33.258909
 30
0.0
 11
-165.420879
 21
36.020338
 31
0.0
  0
LINE
  8
0
 62
     0
 10
-160.53813
 20
33.258909
 30
0.0
 11
-163.445917
 21
36.166697
 31
0.0
  0
LINE
  8
0
 62
     0
 10
-160.194674
 20
35.036774
 30
0.0
 11
-161.404059
 21
36.246159
 31
0.0
  0
ENDBLK
  8
0
  0
BLOCK
  8
0
  2
*X3
 70
    65
 10
0.0
 20
0.0
 30
0.0
  3
*X
  0
LINE
  8
0
 62
     0
 10
-133.840116
 20
25.258909
 30
0.0
 11
-127.508644
 21
31.590381
 31
0.0
  0
LINE
  8
0
 62
     0
 10
-125.840116
 20
33.258909
 30
0.0
 11
-122.855941
 21
36.243085
 31
0.0
  0
LINE
  8
0
 62
     0
 10
-135.961437
 20
25.258909
 30
0.0
 11
-125.072236
 21
36.14811
 31
0.0
  0
LINE
  8
0
 62
     0
 10
-137.582177
 20
25.759489
 30
0.0
 11
-127.384493
 21
35.957174
 31
0.0
  0
LINE
  8
0
 62
     0
 10
-138.25792
 20
27.205067
 30
0.0
 11
-129.807577
 21
35.65541
 31
0.0
  0
LINE
  8
0
 62
     0
 10
-138.258644
 20
29.325663
 30
0.0
 11
-132.361403
 21
35.222904
 31
0.0
  0
LINE
  8
0
 62
     0
 10
-138.258644
 20
31.446983
 30
0.0
 11
-135.073727
 21
34.6319
 31
0.0
  0
LINE
  8
0
 62
     0
 10
-131.718796
 20
25.258909
 30
0.0
 11
-127.508644
 21
29.469061
 31
0.0
  0
LINE
  8
0
 62
     0
 10
-123.718796
 20
33.258909
 30
0.0
 11
-121.508644
 21
35.469061
 31
0.0
  0
LINE
  8
0
 62
     0
 10
-129.919832
 20
24.936553
 30
0.0
 11
-127.508644
 21
27.347741
 31
0.0
  0
LINE
  8
0
 62
     0
 10
-121.597476
 20
33.258909
 30
0.0
 11
-121.508644
 21
33.347741
 31
0.0
  0
LINE
  8
0
 62
     0
 10
-129.053758
 20
23.681307
 30
0.0
 11
-126.008644
 21
26.72642
 31
0.0
  0
LINE
  8
0
 62
     0
 10
-128.354835
 20
22.258909
 30
0.0
 11
-126.008644
 21
24.6051
 31
0.0
  0
LINE
  8
0
 62
     0
 10
-126.233515
 20
22.258909
 30
0.0
 11
-126.008644
 21
22.48378
 31
0.0
  0
LINE
  8
0
 62
     0
 10
-126.008644
 20
26.306588
 30
0.0
 11
-126.960966
 21
27.258909
 31
0.0
  0
LINE
  8
0
 62
     0
 10
-127.508644
 20
27.806588
 30
0.0
 11
-134.476038
 21
34.773982
 31
0.0
  0
LINE
  8
0
 62
     0
 10
-126.008644
 20
24.185268
 30
0.0
 11
-136.175525
 21
34.352149
 31
0.0
  0
LINE
  8
0
 62
     0
 10
-126.203606
 20
22.258909
 30
0.0
 11
-137.644534
 21
33.699837
 31
0.0
  0
LINE
  8
0
 62
     0
 10
-128.324927
 20
22.258909
 30
0.0
 11
-129.008644
 21
22.942627
 31
0.0
  0
LINE
  8
0
 62
     0
 10
-131.324927
 20
25.258909
 30
0.0
 11
-138.258644
 21
32.192627
 31
0.0
  0
LINE
  8
0
 62
     0
 10
-133.446247
 20
25.258909
 30
0.0
 11
-138.258644
 21
30.071307
 31
0.0
  0
LINE
  8
0
 62
     0
 10
-135.567567
 20
25.258909
 30
0.0
 11
-138.258644
 21
27.949987
 31
0.0
  0
LINE
  8
0
 62
     0
 10
-127.508644
 20
29.927909
 30
0.0
 11
-132.731141
 21
35.150405
 31
0.0
  0
LINE
  8
0
 62
     0
 10
-127.363485
 20
31.904069
 30
0.0
 11
-130.938008
 21
35.478593
 31
0.0
  0
LINE
  8
0
 62
     0
 10
-126.302825
 20
32.964729
 30
0.0
 11
-129.093353
 21
35.755258
 31
0.0
  0
LINE
  8
0
 62
     0
 10
-124.475684
 20
33.258909
 30
0.0
 11
-127.193312
 21
35.976537
 31
0.0
  0
LINE
  8
0
 62
     0
 10
-122.354364
 20
33.258909
 30
0.0
 11
-125.233311
 21
36.137857
 31
0.0
  0
LINE
  8
0
 62
     0
 10
-121.508644
 20
34.53451
 30
0.0
 11
-123.20787
 21
36.233736
 31
0.0
  0
ENDBLK
  8
0
  0
BLOCK
  8
0
  2
*X4
 70
    65
 10
0.0
 20
0.0
 30
0.0
  3
*X
  0
LINE
  8
0
 62
     0
 10
18.551099
 20
49.663798
 30
0.0
 11
24.780608
 21
55.893307
 31
0.0
  0
LINE
  8
0
 62
     0
 10
27.551099
 20
58.663798
 30
0.0
 11
33.550716
 21
64.663414
 31
0.0
  0
LINE
  8
0
 62
     0
 10
15.722672
 20
49.663798
 30
0.0
 11
30.651633
 21
64.592758
 31
0.0
  0
LINE
  8
0
 62
     0
 10
12.894245
 20
49.663798
 30
0.0
 11
27.618296
 21
64.387849
 31
0.0
  0
LINE
  8
0
 62
     0
 10
10.518715
 20
50.116695
 30
0.0
 11
24.428593
 21
64.026573
 31
0.0
  0
LINE
  8
0
 62
     0
 10
9.354441
 20
51.780847
 30
0.0
 11
21.052269
 21
63.478676
 31
0.0
  0
LINE
  8
0
 62
     0
 10
9.280608
 20
54.535442
 30
0.0
 11
17.445982
 21
62.700816
 31
0.0
  0
LINE
  8
0
 62
     0
 10
9.280608
 20
57.363869
 30
0.0
 11
13.543603
 21
61.626864
 31
0.0
  0
LINE
  8
0
 62
     0
 10
21.276452
 20
49.560723
 30
0.0
 11
24.780608
 21
53.06488
 31
0.0
  0
LINE
  8
0
 62
     0
 10
30.379526
 20
58.663798
 30
0.0
 11
33.780608
 21
62.06488
 31
0.0
  0
LINE
  8
0
 62
     0
 10
22.882735
 20
48.338579
 30
0.0
 11
26.207953
 21
51.663798
 31
0.0
  0
LINE
  8
0
 62
     0
 10
33.207953
 20
58.663798
 30
0.0
 11
33.780608
 21
59.236452
 31
0.0
  0
LINE
  8
0
 62
     0
 10
23.280608
 20
45.908025
 30
0.0
 11
26.780608
 21
49.408025
 31
0.0
  0
LINE
  8
0
 62
     0
 10
24.864808
 20
44.663798
 30
0.0
 11
26.780608
 21
46.579598
 31
0.0
  0
LINE
  8
0
 62
     0
 10
26.780608
 20
46.758497
 30
0.0
 11
12.305276
 21
61.233829
 31
0.0
  0
LINE
  8
0
 62
     0
 10
26.046881
 20
44.663798
 30
0.0
 11
23.219262
 21
47.491417
 31
0.0
  0
LINE
  8
0
 62
     0
 10
21.108227
 20
49.602451
 30
0.0
 11
10.319432
 21
60.391246
 31
0.0
  0
LINE
  8
0
 62
     0
 10
18.218453
 20
49.663798
 30
0.0
 11
9.301936
 21
58.580315
 31
0.0
  0
LINE
  8
0
 62
     0
 10
15.390026
 20
49.663798
 30
0.0
 11
9.280608
 21
55.773216
 31
0.0
  0
LINE
  8
0
 62
     0
 10
12.561599
 20
49.663798
 30
0.0
 11
9.280608
 21
52.944788
 31
0.0
  0
LINE
  8
0
 62
     0
 10
26.780608
 20
49.586924
 30
0.0
 11
14.464822
 21
61.902711
 31
0.0
  0
LINE
  8
0
 62
     0
 10
24.780608
 20
54.415351
 30
0.0
 11
16.685251
 21
62.510709
 31
0.0
  0
LINE
  8
0
 62
     0
 10
24.820599
 20
57.203788
 30
0.0
 11
18.970149
 21
63.054238
 31
0.0
  0
LINE
  8
0
 62
     0
 10
26.234812
 20
58.618001
 30
0.0
 11
21.323711
 21
63.529103
 31
0.0
  0
LINE
  8
0
 62
     0
 10
29.017443
 20
58.663798
 30
0.0
 11
23.750884
 21
63.930357
 31
0.0
  0
LINE
  8
0
 62
     0
 10
31.84587
 20
58.663798
 30
0.0
 11
26.257549
 21
64.252119
 31
0.0
  0
LINE
  8
0
 62
     0
 10
33.780608
 20
59.557487
 30
0.0
 11
28.850776
 21
64.487319
 31
0.0
  0
LINE
  8
0
 62
     0
 10
33.780608
 20
62.385914
 30
0.0
 11
31.53917
 21
64.627352
 31
0.0
  0
ENDBLK
  8
0
  0
BLOCK
  8
0
  2
*X5
 70
    65
 10
0.0
 20
0.0
 30
0.0
  3
*X
  0
LINE
  8
0
 62
     0
 10
72.291215
 20
49.663798
 30
0.0
 11
87.193566
 21
64.566149
 31
0.0
  0
LINE
  8
0
 62
     0
 10
69.462787
 20
49.663798
 30
0.0
 11
84.133727
 21
64.334737
 31
0.0
  0
LINE
  8
0
 62
     0
 10
67.308266
 20
50.337703
 30
0.0
 11
80.912749
 21
63.942187
 31
0.0
  0
LINE
  8
0
 62
     0
 10
66.36811
 20
52.225975
 30
0.0
 11
77.498466
 21
63.35633
 31
0.0
  0
LINE
  8
0
 62
     0
 10
66.361689
 20
55.04798
 30
0.0
 11
73.844333
 21
62.530625
 31
0.0
  0
LINE
  8
0
 62
     0
 10
66.361689
 20
57.876407
 30
0.0
 11
69.878339
 21
61.393057
 31
0.0
  0
LINE
  8
0
 62
     0
 10
75.119642
 20
49.663798
 30
0.0
 11
81.861689
 21
56.405845
 31
0.0
  0
LINE
  8
0
 62
     0
 10
84.119642
 20
58.663798
 30
0.0
 11
90.115605
 21
64.659761
 31
0.0
  0
LINE
  8
0
 62
     0
 10
77.929628
 20
49.645357
 30
0.0
 11
81.861689
 21
53.577418
 31
0.0
  0
LINE
  8
0
 62
     0
 10
86.948069
 20
58.663798
 30
0.0
 11
90.861689
 21
62.577418
 31
0.0
  0
LINE
  8
0
 62
     0
 10
79.752544
 20
48.639845
 30
0.0
 11
82.776496
 21
51.663798
 31
0.0
  0
LINE
  8
0
 62
     0
 10
89.776496
 20
58.663798
 30
0.0
 11
90.861689
 21
59.74899
 31
0.0
  0
LINE
  8
0
 62
     0
 10
80.361689
 20
46.420563
 30
0.0
 11
83.861689
 21
49.920563
 31
0.0
  0
LINE
  8
0
 62
     0
 10
81.43335
 20
44.663798
 30
0.0
 11
83.861689
 21
47.092136
 31
0.0
  0
LINE
  8
0
 62
     0
 10
83.861689
 20
49.074386
 30
0.0
 11
71.150151
 21
61.785923
 31
0.0
  0
LINE
  8
0
 62
     0
 10
83.861689
 20
46.245959
 30
0.0
 11
69.001296
 21
61.106352
 31
0.0
  0
LINE
  8
0
 62
     0
 10
82.615423
 20
44.663798
 30
0.0
 11
80.361686
 21
46.917534
 31
0.0
  0
LINE
  8
0
 62
     0
 10
77.615426
 20
49.663795
 30
0.0
 11
67.131992
 21
60.147229
 31
0.0
  0
LINE
  8
0
 62
     0
 10
74.786996
 20
49.663798
 30
0.0
 11
66.361689
 21
58.089105
 31
0.0
  0
LINE
  8
0
 62
     0
 10
71.958569
 20
49.663798
 30
0.0
 11
66.361689
 21
55.260678
 31
0.0
  0
LINE
  8
0
 62
     0
 10
69.130142
 20
49.663798
 30
0.0
 11
66.361689
 21
52.43225
 31
0.0
  0
LINE
  8
0
 62
     0
 10
81.861689
 20
53.902813
 30
0.0
 11
73.359298
 21
62.405204
 31
0.0
  0
LINE
  8
0
 62
     0
 10
81.861689
 20
56.73124
 30
0.0
 11
75.632222
 21
62.960708
 31
0.0
  0
LINE
  8
0
 62
     0
 10
83.059624
 20
58.361733
 30
0.0
 11
77.972998
 21
63.448358
 31
0.0
  0
LINE
  8
0
 62
     0
 10
85.585986
 20
58.663798
 30
0.0
 11
80.386426
 21
63.863357
 31
0.0
  0
LINE
  8
0
 62
     0
 10
88.414413
 20
58.663798
 30
0.0
 11
82.878201
 21
64.20001
 31
0.0
  0
LINE
  8
0
 62
     0
 10
90.861689
 20
59.044949
 30
0.0
 11
85.455154
 21
64.451484
 31
0.0
  0
LINE
  8
0
 62
     0
 10
90.861689
 20
61.873376
 30
0.0
 11
88.125581
 21
64.609484
 31
0.0
  0
ENDBLK
  8
0
  0
BLOCK
  8
0
  2
*X6
 70
    65
 10
0.0
 20
0.0
 30
0.0
  3
*X
  0
LINE
  8
0
 62
     0
 10
-168.95404
 20
-95.414935
 30
0.0
 11
-151.971267
 21
-78.432162
 31
0.0
  0
LINE
  8
0
 62
     0
 10
-171.782467
 20
-95.414935
 30
0.0
 11
-154.881447
 21
-78.513914
 31
0.0
  0
LINE
  8
0
 62
     0
 10
-174.610895
 20
-95.414935
 30
0.0
 11
-157.863532
 21
-78.667572
 31
0.0
  0
LINE
  8
0
 62
     0
 10
-177.439322
 20
-95.414935
 30
0.0
 11
-160.923429
 21
-78.899043
 31
0.0
  0
LINE
  8
0
 62
     0
 10
-179.873739
 20
-95.020926
 30
0.0
 11
-164.068058
 21
-79.215244
 31
0.0
  0
LINE
  8
0
 62
     0
 10
-181.183537
 20
-93.502296
 30
0.0
 11
-167.305606
 21
-79.624366
 31
0.0
  0
LINE
  8
0
 62
     0
 10
-181.387531
 20
-90.877863
 30
0.0
 11
-170.645892
 21
-80.136224
 31
0.0
  0
LINE
  8
0
 62
     0
 10
-181.387531
 20
-88.049436
 30
0.0
 11
-174.100849
 21
-80.762754
 31
0.0
  0
LINE
  8
0
 62
     0
 10
-181.214606
 20
-85.048084
 30
0.0
 11
-177.691122
 21
-81.524599
 31
0.0
  0
LINE
  8
0
 62
     0
 10
-166.125613
 20
-95.414935
 30
0.0
 11
-149.887531
 21
-79.176853
 31
0.0
  0
LINE
  8
0
 62
     0
 10
-163.853158
 20
-95.970907
 30
0.0
 11
-159.887531
 21
-92.00528
 31
0.0
  0
LINE
  8
0
 62
     0
 10
-156.297186
 20
-88.414935
 30
0.0
 11
-149.887531
 21
-82.00528
 31
0.0
  0
LINE
  8
0
 62
     0
 10
-162.440122
 20
-97.386298
 30
0.0
 11
-159.887531
 21
-94.833707
 31
0.0
  0
LINE
  8
0
 62
     0
 10
-153.468759
 20
-88.414935
 30
0.0
 11
-149.887531
 21
-84.833707
 31
0.0
  0
LINE
  8
0
 62
     0
 10
-161.887531
 20
-99.662135
 30
0.0
 11
-158.640332
 21
-96.414935
 31
0.0
  0
LINE
  8
0
 62
     0
 10
-150.640332
 20
-88.414935
 30
0.0
 11
-149.887531
 21
-87.662135
 31
0.0
  0
LINE
  8
0
 62
     0
 10
-161.887531
 20
-102.490562
 30
0.0
 11
-157.887531
 21
-98.490562
 31
0.0
  0
LINE
  8
0
 62
     0
 10
-160.983478
 20
-104.414935
 30
0.0
 11
-157.887531
 21
-101.318989
 31
0.0
  0
LINE
  8
0
 62
     0
 10
-158.15505
 20
-104.414935
 30
0.0
 11
-157.887531
 21
-104.147416
 31
0.0
  0
LINE
  8
0
 62
     0
 10
-157.887531
 20
-96.67091
 30
0.0
 11
-158.143506
 21
-96.414935
 31
0.0
  0
LINE
  8
0
 62
     0
 10
-159.887531
 20
-94.67091
 30
0.0
 11
-173.845419
 21
-80.713022
 31
0.0
  0
LINE
  8
0
 62
     0
 10
-157.887531
 20
-99.499337
 30
0.0
 11
-176.195557
 21
-81.191312
 31
0.0
  0
LINE
  8
0
 62
     0
 10
-157.887531
 20
-102.327764
 30
0.0
 11
-162.106944
 21
-98.108351
 31
0.0
  0
LINE
  8
0
 62
     0
 10
-164.580947
 20
-95.634348
 30
0.0
 11
-178.428222
 21
-81.787073
 31
0.0
  0
LINE
  8
0
 62
     0
 10
-158.628788
 20
-104.414935
 30
0.0
 11
-161.887531
 21
-101.156191
 31
0.0
  0
LINE
  8
0
 62
     0
 10
-167.628788
 20
-95.414935
 30
0.0
 11
-180.072044
 21
-82.971679
 31
0.0
  0
LINE
  8
0
 62
     0
 10
-161.457215
 20
-104.414935
 30
0.0
 11
-161.887531
 21
-103.984618
 31
0.0
  0
LINE
  8
0
 62
     0
 10
-170.457215
 20
-95.414935
 30
0.0
 11
-181.123572
 21
-84.748578
 31
0.0
  0
LINE
  8
0
 62
     0
 10
-173.285642
 20
-95.414935
 30
0.0
 11
-181.387531
 21
-87.313046
 31
0.0
  0
LINE
  8
0
 62
     0
 10
-176.114069
 20
-95.414935
 30
0.0
 11
-181.387531
 21
-90.141473
 31
0.0
  0
LINE
  8
0
 62
     0
 10
-179.00719
 20
-95.350241
 30
0.0
 11
-181.322838
 21
-93.034593
 31
0.0
  0
LINE
  8
0
 62
     0
 10
-159.887531
 20
-91.842483
 30
0.0
 11
-171.455825
 21
-80.274189
 31
0.0
  0
LINE
  8
0
 62
     0
 10
-159.437092
 20
-89.464495
 30
0.0
 11
-169.025169
 21
-79.876418
 31
0.0
  0
LINE
  8
0
 62
     0
 10
-157.658225
 20
-88.414935
 30
0.0
 11
-166.551681
 21
-79.521479
 31
0.0
  0
LINE
  8
0
 62
     0
 10
-154.829798
 20
-88.414935
 30
0.0
 11
-164.033408
 21
-79.211325
 31
0.0
  0
LINE
  8
0
 62
     0
 10
-152.001371
 20
-88.414935
 30
0.0
 11
-161.468186
 21
-78.94812
 31
0.0
  0
LINE
  8
0
 62
     0
 10
-149.887531
 20
-87.700347
 30
0.0
 11
-158.853608
 21
-78.734271
 31
0.0
  0
LINE
  8
0
 62
     0
 10
-149.887531
 20
-84.87192
 30
0.0
 11
-156.186984
 21
-78.572467
 31
0.0
  0
LINE
  8
0
 62
     0
 10
-149.887531
 20
-82.043493
 30
0.0
 11
-153.465296
 21
-78.465728
 31
0.0
  0
LINE
  8
0
 62
     0
 10
-149.887531
 20
-79.215066
 30
0.0
 11
-150.685138
 21
-78.417459
 31
0.0
  0
ENDBLK
  8
0
  0
BLOCK
  8
0
  2
*X7
 70
    65
 10
0.0
 20
0.0
 30
0.0
  3
*X
  0
LINE
  8
0
 62
     0
 10
-95.414935
 20
-95.414935
 30
0.0
 11
-78.487951
 21
-78.487951
 31
0.0
  0
LINE
  8
0
 62
     0
 10
-98.243362
 20
-95.414935
 30
0.0
 11
-81.452282
 21
-78.623855
 31
0.0
  0
LINE
  8
0
 62
     0
 10
-101.071789
 20
-95.414935
 30
0.0
 11
-84.492924
 21
-78.83607
 31
0.0
  0
LINE
  8
0
 62
     0
 10
-103.720702
 20
-95.23542
 30
0.0
 11
-87.616532
 21
-79.131251
 31
0.0
  0
LINE
  8
0
 62
     0
 10
-105.27142
 20
-93.957712
 30
0.0
 11
-90.830963
 21
-79.517255
 31
0.0
  0
LINE
  8
0
 62
     0
 10
-105.698516
 20
-91.55638
 30
0.0
 11
-94.145604
 21
-80.003469
 31
0.0
  0
LINE
  8
0
 62
     0
 10
-105.698516
 20
-88.727953
 30
0.0
 11
-97.571828
 21
-80.601265
 31
0.0
  0
LINE
  8
0
 62
     0
 10
-105.675927
 20
-85.876937
 30
0.0
 11
-101.123633
 21
-81.324643
 31
0.0
  0
LINE
  8
0
 62
     0
 10
-92.586508
 20
-95.414935
 30
0.0
 11
-75.594237
 21
-78.422664
 31
0.0
  0
LINE
  8
0
 62
     0
 10
-89.780032
 20
-95.436886
 30
0.0
 11
-74.198516
 21
-79.85537
 31
0.0
  0
LINE
  8
0
 62
     0
 10
-87.759382
 20
-96.244663
 30
0.0
 11
-84.198516
 21
-92.683797
 31
0.0
  0
LINE
  8
0
 62
     0
 10
-79.929654
 20
-88.414935
 30
0.0
 11
-74.198516
 21
-82.683797
 31
0.0
  0
LINE
  8
0
 62
     0
 10
-86.52302
 20
-97.836729
 30
0.0
 11
-84.198516
 21
-95.512224
 31
0.0
  0
LINE
  8
0
 62
     0
 10
-77.101227
 20
-88.414935
 30
0.0
 11
-74.198516
 21
-85.512224
 31
0.0
  0
LINE
  8
0
 62
     0
 10
-86.198516
 20
-100.340651
 30
0.0
 11
-82.272799
 21
-96.414935
 31
0.0
  0
LINE
  8
0
 62
     0
 10
-74.272799
 20
-88.414935
 30
0.0
 11
-74.198516
 21
-88.340651
 31
0.0
  0
LINE
  8
0
 62
     0
 10
-86.198516
 20
-103.169078
 30
0.0
 11
-82.198516
 21
-99.169078
 31
0.0
  0
LINE
  8
0
 62
     0
 10
-84.615945
 20
-104.414935
 30
0.0
 11
-82.198516
 21
-101.997506
 31
0.0
  0
LINE
  8
0
 62
     0
 10
-82.198516
 20
-98.82082
 30
0.0
 11
-99.946279
 21
-81.073057
 31
0.0
  0
LINE
  8
0
 62
     0
 10
-82.198516
 20
-101.649247
 30
0.0
 11
-102.249463
 21
-81.5983
 31
0.0
  0
LINE
  8
0
 62
     0
 10
-82.261255
 20
-104.414935
 30
0.0
 11
-86.198516
 21
-100.477675
 31
0.0
  0
LINE
  8
0
 62
     0
 10
-91.261255
 20
-95.414935
 30
0.0
 11
-104.042101
 21
-82.634089
 31
0.0
  0
LINE
  8
0
 62
     0
 10
-85.089682
 20
-104.414935
 30
0.0
 11
-86.198516
 21
-103.306102
 31
0.0
  0
LINE
  8
0
 62
     0
 10
-94.089682
 20
-95.414935
 30
0.0
 11
-105.241441
 21
-84.263176
 31
0.0
  0
LINE
  8
0
 62
     0
 10
-96.918109
 20
-95.414935
 30
0.0
 11
-105.698516
 21
-86.634529
 31
0.0
  0
LINE
  8
0
 62
     0
 10
-99.746537
 20
-95.414935
 30
0.0
 11
-105.698516
 21
-89.462956
 31
0.0
  0
LINE
  8
0
 62
     0
 10
-102.574964
 20
-95.414935
 30
0.0
 11
-105.698516
 21
-92.291383
 31
0.0
  0
LINE
  8
0
 62
     0
 10
-84.198516
 20
-93.992393
 30
0.0
 11
-97.586815
 21
-80.604094
 31
0.0
  0
LINE
  8
0
 62
     0
 10
-84.198516
 20
-91.163966
 30
0.0
 11
-95.187522
 21
-80.174959
 31
0.0
  0
LINE
  8
0
 62
     0
 10
-83.408818
 20
-89.125237
 30
0.0
 11
-92.746759
 21
-79.787296
 31
0.0
  0
LINE
  8
0
 62
     0
 10
-81.290692
 20
-88.414935
 30
0.0
 11
-90.262713
 21
-79.442915
 31
0.0
  0
LINE
  8
0
 62
     0
 10
-78.462265
 20
-88.414935
 30
0.0
 11
-87.733383
 21
-79.143817
 31
0.0
  0
LINE
  8
0
 62
     0
 10
-75.633838
 20
-88.414935
 30
0.0
 11
-85.15655
 21
-78.892223
 31
0.0
  0
LINE
  8
0
 62
     0
 10
-74.198516
 20
-87.02183
 30
0.0
 11
-82.529744
 21
-78.690602
 31
0.0
  0
LINE
  8
0
 62
     0
 10
-74.198516
 20
-84.193403
 30
0.0
 11
-79.850199
 21
-78.54172
 31
0.0
  0
LINE
  8
0
 62
     0
 10
-74.198516
 20
-81.364976
 30
0.0
 11
-77.114811
 21
-78.44868
 31
0.0
  0
LINE
  8
0
 62
     0
 10
-74.198516
 20
-78.536549
 30
0.0
 11
-74.320071
 21
-78.414994
 31
0.0
  0
ENDBLK
  8
0
  0
BLOCK
  8
0
  2
*X8
 70
    65
 10
0.0
 20
0.0
 30
0.0
  3
*X
  0
LINE
  8
0
 62
     0
 10
-3.565535
 20
-106.096019
 30
0.0
 11
20.327704
 21
-82.202779
 31
0.0
  0
LINE
  8
0
 62
     0
 10
-7.101069
 20
-106.096019
 30
0.0
 11
16.614985
 21
-82.379965
 31
0.0
  0
LINE
  8
0
 62
     0
 10
-10.560316
 20
-106.019731
 30
0.0
 11
12.809312
 21
-82.650103
 31
0.0
  0
LINE
  8
0
 62
     0
 10
-12.799207
 20
-104.723088
 30
0.0
 11
8.902809
 21
-83.021073
 31
0.0
  0
LINE
  8
0
 62
     0
 10
-13.782141
 20
-102.170489
 30
0.0
 11
4.886217
 21
-83.502131
 31
0.0
  0
LINE
  8
0
 62
     0
 10
-13.782834
 20
-98.635648
 30
0.0
 11
0.748536
 21
-84.104278
 31
0.0
  0
LINE
  8
0
 62
     0
 10
-13.782834
 20
-95.100114
 30
0.0
 11
-3.523475
 21
-84.840755
 31
0.0
  0
LINE
  8
0
 62
     0
 10
-13.782834
 20
-91.56458
 30
0.0
 11
-7.946
 21
-85.727746
 31
0.0
  0
LINE
  8
0
 62
     0
 10
-0.030001
 20
-106.096019
 30
0.0
 11
23.954242
 21
-82.111776
 31
0.0
  0
LINE
  8
0
 62
     0
 10
3.505533
 20
-106.096019
 30
0.0
 11
13.717166
 21
-95.884385
 31
0.0
  0
LINE
  8
0
 62
     0
 10
15.505533
 20
-94.096019
 30
0.0
 11
26.217166
 21
-83.384385
 31
0.0
  0
LINE
  8
0
 62
     0
 10
6.89931
 20
-106.237775
 30
0.0
 11
13.717166
 21
-99.419919
 31
0.0
  0
LINE
  8
0
 62
     0
 10
19.041066
 20
-94.096019
 30
0.0
 11
26.217166
 21
-86.919919
 31
0.0
  0
LINE
  8
0
 62
     0
 10
9.181718
 20
-107.490901
 30
0.0
 11
13.717166
 21
-102.955453
 31
0.0
  0
LINE
  8
0
 62
     0
 10
22.5766
 20
-94.096019
 30
0.0
 11
26.217166
 21
-90.455453
 31
0.0
  0
LINE
  8
0
 62
     0
 10
10.516028
 20
-109.692125
 30
0.0
 11
13.717166
 21
-106.490987
 31
0.0
  0
LINE
  8
0
 62
     0
 10
26.112134
 20
-94.096019
 30
0.0
 11
26.217166
 21
-93.990987
 31
0.0
  0
LINE
  8
0
 62
     0
 10
10.717166
 20
-113.026521
 30
0.0
 11
16.217166
 21
-107.526521
 31
0.0
  0
LINE
  8
0
 62
     0
 10
10.717166
 20
-116.562055
 30
0.0
 11
16.217166
 21
-111.062055
 31
0.0
  0
LINE
  8
0
 62
     0
 10
13.718736
 20
-117.096019
 30
0.0
 11
16.217166
 21
-114.597589
 31
0.0
  0
LINE
  8
0
 62
     0
 10
16.217166
 20
-108.141047
 30
0.0
 11
15.172137
 21
-107.096019
 31
0.0
  0
LINE
  8
0
 62
     0
 10
13.717166
 20
-105.641047
 30
0.0
 11
-6.500177
 21
-85.423705
 31
0.0
  0
LINE
  8
0
 62
     0
 10
16.217166
 20
-111.676581
 30
0.0
 11
-9.409819
 21
-86.049596
 31
0.0
  0
LINE
  8
0
 62
     0
 10
16.217166
 20
-115.212115
 30
0.0
 11
10.429461
 21
-109.42441
 31
0.0
  0
LINE
  8
0
 62
     0
 10
7.388774
 20
-106.383723
 30
0.0
 11
-11.883383
 21
-87.111566
 31
0.0
  0
LINE
  8
0
 62
     0
 10
14.565535
 20
-117.096019
 30
0.0
 11
10.717166
 21
-113.247649
 31
0.0
  0
LINE
  8
0
 62
     0
 10
3.565535
 20
-106.096019
 30
0.0
 11
-13.404434
 21
-89.126049
 31
0.0
  0
LINE
  8
0
 62
     0
 10
11.030001
 20
-117.096019
 30
0.0
 11
10.717166
 21
-116.783183
 31
0.0
  0
LINE
  8
0
 62
     0
 10
0.030001
 20
-106.096019
 30
0.0
 11
-13.782834
 21
-92.283183
 31
0.0
  0
LINE
  8
0
 62
     0
 10
-3.505533
 20
-106.096019
 30
0.0
 11
-13.782834
 21
-95.818717
 31
0.0
  0
LINE
  8
0
 62
     0
 10
-7.041066
 20
-106.096019
 30
0.0
 11
-13.782834
 21
-99.354251
 31
0.0
  0
LINE
  8
0
 62
     0
 10
-10.678068
 20
-105.994551
 30
0.0
 11
-13.681367
 21
-102.991252
 31
0.0
  0
LINE
  8
0
 62
     0
 10
13.717166
 20
-102.105513
 30
0.0
 11
-3.543807
 21
-84.844541
 31
0.0
  0
LINE
  8
0
 62
     0
 10
13.717166
 20
-98.569979
 30
0.0
 11
-0.538926
 21
-84.313887
 31
0.0
  0
LINE
  8
0
 62
     0
 10
13.997952
 20
-95.315232
 30
0.0
 11
2.516416
 21
-83.833696
 31
0.0
  0
LINE
  8
0
 62
     0
 10
16.314273
 20
-94.096019
 30
0.0
 11
5.624364
 21
-83.40611
 31
0.0
  0
LINE
  8
0
 62
     0
 10
19.849806
 20
-94.096019
 30
0.0
 11
8.787282
 21
-83.033494
 31
0.0
  0
LINE
  8
0
 62
     0
 10
23.38534
 20
-94.096019
 30
0.0
 11
12.007783
 21
-82.718462
 31
0.0
  0
LINE
  8
0
 62
     0
 10
26.217166
 20
-93.39231
 30
0.0
 11
15.288767
 21
-82.463912
 31
0.0
  0
LINE
  8
0
 62
     0
 10
26.217166
 20
-89.856776
 30
0.0
 11
18.633466
 21
-82.273076
 31
0.0
  0
LINE
  8
0
 62
     0
 10
26.217166
 20
-86.321242
 30
0.0
 11
22.045498
 21
-82.149574
 31
0.0
  0
LINE
  8
0
 62
     0
 10
26.217166
 20
-82.785708
 30
0.0
 11
25.528933
 21
-82.097476
 31
0.0
  0
ENDBLK
  8
0
  0
BLOCK
  8
0
  2
*X9
 70
    65
 10
0.0
 20
0.0
 30
0.0
  3
*X
  0
LINE
  8
0
 62
     0
 10
84.822812
 20
-106.096019
 30
0.0
 11
108.79031
 21
-82.128521
 31
0.0
  0
LINE
  8
0
 62
     0
 10
81.287279
 20
-106.096019
 30
0.0
 11
105.14074
 21
-82.242557
 31
0.0
  0
LINE
  8
0
 62
     0
 10
77.751745
 20
-106.096019
 30
0.0
 11
101.403227
 21
-82.444536
 31
0.0
  0
LINE
  8
0
 62
     0
 10
74.517434
 20
-105.794796
 30
0.0
 11
97.570719
 21
-82.74151
 31
0.0
  0
LINE
  8
0
 62
     0
 10
72.614957
 20
-104.161738
 30
0.0
 11
93.634991
 21
-83.141705
 31
0.0
  0
LINE
  8
0
 62
     0
 10
72.040275
 20
-101.200886
 30
0.0
 11
89.586347
 21
-83.654815
 31
0.0
  0
LINE
  8
0
 62
     0
 10
72.040275
 20
-97.665352
 30
0.0
 11
85.413228
 21
-84.292399
 31
0.0
  0
LINE
  8
0
 62
     0
 10
72.040275
 20
-94.129818
 30
0.0
 11
81.101667
 21
-85.068427
 31
0.0
  0
LINE
  8
0
 62
     0
 10
72.061589
 20
-90.572971
 30
0.0
 11
76.634512
 21
-86.000048
 31
0.0
  0
LINE
  8
0
 62
     0
 10
88.358346
 20
-106.096019
 30
0.0
 11
112.040275
 21
-82.414089
 31
0.0
  0
LINE
  8
0
 62
     0
 10
91.882177
 20
-106.107722
 30
0.0
 11
99.540275
 21
-98.449623
 31
0.0
  0
LINE
  8
0
 62
     0
 10
103.89388
 20
-94.096019
 30
0.0
 11
112.040275
 21
-85.949623
 31
0.0
  0
LINE
  8
0
 62
     0
 10
94.476477
 20
-107.048955
 30
0.0
 11
99.540275
 21
-101.985157
 31
0.0
  0
LINE
  8
0
 62
     0
 10
107.429414
 20
-94.096019
 30
0.0
 11
112.040275
 21
-89.485157
 31
0.0
  0
LINE
  8
0
 62
     0
 10
96.073792
 20
-108.987174
 30
0.0
 11
99.540275
 21
-105.520691
 31
0.0
  0
LINE
  8
0
 62
     0
 10
110.964948
 20
-94.096019
 30
0.0
 11
112.040275
 21
-93.020691
 31
0.0
  0
LINE
  8
0
 62
     0
 10
96.540275
 20
-112.056225
 30
0.0
 11
101.500482
 21
-107.096019
 31
0.0
  0
LINE
  8
0
 62
     0
 10
96.540275
 20
-115.591759
 30
0.0
 11
102.040275
 21
-110.091759
 31
0.0
  0
LINE
  8
0
 62
     0
 10
98.57155
 20
-117.096019
 30
0.0
 11
102.040275
 21
-113.627293
 31
0.0
  0
LINE
  8
0
 62
     0
 10
102.040275
 20
-109.111343
 30
0.0
 11
100.024951
 21
-107.096019
 31
0.0
  0
LINE
  8
0
 62
     0
 10
99.540275
 20
-106.611343
 30
0.0
 11
78.519827
 21
-85.590894
 31
0.0
  0
LINE
  8
0
 62
     0
 10
102.040275
 20
-112.646877
 30
0.0
 11
75.630424
 21
-86.237026
 31
0.0
  0
LINE
  8
0
 62
     0
 10
102.040275
 20
-116.182411
 30
0.0
 11
96.521549
 21
-110.663685
 31
0.0
  0
LINE
  8
0
 62
     0
 10
91.972609
 20
-106.114745
 30
0.0
 11
73.431384
 21
-87.57352
 31
0.0
  0
LINE
  8
0
 62
     0
 10
99.418349
 20
-117.096019
 30
0.0
 11
96.540275
 21
-114.217945
 31
0.0
  0
LINE
  8
0
 62
     0
 10
88.418349
 20
-106.096019
 30
0.0
 11
72.180527
 21
-89.858197
 31
0.0
  0
LINE
  8
0
 62
     0
 10
84.882815
 20
-106.096019
 30
0.0
 11
72.040275
 21
-93.253479
 31
0.0
  0
LINE
  8
0
 62
     0
 10
81.347281
 20
-106.096019
 30
0.0
 11
72.040275
 21
-96.789013
 31
0.0
  0
LINE
  8
0
 62
     0
 10
77.811747
 20
-106.096019
 30
0.0
 11
72.040275
 21
-100.324547
 31
0.0
  0
LINE
  8
0
 62
     0
 10
99.540275
 20
-103.075809
 30
0.0
 11
81.463202
 21
-84.998736
 31
0.0
  0
LINE
  8
0
 62
     0
 10
99.540275
 20
-99.540275
 30
0.0
 11
84.454582
 21
-84.454582
 31
0.0
  0
LINE
  8
0
 62
     0
 10
99.540275
 20
-96.004742
 30
0.0
 11
87.495871
 21
-83.960337
 31
0.0
  0
LINE
  8
0
 62
     0
 10
101.167086
 20
-94.096019
 30
0.0
 11
90.589156
 21
-83.518089
 31
0.0
  0
LINE
  8
0
 62
     0
 10
104.70262
 20
-94.096019
 30
0.0
 11
93.73674
 21
-83.130138
 31
0.0
  0
LINE
  8
0
 62
     0
 10
108.238154
 20
-94.096019
 30
0.0
 11
96.941162
 21
-82.799026
 31
0.0
  0
LINE
  8
0
 62
     0
 10
111.773688
 20
-94.096019
 30
0.0
 11
100.20524
 21
-82.52757
 31
0.0
  0
LINE
  8
0
 62
     0
 10
112.040275
 20
-90.827072
 30
0.0
 11
103.53211
 21
-82.318906
 31
0.0
  0
LINE
  8
0
 62
     0
 10
112.040275
 20
-87.291538
 30
0.0
 11
106.925278
 21
-82.176541
 31
0.0
  0
LINE
  8
0
 62
     0
 10
112.040275
 20
-83.756004
 30
0.0
 11
110.388683
 21
-82.104412
 31
0.0
  0
ENDBLK
  8
0
  0
BLOCK
  8
0
  2
*X10
 70
    65
 10
0.0
 20
0.0
 30
0.0
  3
*X
  0
LINE
  8
0
 62
     0
 10
-80.682852
 20
9.473263
 30
0.0
 11
-77.682852
 21
12.473263
 31
0.0
  0
LINE
  8
0
 62
     0
 10
-79.182852
 20
12.74103
 30
0.0
 11
-77.682852
 21
14.24103
 31
0.0
  0
LINE
  8
0
 62
     0
 10
-75.389244
 20
16.534637
 30
0.0
 11
-73.682852
 21
18.24103
 31
0.0
  0
LINE
  8
0
 62
     0
 10
-79.182852
 20
14.508797
 30
0.0
 11
-73.682852
 21
20.008797
 31
0.0
  0
LINE
  8
0
 62
     0
 10
-79.182852
 20
16.276564
 30
0.0
 11
-73.682852
 21
21.776564
 31
0.0
  0
LINE
  8
0
 62
     0
 10
-80.01676
 20
17.210422
 30
0.0
 11
-73.682852
 21
23.54433
 31
0.0
  0
LINE
  8
0
 62
     0
 10
-80.682852
 20
18.312097
 30
0.0
 11
-73.784527
 21
25.210422
 31
0.0
  0
LINE
  8
0
 62
     0
 10
-80.682852
 20
20.079864
 30
0.0
 11
-75.552294
 21
25.210422
 31
0.0
  0
LINE
  8
0
 62
     0
 10
-80.682852
 20
21.847631
 30
0.0
 11
-77.320061
 21
25.210422
 31
0.0
  0
LINE
  8
0
 62
     0
 10
-80.682852
 20
23.615398
 30
0.0
 11
-79.087828
 21
25.210422
 31
0.0
  0
LINE
  8
0
 62
     0
 10
-80.682852
 20
7.705496
 30
0.0
 11
-77.682852
 21
10.705496
 31
0.0
  0
LINE
  8
0
 62
     0
 10
-80.682852
 20
5.937729
 30
0.0
 11
-77.682852
 21
8.937729
 31
0.0
  0
LINE
  8
0
 62
     0
 10
-80.682852
 20
4.169962
 30
0.0
 11
-77.682852
 21
7.169962
 31
0.0
  0
LINE
  8
0
 62
     0
 10
-80.682852
 20
2.402195
 30
0.0
 11
-77.682852
 21
5.402195
 31
0.0
  0
LINE
  8
0
 62
     0
 10
-80.106858
 20
1.210422
 30
0.0
 11
-77.682852
 21
3.634428
 31
0.0
  0
LINE
  8
0
 62
     0
 10
-78.339091
 20
1.210422
 30
0.0
 11
-77.682852
 21
1.866661
 31
0.0
  0
ENDBLK
  8
0
  0
BLOCK
  8
0
  2
*X11
 70
    65
 10
0.0
 20
0.0
 30
0.0
  3
*X
  0
LINE
  8
0
 62
     0
 10
-32.141404
 20
8.517236
 30
0.0
 11
-28.541404
 21
12.117236
 31
0.0
  0
LINE
  8
0
 62
     0
 10
-32.141404
 20
10.285003
 30
0.0
 11
-31.215985
 21
11.210422
 31
0.0
  0
LINE
  8
0
 62
     0
 10
-30.641404
 20
11.785003
 30
0.0
 11
-28.541404
 21
13.885003
 31
0.0
  0
LINE
  8
0
 62
     0
 10
-30.641404
 20
13.55277
 30
0.0
 11
-28.541404
 21
15.65277
 31
0.0
  0
LINE
  8
0
 62
     0
 10
-30.641404
 20
15.320537
 30
0.0
 11
-28.541404
 21
17.420537
 31
0.0
  0
LINE
  8
0
 62
     0
 10
-30.641404
 20
17.088304
 30
0.0
 11
-25.141404
 21
22.588304
 31
0.0
  0
LINE
  8
0
 62
     0
 10
-32.141404
 20
17.356071
 30
0.0
 11
-25.141404
 21
24.356071
 31
0.0
  0
LINE
  8
0
 62
     0
 10
-32.141404
 20
19.123838
 30
0.0
 11
-26.054819
 21
25.210422
 31
0.0
  0
LINE
  8
0
 62
     0
 10
-32.141404
 20
20.891605
 30
0.0
 11
-27.822586
 21
25.210422
 31
0.0
  0
LINE
  8
0
 62
     0
 10
-32.141404
 20
22.659372
 30
0.0
 11
-29.590353
 21
25.210422
 31
0.0
  0
LINE
  8
0
 62
     0
 10
-32.141404
 20
6.749469
 30
0.0
 11
-28.541404
 21
10.349469
 31
0.0
  0
LINE
  8
0
 62
     0
 10
-32.141404
 20
4.981702
 30
0.0
 11
-28.541404
 21
8.581702
 31
0.0
  0
LINE
  8
0
 62
     0
 10
-32.141404
 20
3.213936
 30
0.0
 11
-28.541404
 21
6.813936
 31
0.0
  0
LINE
  8
0
 62
     0
 10
-32.141404
 20
1.446169
 30
0.0
 11
-28.541404
 21
5.046169
 31
0.0
  0
LINE
  8
0
 62
     0
 10
-30.609383
 20
1.210422
 30
0.0
 11
-28.541404
 21
3.278402
 31
0.0
  0
ENDBLK
  8
0
  0
BLOCK
  8
0
  2
*X12
 70
    65
 10
0.0
 20
0.0
 30
0.0
  3
*X
  0
LINE
  8
0
 62
     0
 10
-127.508644
 20
1.538343
 30
0.0
 11
-124.008644
 21
5.038343
 31
0.0
  0
LINE
  8
0
 62
     0
 10
-127.508644
 20
3.30611
 30
0.0
 11
-126.573306
 21
4.241448
 31
0.0
  0
LINE
  8
0
 62
     0
 10
-126.008644
 20
4.80611
 30
0.0
 11
-124.008644
 21
6.80611
 31
0.0
  0
LINE
  8
0
 62
     0
 10
-126.008644
 20
6.573877
 30
0.0
 11
-124.008644
 21
8.573877
 31
0.0
  0
LINE
  8
0
 62
     0
 10
-126.008644
 20
8.341644
 30
0.0
 11
-124.008644
 21
10.341644
 31
0.0
  0
LINE
  8
0
 62
     0
 10
-123.802709
 20
10.547579
 30
0.0
 11
-121.508644
 21
12.841644
 31
0.0
  0
LINE
  8
0
 62
     0
 10
-126.876607
 20
9.241448
 30
0.0
 11
-121.508644
 21
14.609411
 31
0.0
  0
LINE
  8
0
 62
     0
 10
-127.508644
 20
10.377178
 30
0.0
 11
-122.644374
 21
15.241448
 31
0.0
  0
LINE
  8
0
 62
     0
 10
-127.508644
 20
12.144945
 30
0.0
 11
-124.412141
 21
15.241448
 31
0.0
  0
LINE
  8
0
 62
     0
 10
-127.508644
 20
-0.229424
 30
0.0
 11
-124.008644
 21
3.270576
 31
0.0
  0
LINE
  8
0
 62
     0
 10
-127.508644
 20
-1.997191
 30
0.0
 11
-124.008644
 21
1.502809
 31
0.0
  0
LINE
  8
0
 62
     0
 10
-127.508644
 20
-3.764958
 30
0.0
 11
-124.008644
 21
-0.264958
 31
0.0
  0
LINE
  8
0
 62
     0
 10
-126.734472
 20
-4.758552
 30
0.0
 11
-124.008644
 21
-2.032725
 31
0.0
  0
LINE
  8
0
 62
     0
 10
-124.966705
 20
-4.758552
 30
0.0
 11
-124.008644
 21
-3.800492
 31
0.0
  0
ENDBLK
  8
0
  0
BLOCK
  8
0
  2
*X13
 70
    65
 10
0.0
 20
0.0
 30
0.0
  3
*X
  0
LINE
  8
0
 62
     0
 10
-166.194674
 20
1.743186
 30
0.0
 11
-163.194674
 21
4.743186
 31
0.0
  0
LINE
  8
0
 62
     0
 10
-166.194674
 20
3.510953
 30
0.0
 11
-165.464179
 21
4.241448
 31
0.0
  0
LINE
  8
0
 62
     0
 10
-160.283292
 20
9.422335
 30
0.0
 11
-160.194674
 21
9.510953
 31
0.0
  0
LINE
  8
0
 62
     0
 10
-164.694674
 20
5.010953
 30
0.0
 11
-163.194674
 21
6.510953
 31
0.0
  0
LINE
  8
0
 62
     0
 10
-164.694674
 20
6.77872
 30
0.0
 11
-160.194674
 21
11.27872
 31
0.0
  0
LINE
  8
0
 62
     0
 10
-164.694674
 20
8.546487
 30
0.0
 11
-160.194674
 21
13.046487
 31
0.0
  0
LINE
  8
0
 62
     0
 10
-165.76748
 20
9.241448
 30
0.0
 11
-160.194674
 21
14.814254
 31
0.0
  0
LINE
  8
0
 62
     0
 10
-166.194674
 20
10.582021
 30
0.0
 11
-161.535247
 21
15.241448
 31
0.0
  0
LINE
  8
0
 62
     0
 10
-166.194674
 20
12.349788
 30
0.0
 11
-163.303014
 21
15.241448
 31
0.0
  0
LINE
  8
0
 62
     0
 10
-166.194674
 20
-0.024581
 30
0.0
 11
-163.194674
 21
2.975419
 31
0.0
  0
LINE
  8
0
 62
     0
 10
-166.194674
 20
-1.792348
 30
0.0
 11
-163.194674
 21
1.207652
 31
0.0
  0
LINE
  8
0
 62
     0
 10
-166.194674
 20
-3.560115
 30
0.0
 11
-163.194674
 21
-0.560115
 31
0.0
  0
LINE
  8
0
 62
     0
 10
-165.625345
 20
-4.758552
 30
0.0
 11
-163.194674
 21
-2.327882
 31
0.0
  0
LINE
  8
0
 62
     0
 10
-163.857578
 20
-4.758552
 30
0.0
 11
-163.194674
 21
-4.095649
 31
0.0
  0
ENDBLK
  8
0
  0
BLOCK
  8
0
  2
*X14
 70
    65
 10
0.0
 20
0.0
 30
0.0
  3
*X
  0
LINE
  8
0
 62
     0
 10
20.576205
 20
17.924554
 30
0.0
 11
21.465523
 21
18.813873
 31
0.0
  0
LINE
  8
0
 62
     0
 10
22.576205
 20
19.924554
 30
0.0
 11
24.576205
 21
21.924554
 31
0.0
  0
LINE
  8
0
 62
     0
 10
22.576205
 20
22.576205
 30
0.0
 11
24.576205
 21
24.576205
 31
0.0
  0
LINE
  8
0
 62
     0
 10
25.138533
 20
25.138533
 30
0.0
 11
29.576205
 21
29.576205
 31
0.0
  0
LINE
  8
0
 62
     0
 10
22.576205
 20
25.227855
 30
0.0
 11
29.576205
 21
32.227855
 31
0.0
  0
LINE
  8
0
 62
     0
 10
20.576205
 20
25.879506
 30
0.0
 11
27.510572
 21
32.813873
 31
0.0
  0
LINE
  8
0
 62
     0
 10
20.576205
 20
28.531156
 30
0.0
 11
24.858921
 21
32.813873
 31
0.0
  0
LINE
  8
0
 62
     0
 10
20.576205
 20
31.182806
 30
0.0
 11
22.207271
 21
32.813873
 31
0.0
  0
LINE
  8
0
 62
     0
 10
20.576205
 20
15.272904
 30
0.0
 11
24.576205
 21
19.272904
 31
0.0
  0
LINE
  8
0
 62
     0
 10
20.576205
 20
12.621253
 30
0.0
 11
24.576205
 21
16.621253
 31
0.0
  0
LINE
  8
0
 62
     0
 10
20.576205
 20
9.969603
 30
0.0
 11
24.576205
 21
13.969603
 31
0.0
  0
LINE
  8
0
 62
     0
 10
20.576205
 20
7.317953
 30
0.0
 11
24.576205
 21
11.317953
 31
0.0
  0
LINE
  8
0
 62
     0
 10
22.723775
 20
6.813873
 30
0.0
 11
24.576205
 21
8.666302
 31
0.0
  0
ENDBLK
  8
0
  0
BLOCK
  8
0
  2
*X15
 70
    65
 10
0.0
 20
0.0
 30
0.0
  3
*X
  0
LINE
  8
0
 62
     0
 10
77.657285
 20
16.669325
 30
0.0
 11
82.407285
 21
21.419325
 31
0.0
  0
LINE
  8
0
 62
     0
 10
79.657285
 20
21.320976
 30
0.0
 11
82.407285
 21
24.070976
 31
0.0
  0
LINE
  8
0
 62
     0
 10
79.657285
 20
23.972626
 30
0.0
 11
82.407285
 21
26.722626
 31
0.0
  0
LINE
  8
0
 62
     0
 10
85.38344
 20
29.698781
 30
0.0
 11
86.657285
 21
30.972626
 31
0.0
  0
LINE
  8
0
 62
     0
 10
78.846881
 20
25.813873
 30
0.0
 11
85.846881
 21
32.813873
 31
0.0
  0
LINE
  8
0
 62
     0
 10
77.657285
 20
27.275927
 30
0.0
 11
83.195231
 21
32.813873
 31
0.0
  0
LINE
  8
0
 62
     0
 10
77.657285
 20
29.927577
 30
0.0
 11
80.54358
 21
32.813873
 31
0.0
  0
LINE
  8
0
 62
     0
 10
77.657285
 20
14.017675
 30
0.0
 11
82.407285
 21
18.767675
 31
0.0
  0
LINE
  8
0
 62
     0
 10
77.657285
 20
11.366024
 30
0.0
 11
82.407285
 21
16.116024
 31
0.0
  0
LINE
  8
0
 62
     0
 10
77.657285
 20
8.714374
 30
0.0
 11
82.407285
 21
13.464374
 31
0.0
  0
LINE
  8
0
 62
     0
 10
78.408434
 20
6.813873
 30
0.0
 11
82.407285
 21
10.812723
 31
0.0
  0
LINE
  8
0
 62
     0
 10
81.060085
 20
6.813873
 30
0.0
 11
82.407285
 21
8.161073
 31
0.0
  0
ENDBLK
  8
0
  0
BLOCK
  8
0
  2
*X16
 70
    65
 10
0.0
 20
0.0
 30
0.0
  3
*X
  0
LINE
  8
0
 62
     0
 10
-154.373
 20
-111.946593
 30
0.0
 11
-150.373
 21
-107.946593
 31
0.0
  0
LINE
  8
0
 62
     0
 10
-154.373
 20
-109.294943
 30
0.0
 11
-150.373
 21
-105.294943
 31
0.0
  0
LINE
  8
0
 62
     0
 10
-152.373
 20
-104.643293
 30
0.0
 11
-150.373
 21
-102.643293
 31
0.0
  0
LINE
  8
0
 62
     0
 10
-152.373
 20
-101.991642
 30
0.0
 11
-150.373
 21
-99.991642
 31
0.0
  0
LINE
  8
0
 62
     0
 10
-147.687332
 20
-97.305973
 30
0.0
 11
-144.373
 21
-93.991642
 31
0.0
  0
LINE
  8
0
 62
     0
 10
-152.373
 20
-99.339992
 30
0.0
 11
-144.373
 21
-91.339992
 31
0.0
  0
LINE
  8
0
 62
     0
 10
-154.373
 20
-98.688341
 30
0.0
 11
-146.541204
 21
-90.856545
 31
0.0
  0
LINE
  8
0
 62
     0
 10
-154.373
 20
-96.036691
 30
0.0
 11
-149.192854
 21
-90.856545
 31
0.0
  0
LINE
  8
0
 62
     0
 10
-154.373
 20
-93.38504
 30
0.0
 11
-151.844505
 21
-90.856545
 31
0.0
  0
LINE
  8
0
 62
     0
 10
-154.373
 20
-114.598244
 30
0.0
 11
-150.373
 21
-110.598244
 31
0.0
  0
LINE
  8
0
 62
     0
 10
-154.373
 20
-117.249894
 30
0.0
 11
-150.373
 21
-113.249894
 31
0.0
  0
LINE
  8
0
 62
     0
 10
-154.373
 20
-119.901545
 30
0.0
 11
-150.373
 21
-115.901545
 31
0.0
  0
LINE
  8
0
 62
     0
 10
-152.67635
 20
-120.856545
 30
0.0
 11
-150.373
 21
-118.553195
 31
0.0
  0
ENDBLK
  8
0
  0
BLOCK
  8
0
  2
*X17
 70
    65
 10
0.0
 20
0.0
 30
0.0
  3
*X
  0
LINE
  8
0
 62
     0
 10
-78.683985
 20
-110.50379
 30
0.0
 11
-73.783985
 21
-105.60379
 31
0.0
  0
LINE
  8
0
 62
     0
 10
-78.683985
 20
-107.852139
 30
0.0
 11
-77.68839
 21
-106.856545
 31
0.0
  0
LINE
  8
0
 62
     0
 10
-76.683985
 20
-105.852139
 30
0.0
 11
-73.783985
 21
-102.952139
 31
0.0
  0
LINE
  8
0
 62
     0
 10
-76.683985
 20
-103.200489
 30
0.0
 11
-73.783985
 21
-100.300489
 31
0.0
  0
LINE
  8
0
 62
     0
 10
-76.683985
 20
-100.548838
 30
0.0
 11
-73.783985
 21
-97.648838
 31
0.0
  0
LINE
  8
0
 62
     0
 10
-70.087124
 20
-93.951977
 30
0.0
 11
-68.683985
 21
-92.548838
 31
0.0
  0
LINE
  8
0
 62
     0
 10
-77.643342
 20
-98.856545
 30
0.0
 11
-69.643342
 21
-90.856545
 31
0.0
  0
LINE
  8
0
 62
     0
 10
-78.683985
 20
-97.245538
 30
0.0
 11
-72.294992
 21
-90.856545
 31
0.0
  0
LINE
  8
0
 62
     0
 10
-78.683985
 20
-94.593887
 30
0.0
 11
-74.946642
 21
-90.856545
 31
0.0
  0
LINE
  8
0
 62
     0
 10
-78.683985
 20
-113.15544
 30
0.0
 11
-73.783985
 21
-108.25544
 31
0.0
  0
LINE
  8
0
 62
     0
 10
-78.683985
 20
-115.807091
 30
0.0
 11
-73.783985
 21
-110.907091
 31
0.0
  0
LINE
  8
0
 62
     0
 10
-78.683985
 20
-118.458741
 30
0.0
 11
-73.783985
 21
-113.558741
 31
0.0
  0
LINE
  8
0
 62
     0
 10
-78.430138
 20
-120.856545
 30
0.0
 11
-73.783985
 21
-116.210391
 31
0.0
  0
LINE
  8
0
 62
     0
 10
-75.778488
 20
-120.856545
 30
0.0
 11
-73.783985
 21
-118.862042
 31
0.0
  0
ENDBLK
  8
0
  0
BLOCK
  8
0
  2
*X19
 70
    65
 10
0.0
 20
0.0
 30
0.0
  3
*X
  0
LINE
  8
0
 62
     0
 10
11.442222
 20
-101.694863
 30
0.0
 11
12.873644
 21
-100.263441
 31
0.0
  0
LINE
  8
0
 62
     0
 10
13.942222
 20
-99.194863
 30
0.0
 11
15.942222
 21
-97.194863
 31
0.0
  0
LINE
  8
0
 62
     0
 10
13.942222
 20
-95.659329
 30
0.0
 11
15.942222
 21
-93.659329
 31
0.0
  0
LINE
  8
0
 62
     0
 10
13.942222
 20
-92.123795
 30
0.0
 11
15.942222
 21
-90.123795
 31
0.0
  0
LINE
  8
0
 62
     0
 10
22.709892
 20
-83.356125
 30
0.0
 11
23.942222
 21
-82.123795
 31
0.0
  0
LINE
  8
0
 62
     0
 10
12.267042
 20
-90.263441
 30
0.0
 11
23.942222
 21
-78.588261
 31
0.0
  0
LINE
  8
0
 62
     0
 10
11.442222
 20
-87.552727
 30
0.0
 11
21.731508
 21
-77.263441
 31
0.0
  0
LINE
  8
0
 62
     0
 10
11.442222
 20
-84.017193
 30
0.0
 11
18.195974
 21
-77.263441
 31
0.0
  0
LINE
  8
0
 62
     0
 10
11.442222
 20
-80.481659
 30
0.0
 11
14.660441
 21
-77.263441
 31
0.0
  0
LINE
  8
0
 62
     0
 10
11.442222
 20
-105.230396
 30
0.0
 11
15.942222
 21
-100.730396
 31
0.0
  0
LINE
  8
0
 62
     0
 10
11.442222
 20
-108.76593
 30
0.0
 11
15.942222
 21
-104.26593
 31
0.0
  0
LINE
  8
0
 62
     0
 10
11.442222
 20
-112.301464
 30
0.0
 11
15.942222
 21
-107.801464
 31
0.0
  0
LINE
  8
0
 62
     0
 10
11.442222
 20
-115.836998
 30
0.0
 11
15.942222
 21
-111.336998
 31
0.0
  0
LINE
  8
0
 62
     0
 10
13.551313
 20
-117.263441
 30
0.0
 11
15.942222
 21
-114.872532
 31
0.0
  0
ENDBLK
  8
0
  0
BLOCK
  8
0
  2
*X20
 70
    65
 10
0.0
 20
0.0
 30
0.0
  3
*X
  0
LINE
  8
0
 62
     0
 10
97.265332
 20
-100.724566
 30
0.0
 11
97.726458
 21
-100.263441
 31
0.0
  0
LINE
  8
0
 62
     0
 10
99.765332
 20
-98.224566
 30
0.0
 11
102.765332
 21
-95.224566
 31
0.0
  0
LINE
  8
0
 62
     0
 10
99.765332
 20
-94.689033
 30
0.0
 11
102.765332
 21
-91.689033
 31
0.0
  0
LINE
  8
0
 62
     0
 10
99.765332
 20
-91.153499
 30
0.0
 11
102.765332
 21
-88.153499
 31
0.0
  0
LINE
  8
0
 62
     0
 10
97.265332
 20
-90.117965
 30
0.0
 11
102.765332
 21
-84.617965
 31
0.0
  0
LINE
  8
0
 62
     0
 10
103.297457
 20
-84.08584
 30
0.0
 11
109.765332
 21
-77.617965
 31
0.0
  0
LINE
  8
0
 62
     0
 10
97.265332
 20
-86.582431
 30
0.0
 11
106.584322
 21
-77.263441
 31
0.0
  0
LINE
  8
0
 62
     0
 10
97.265332
 20
-83.046897
 30
0.0
 11
103.048788
 21
-77.263441
 31
0.0
  0
LINE
  8
0
 62
     0
 10
97.265332
 20
-79.511363
 30
0.0
 11
99.513254
 21
-77.263441
 31
0.0
  0
LINE
  8
0
 62
     0
 10
97.265332
 20
-104.2601
 30
0.0
 11
102.765332
 21
-98.7601
 31
0.0
  0
LINE
  8
0
 62
     0
 10
97.265332
 20
-107.795634
 30
0.0
 11
102.765332
 21
-102.295634
 31
0.0
  0
LINE
  8
0
 62
     0
 10
97.265332
 20
-111.331168
 30
0.0
 11
102.765332
 21
-105.831168
 31
0.0
  0
LINE
  8
0
 62
     0
 10
97.265332
 20
-114.866702
 30
0.0
 11
102.765332
 21
-109.366702
 31
0.0
  0
LINE
  8
0
 62
     0
 10
98.404127
 20
-117.263441
 30
0.0
 11
102.765332
 21
-112.902236
 31
0.0
  0
ENDBLK
  8
0
  0
ENDSEC
  0
SECTION
  2
ENTITIES
  0
LINE
  8
0
 10
-175.321867
 20
-24.86745
 30
0.0
 11
-172.835921
 21
-23.935966
 31
0.0
  0
LINE
  8
0
 10
-162.535728
 20
-12.081311
 30
0.0
 11
-163.467212
 21
-14.567257
 31
0.0
  0
ARC
  8
0
 10
-178.449956
 20
-8.953222
 30
0.0
 40
16.0
 50
290.540978
 51
339.459022
  0
ARC
  8
0
 10
-141.939393
 20
-8.953222
 30
0.0
 40
16.0
 50
200.540978
 51
249.459022
  0
LINE
  8
0
 10
-145.067481
 20
-24.86745
 30
0.0
 11
-147.553428
 21
-23.935966
 31
0.0
  0
LINE
  8
0
 10
-157.853621
 20
-12.081311
 30
0.0
 11
-156.922136
 21
-14.567257
 31
0.0
  0
ARC
  8
0
 10
-178.449956
 20
-45.463786
 30
0.0
 40
16.0
 50
20.540978
 51
69.459022
  0
LINE
  8
0
 10
-175.321867
 20
-29.549558
 30
0.0
 11
-172.835921
 21
-30.481042
 31
0.0
  0
LINE
  8
0
 10
-162.535728
 20
-42.335697
 30
0.0
 11
-163.467212
 21
-39.849751
 31
0.0
  0
LINE
  8
0
 10
-157.853621
 20
-42.335697
 30
0.0
 11
-156.922136
 21
-39.849751
 31
0.0
  0
ARC
  8
0
 10
-141.939393
 20
-45.463786
 30
0.0
 40
16.0
 50
110.540978
 51
159.459022
  0
LINE
  8
0
 10
-145.067481
 20
-29.549558
 30
0.0
 11
-147.553428
 21
-30.481042
 31
0.0
  0
ARC
  8
0
 10
-160.194674
 20
-41.458504
 30
0.0
 40
2.5
 50
200.540978
 51
339.459022
  0
ARC
  8
0
 10
-145.944674
 20
-27.208504
 30
0.0
 40
2.5
 50
290.540978
 51
69.459022
  0
ARC
  8
0
 10
-174.444674
 20
-27.208504
 30
0.0
 40
2.5
 50
110.540978
 51
249.459022
  0
ARC
  8
0
 10
-160.194674
 20
-12.958504
 30
0.0
 40
2.5
 50
20.540978
 51
159.459022
  0
ARC
  8
0
 10
29.576205
 20
-6.708504
 30
0.0
 40
4.0
 50
0.0
 51
180.0
  0
LINE
  8
0
 10
9.076205
 20
-23.208504
 30
0.0
 11
11.576205
 21
-23.208504
 31
0.0
  0
LINE
  8
0
 10
25.576205
 20
-9.208504
 30
0.0
 11
25.576205
 21
-6.708504
 31
0.0
  0
ARC
  8
0
 10
11.576205
 20
-9.208504
 30
0.0
 40
14.0
 50
270.0
 51
0.0
  0
ARC
  8
0
 10
9.076205
 20
-27.208504
 30
0.0
 40
4.0
 50
90.0
 51
270.0
  0
LINE
  8
0
 10
11.576205
 20
-31.208504
 30
0.0
 11
9.076205
 21
-31.208504
 31
0.0
  0
ARC
  8
0
 10
11.576205
 20
-45.208504
 30
0.0
 40
14.0
 50
0.0
 51
90.0
  0
LINE
  8
0
 10
25.576205
 20
-47.708504
 30
0.0
 11
25.576205
 21
-45.208504
 31
0.0
  0
ARC
  8
0
 10
29.576205
 20
-47.708504
 30
0.0
 40
4.0
 50
180.0
 51
0.0
  0
LINE
  8
0
 10
33.576205
 20
-45.208504
 30
0.0
 11
33.576205
 21
-47.708504
 31
0.0
  0
ARC
  8
0
 10
47.576205
 20
-45.208504
 30
0.0
 40
14.0
 50
90.0
 51
180.0
  0
LINE
  8
0
 10
50.076205
 20
-31.208504
 30
0.0
 11
47.576205
 21
-31.208504
 31
0.0
  0
ARC
  8
0
 10
50.076205
 20
-27.208504
 30
0.0
 40
4.0
 50
270.0
 51
90.0
  0
LINE
  8
0
 10
47.576205
 20
-23.208504
 30
0.0
 11
50.076205
 21
-23.208504
 31
0.0
  0
ARC
  8
0
 10
47.576205
 20
-9.208504
 30
0.0
 40
14.0
 50
180.0
 51
270.0
  0
LINE
  8
0
 10
33.576205
 20
-6.708504
 30
0.0
 11
33.576205
 21
-9.208504
 31
0.0
  0
ARC
  8
0
 10
-144.373
 20
-137.500246
 30
0.0
 40
5.5
 50
0.0
 51
180.0
  0
LINE
  8
0
 10
-170.373
 20
-158.000246
 30
0.0
 11
-167.873
 21
-158.000246
 31
0.0
  0
LINE
  8
0
 10
-149.873
 20
-137.500246
 30
0.0
 11
-149.873
 21
-140.000246
 31
0.0
  0
ARC
  8
0
 10
-167.873
 20
-140.000246
 30
0.0
 40
18.0
 50
270.0
 51
0.0
  0
ARC
  8
0
 10
-170.373
 20
-163.500246
 30
0.0
 40
5.5
 50
90.0
 51
270.0
  0
LINE
  8
0
 10
-170.373
 20
-169.000246
 30
0.0
 11
-167.873
 21
-169.000246
 31
0.0
  0
ARC
  8
0
 10
-167.873
 20
-187.000246
 30
0.0
 40
18.0
 50
0.0
 51
90.0
  0
LINE
  8
0
 10
-149.873
 20
-189.500246
 30
0.0
 11
-149.873
 21
-187.000246
 31
0.0
  0
ARC
  8
0
 10
-144.373
 20
-189.135252
 30
0.0
 40
5.5
 50
180.0
 51
0.0
  0
LINE
  8
0
 10
-138.873
 20
-189.500246
 30
0.0
 11
-138.873
 21
-187.000246
 31
0.0
  0
ARC
  8
0
 10
-120.873
 20
-187.000246
 30
0.0
 40
18.0
 50
90.0
 51
180.0
  0
LINE
  8
0
 10
-118.373
 20
-169.000246
 30
0.0
 11
-120.873
 21
-169.000246
 31
0.0
  0
ARC
  8
0
 10
-118.373
 20
-163.500246
 30
0.0
 40
5.5
 50
270.0
 51
90.0
  0
LINE
  8
0
 10
-118.373
 20
-158.000246
 30
0.0
 11
-120.873
 21
-158.000246
 31
0.0
  0
ARC
  8
0
 10
-120.873
 20
-140.000246
 30
0.0
 40
18.0
 50
180.0
 51
270.0
  0
LINE
  8
0
 10
-138.873
 20
-137.500246
 30
0.0
 11
-138.873
 21
-140.000246
 31
0.0
  0
LINE
  8
0
 10
-106.304454
 20
14.233743
 30
0.0
 11
-106.304454
 21
9.86664
 31
0.0
  0
LINE
  8
0
 10
-119.983594
 20
14.727377
 30
0.0
 11
-119.983594
 21
10.020788
 31
0.0
  0
ARC
  8
0
 10
-113.353607
 20
0.69029
 30
0.0
 40
15.81103
 50
66.755066
 51
111.069621
  0
ARC
  8
0
 10
-106.758644
 20
14.240394
 30
0.0
 40
2.0
 50
0.0
 51
74.548307
  0
ARC
  8
0
 10
-136.258644
 20
14.240394
 30
0.0
 40
2.0
 50
105.451693
 51
180.0
  0
ARC
  8
0
 10
-121.508644
 20
-39.121052
 30
0.0
 40
57.3625
 50
74.548307
 51
105.451693
  0
LINE
  8
0
  6
CENTER
 10
-121.508644
 20
-6.122809
 30
0.0
 11
-121.508644
 21
20.534929
 31
0.0
  0
LINE
  8
0
 10
-104.758644
 20
9.241448
 30
0.0
 11
-104.758644
 21
14.240394
 31
0.0
  0
LINE
  8
0
 10
-138.258644
 20
9.241448
 30
0.0
 11
-138.258644
 21
14.240394
 31
0.0
  0
LINE
  8
0
 10
-136.258644
 20
7.241448
 30
0.0
 11
-131.008644
 21
7.241448
 31
0.0
  0
ARC
  8
0
 10
-136.258644
 20
9.241448
 30
0.0
 40
2.0
 50
180.0
 51
270.0
  0
ARC
  8
0
 10
-106.758644
 20
9.241448
 30
0.0
 40
2.0
 50
270.0
 51
0.0
  0
LINE
  8
0
 10
-115.508644
 20
-4.758552
 30
0.0
 11
-127.508644
 21
-4.758552
 31
0.0
  0
LINE
  8
0
 10
-114.008644
 20
4.241448
 30
0.0
 11
-121.508644
 21
4.241448
 31
0.0
  0
LINE
  8
0
 10
-115.508644
 20
-4.758552
 30
0.0
 11
-115.508644
 21
4.241448
 31
0.0
  0
LINE
  8
0
 10
-129.008644
 20
4.241448
 30
0.0
 11
-129.008644
 21
5.241448
 31
0.0
  0
LINE
  8
0
 10
-114.008644
 20
4.241448
 30
0.0
 11
-114.008644
 21
5.241448
 31
0.0
  0
ARC
  8
0
 10
-131.008644
 20
5.241448
 30
0.0
 40
2.0
 50
0.0
 51
90.0
  0
LINE
  8
0
 10
-121.508644
 20
7.241448
 30
0.0
 11
-106.758644
 21
7.241448
 31
0.0
  0
ARC
  8
0
 10
-112.008644
 20
5.241448
 30
0.0
 40
2.0
 50
90.0
 51
180.0
  0
ARC
  8
0
 10
-113.186627
 20
26.51542
 30
0.0
 40
18.633763
 50
251.237868
 51
290.380723
  0
ARC
  8
0
 10
-73.682852
 20
-10.208504
 30
0.0
 40
3.0
 50
0.0
 51
180.0
  0
ARC
  8
0
 10
-91.208887
 20
-9.682468
 30
0.0
 40
14.535557
 50
272.073962
 51
357.926038
  0
ARC
  8
0
 10
-91.208887
 20
-44.73454
 30
0.0
 40
14.535557
 50
2.073962
 51
87.926038
  0
ARC
  8
0
 10
-90.682852
 20
-27.208504
 30
0.0
 40
3.0
 50
90.0
 51
270.0
  0
ARC
  8
0
 10
-56.156816
 20
-44.73454
 30
0.0
 40
14.535557
 50
92.073962
 51
177.926038
  0
ARC
  8
0
 10
-73.682852
 20
-44.208504
 30
0.0
 40
3.0
 50
180.0
 51
0.0
  0
ARC
  8
0
 10
-56.156816
 20
-9.682468
 30
0.0
 40
14.535557
 50
182.073962
 51
267.926038
  0
ARC
  8
0
 10
-56.682852
 20
-27.208504
 30
0.0
 40
3.0
 50
270.0
 51
90.0
  0
LINE
  8
0
 10
-18.141404
 20
1.210422
 30
0.0
 11
-18.141404
 21
11.210422
 31
0.0
  0
ARC
  8
0
 10
-42.641404
 20
23.335628
 30
0.0
 40
2.5
 50
105.455951
 51
180.0
  0
ARC
  8
0
 10
-7.641404
 20
23.335628
 30
0.0
 40
2.5
 50
0.0
 51
74.544049
  0
ARC
  8
0
 10
-25.141404
 20
-39.956244
 30
0.0
 40
68.166667
 50
74.544049
 51
105.455951
  0
LINE
  8
0
 10
-5.141404
 20
16.710422
 30
0.0
 11
-5.141404
 21
23.335628
 31
0.0
  0
LINE
  8
0
 10
-45.141404
 20
16.710422
 30
0.0
 11
-45.141404
 21
23.335628
 31
0.0
  0
LINE
  8
0
 10
-32.141404
 20
1.210422
 30
0.0
 11
-18.141404
 21
1.210422
 31
0.0
  0
LINE
  8
0
 10
-42.641404
 20
14.210422
 30
0.0
 11
-35.641404
 21
14.210422
 31
0.0
  0
ARC
  8
0
 10
-42.641404
 20
16.710422
 30
0.0
 40
2.5
 50
180.0
 51
270.0
  0
ARC
  8
0
 10
-7.641404
 20
16.710422
 30
0.0
 40
2.5
 50
270.0
 51
0.0
  0
LINE
  8
0
 10
-33.141404
 20
11.210422
 30
0.0
 11
-33.141404
 21
11.710422
 31
0.0
  0
LINE
  8
0
 10
-17.141404
 20
11.210422
 30
0.0
 11
-17.141404
 21
11.710422
 31
0.0
  0
LINE
  8
0
 10
-25.141404
 20
14.210422
 30
0.0
 11
-7.641404
 21
14.210422
 31
0.0
  0
ARC
  8
0
 10
-35.641404
 20
11.710422
 30
0.0
 40
2.5
 50
0.0
 51
90.0
  0
ARC
  8
0
 10
-14.641404
 20
11.710422
 30
0.0
 40
2.5
 50
90.0
 51
180.0
  0
LINE
  8
0
 10
-25.141404
 20
11.210422
 30
0.0
 11
-17.141404
 21
11.210422
 31
0.0
  0
ARC
  8
0
 10
-15.472445
 20
9.043383
 30
0.0
 40
17.481403
 50
67.111821
 51
111.978847
  0
LINE
  8
0
 10
-7.296803
 20
16.996041
 30
0.0
 11
-7.296803
 21
24.830775
 31
0.0
  0
LINE
  8
0
 10
-22.756319
 20
16.996041
 30
0.0
 11
-22.756319
 21
24.830775
 31
0.0
  0
ARC
  8
0
 10
-15.279254
 20
36.382367
 30
0.0
 40
21.191288
 50
251.768154
 51
289.980996
  0
ARC
  8
0
 10
97.995466
 20
17.488091
 30
0.0
 40
18.937944
 50
63.207526
 51
111.665329
  0
LINE
  8
0
 10
107.845258
 20
26.513645
 30
0.0
 11
107.845258
 21
33.157323
 31
0.0
  0
LINE
  8
0
 10
89.767806
 20
26.513645
 30
0.0
 11
89.767806
 21
34.238456
 31
0.0
  0
LINE
  8
0
 10
95.657285
 20
6.813873
 30
0.0
 11
95.657285
 21
18.813873
 31
0.0
  0
LINE
  8
0
  6
CENTER
 10
86.657285
 20
5.142548
 30
0.0
 11
86.657285
 21
39.606798
 31
0.0
  0
ARC
  8
0
 10
108.407285
 20
32.388561
 30
0.0
 40
2.75
 50
0.0
 51
70.817546
  0
ARC
  8
0
 10
64.907285
 20
32.388561
 30
0.0
 40
2.75
 50
109.182454
 51
180.0
  0
ARC
  8
0
 10
86.657285
 20
-30.130572
 30
0.0
 40
68.944444
 50
70.817546
 51
109.182454
  0
LINE
  8
0
 10
77.657285
 20
6.813873
 30
0.0
 11
95.657285
 21
6.813873
 31
0.0
  0
LINE
  8
0
 10
111.157285
 20
26.563873
 30
0.0
 11
111.157285
 21
32.388561
 31
0.0
  0
LINE
  8
0
 10
62.157285
 20
26.563873
 30
0.0
 11
62.157285
 21
32.388561
 31
0.0
  0
LINE
  8
0
 10
64.907285
 20
23.813873
 30
0.0
 11
73.407285
 21
23.813873
 31
0.0
  0
ARC
  8
0
 10
64.907285
 20
26.563873
 30
0.0
 40
2.75
 50
180.0
 51
270.0
  0
ARC
  8
0
 10
108.407285
 20
26.563873
 30
0.0
 40
2.75
 50
270.0
 51
0.0
  0
LINE
  8
0
 10
76.157285
 20
18.813873
 30
0.0
 11
76.157285
 21
21.063873
 31
0.0
  0
LINE
  8
0
 10
97.157285
 20
18.813873
 30
0.0
 11
97.157285
 21
21.063873
 31
0.0
  0
LINE
  8
0
 10
86.657285
 20
23.813873
 30
0.0
 11
108.407285
 21
23.813873
 31
0.0
  0
ARC
  8
0
 10
73.407285
 20
21.063873
 30
0.0
 40
2.75
 50
0.0
 51
90.0
  0
ARC
  8
0
 10
99.907285
 20
21.063873
 30
0.0
 40
2.75
 50
90.0
 51
180.0
  0
LINE
  8
0
 10
86.657285
 20
18.813873
 30
0.0
 11
97.157285
 21
18.813873
 31
0.0
  0
ARC
  8
0
 10
99.544963
 20
56.672838
 30
0.0
 40
31.788588
 50
254.336514
 51
283.759886
  0
LINE
  8
0
  6
CENTER
 10
-25.141404
 20
-1.009171
 30
0.0
 11
-25.141404
 21
30.675811
 31
0.0
  0
ARC
  8
0
 10
-54.172849
 20
-115.251978
 30
0.0
 40
32.100589
 50
68.979961
 51
109.086257
  0
LINE
  8
0
 10
-41.636943
 20
-94.481625
 30
0.0
 11
-41.636943
 21
-85.566131
 31
0.0
  0
LINE
  8
0
 10
-65.505317
 20
-94.481625
 30
0.0
 11
-65.505317
 21
-85.566131
 31
0.0
  0
ARC
  8
0
 10
-42.183985
 20
-88.793284
 30
0.0
 40
5.0
 50
0.0
 51
77.35253
  0
ARC
  8
0
 10
-95.183985
 20
-88.793284
 30
0.0
 40
5.0
 50
102.64747
 51
180.0
  0
ARC
  8
0
 10
-68.683985
 20
-206.887795
 30
0.0
 40
126.03125
 50
77.35253
 51
102.64747
  0
LINE
  8
0
  6
CENTER
 10
-68.683985
 20
-122.18342
 30
0.0
 11
-68.683985
 21
-78.736621
 31
0.0
  0
LINE
  8
0
 10
-37.183985
 20
-94.856545
 30
0.0
 11
-37.183985
 21
-88.793284
 31
0.0
  0
LINE
  8
0
 10
-100.183985
 20
-94.856545
 30
0.0
 11
-100.183985
 21
-88.793284
 31
0.0
  0
LINE
  8
0
 10
-78.683985
 20
-120.856545
 30
0.0
 11
-58.683985
 21
-120.856545
 31
0.0
  0
LINE
  8
0
 10
-97.183985
 20
-97.856545
 30
0.0
 11
-84.683985
 21
-97.856545
 31
0.0
  0
ARC
  8
0
 10
-97.183985
 20
-94.856545
 30
0.0
 40
3.0
 50
180.0
 51
270.0
  0
ARC
  8
0
 10
-40.183985
 20
-94.856545
 30
0.0
 40
3.0
 50
270.0
 51
0.0
  0
LINE
  8
0
 10
-78.683985
 20
-120.856545
 30
0.0
 11
-78.683985
 21
-106.856545
 31
0.0
  0
LINE
  8
0
 10
-58.683985
 20
-120.856545
 30
0.0
 11
-58.683985
 21
-106.856545
 31
0.0
  0
LINE
  8
0
 10
-80.683985
 20
-106.856545
 30
0.0
 11
-80.683985
 21
-101.856545
 31
0.0
  0
LINE
  8
0
 10
-56.683985
 20
-106.856545
 30
0.0
 11
-56.683985
 21
-101.856545
 31
0.0
  0
LINE
  8
0
 10
-68.683985
 20
-97.856545
 30
0.0
 11
-40.183985
 21
-97.856545
 31
0.0
  0
ARC
  8
0
 10
-84.683985
 20
-101.856545
 30
0.0
 40
4.0
 50
0.0
 51
90.0
  0
ARC
  8
0
 10
-52.683985
 20
-101.856545
 30
0.0
 40
4.0
 50
90.0
 51
180.0
  0
LINE
  8
0
 10
-68.683985
 20
-106.856545
 30
0.0
 11
-56.683985
 21
-106.856545
 31
0.0
  0
ARC
  8
0
 10
-51.94546
 20
-46.619474
 30
0.0
 40
49.917378
 50
255.679724
 51
281.382437
  0
ARC
  8
0
 10
23.942222
 20
-129.500246
 30
0.0
 40
6.0
 50
0.0
 51
180.0
  0
ARC
  8
0
 10
-9.858492
 20
-129.699531
 30
0.0
 40
27.801429
 50
269.58929
 51
0.41071
  0
ARC
  8
0
 10
-9.858492
 20
-197.30096
 30
0.0
 40
27.801429
 50
359.58929
 51
90.41071
  0
ARC
  8
0
 10
-10.057778
 20
-163.500246
 30
0.0
 40
6.0
 50
90.0
 51
270.0
  0
ARC
  8
0
 10
57.742937
 20
-197.30096
 30
0.0
 40
27.801429
 50
89.58929
 51
180.41071
  0
ARC
  8
0
 10
23.942222
 20
-197.500246
 30
0.0
 40
6.0
 50
180.0
 51
0.0
  0
ARC
  8
0
 10
57.742937
 20
-129.699531
 30
0.0
 40
27.801429
 50
179.58929
 51
270.41071
  0
ARC
  8
0
 10
57.942222
 20
-163.500246
 30
0.0
 40
6.0
 50
270.0
 51
90.0
  0
ARC
  8
0
 10
129.775696
 20
-108.868266
 30
0.0
 40
39.923755
 50
67.388149
 51
111.397083
  0
LINE
  8
0
 10
145.865791
 20
-83.364691
 30
0.0
 11
145.865791
 21
-72.541991
 31
0.0
  0
LINE
  8
0
 10
114.787504
 20
-83.364691
 30
0.0
 11
114.787504
 21
-72.541991
 31
0.0
  0
ARC
  8
0
 10
144.765332
 20
-74.201564
 30
0.0
 40
5.0
 50
0.0
 51
77.160412
  0
ARC
  8
0
 10
74.765332
 20
-74.201564
 30
0.0
 40
5.0
 50
102.839588
 51
180.0
  0
ARC
  8
0
 10
109.765332
 20
-227.763441
 30
0.0
 40
162.5
 50
77.160412
 51
102.839588
  0
LINE
  8
0
  6
CENTER
 10
109.765332
 20
-119.796965
 30
0.0
 11
109.765332
 21
-63.109375
 31
0.0
  0
LINE
  8
0
 10
97.265332
 20
-117.263441
 30
0.0
 11
122.265332
 21
-117.263441
 31
0.0
  0
LINE
  8
0
 10
149.765332
 20
-85.263441
 30
0.0
 11
149.765332
 21
-74.201564
 31
0.0
  0
LINE
  8
0
 10
69.765332
 20
-85.263441
 30
0.0
 11
69.765332
 21
-74.201564
 31
0.0
  0
ARC
  8
0
 10
130.293998
 20
-30.489611
 30
0.0
 40
55.664376
 50
254.352771
 51
285.647229
  0
LINE
  8
0
 10
73.765332
 20
-89.263441
 30
0.0
 11
89.265332
 21
-89.263441
 31
0.0
  0
ARC
  8
0
 10
73.765332
 20
-85.263441
 30
0.0
 40
4.0
 50
180.0
 51
270.0
  0
ARC
  8
0
 10
145.765332
 20
-85.263441
 30
0.0
 40
4.0
 50
270.0
 51
0.0
  0
LINE
  8
0
 10
97.265332
 20
-117.263441
 30
0.0
 11
97.265332
 21
-100.263441
 31
0.0
  0
LINE
  8
0
 10
122.265332
 20
-117.263441
 30
0.0
 11
122.265332
 21
-100.263441
 31
0.0
  0
LINE
  8
0
 10
94.265332
 20
-100.263441
 30
0.0
 11
94.265332
 21
-94.263441
 31
0.0
  0
LINE
  8
0
 10
125.265332
 20
-100.263441
 30
0.0
 11
125.265332
 21
-94.263441
 31
0.0
  0
LINE
  8
0
 10
109.765332
 20
-89.263441
 30
0.0
 11
145.765332
 21
-89.263441
 31
0.0
  0
ARC
  8
0
 10
89.265332
 20
-94.263441
 30
0.0
 40
5.0
 50
0.0
 51
90.0
  0
ARC
  8
0
 10
130.265332
 20
-94.263441
 30
0.0
 40
5.0
 50
90.0
 51
180.0
  0
LINE
  8
0
 10
109.765332
 20
-100.263441
 30
0.0
 11
125.265332
 21
-100.263441
 31
0.0
  0
LINE
  8
0
 10
-164.694674
 20
4.241448
 30
0.0
 11
-167.694674
 21
4.241448
 31
0.0
  0
ARC
  8
0
 10
-151.872657
 20
26.51542
 30
0.0
 40
18.633763
 50
251.237868
 51
290.380723
  0
ARC
  8
0
 10
-150.694674
 20
5.241448
 30
0.0
 40
2.0
 50
90.0
 51
180.0
  0
LINE
  8
0
 10
-160.194674
 20
7.241448
 30
0.0
 11
-145.444674
 21
7.241448
 31
0.0
  0
ARC
  8
0
 10
-169.694674
 20
5.241448
 30
0.0
 40
2.0
 50
0.0
 51
90.0
  0
LINE
  8
0
 10
-152.694674
 20
4.241448
 30
0.0
 11
-152.694674
 21
5.241448
 31
0.0
  0
LINE
  8
0
 10
-167.694674
 20
4.241448
 30
0.0
 11
-167.694674
 21
5.241448
 31
0.0
  0
LINE
  8
0
 10
-154.194674
 20
-4.758552
 30
0.0
 11
-154.194674
 21
4.241448
 31
0.0
  0
LINE
  8
0
 10
-166.194674
 20
-4.758552
 30
0.0
 11
-166.194674
 21
4.241448
 31
0.0
  0
LINE
  8
0
 10
-152.694674
 20
4.241448
 30
0.0
 11
-160.194674
 21
4.241448
 31
0.0
  0
LINE
  8
0
 10
-154.194674
 20
-4.758552
 30
0.0
 11
-166.194674
 21
-4.758552
 31
0.0
  0
ARC
  8
0
 10
-145.444674
 20
9.241448
 30
0.0
 40
2.0
 50
270.0
 51
0.0
  0
ARC
  8
0
 10
-174.944674
 20
9.241448
 30
0.0
 40
2.0
 50
180.0
 51
270.0
  0
LINE
  8
0
 10
-174.944674
 20
7.241448
 30
0.0
 11
-169.694674
 21
7.241448
 31
0.0
  0
LINE
  8
0
 10
-176.944674
 20
9.241448
 30
0.0
 11
-176.944674
 21
14.240394
 31
0.0
  0
LINE
  8
0
 10
-143.444674
 20
9.241448
 30
0.0
 11
-143.444674
 21
14.240394
 31
0.0
  0
LINE
  8
0
  6
CENTER
 10
-160.194674
 20
-6.122809
 30
0.0
 11
-160.194674
 21
20.534929
 31
0.0
  0
ARC
  8
0
 10
-160.194674
 20
-39.121052
 30
0.0
 40
57.3625
 50
74.548307
 51
105.451693
  0
ARC
  8
0
 10
-174.944674
 20
14.240394
 30
0.0
 40
2.0
 50
105.451693
 51
180.0
  0
ARC
  8
0
 10
-145.444674
 20
14.240394
 30
0.0
 40
2.0
 50
0.0
 51
74.548307
  0
ARC
  8
0
 10
-152.039637
 20
0.69029
 30
0.0
 40
15.81103
 50
66.755066
 51
111.069621
  0
LINE
  8
0
 10
-158.669624
 20
14.727377
 30
0.0
 11
-158.669624
 21
10.020788
 31
0.0
  0
LINE
  8
0
 10
-144.990484
 20
14.233743
 30
0.0
 11
-144.990484
 21
9.86664
 31
0.0
  0
LINE
  8
0
  6
CENTER
 10
-73.682852
 20
-1.009171
 30
0.0
 11
-73.682852
 21
30.675811
 31
0.0
  0
ARC
  8
0
 10
-63.820703
 20
36.382367
 30
0.0
 40
21.191288
 50
251.768154
 51
289.980996
  0
LINE
  8
0
 10
-71.297767
 20
16.996041
 30
0.0
 11
-71.297767
 21
24.830775
 31
0.0
  0
LINE
  8
0
 10
-55.838251
 20
16.996041
 30
0.0
 11
-55.838251
 21
24.830775
 31
0.0
  0
ARC
  8
0
 10
-64.013893
 20
9.043383
 30
0.0
 40
17.481403
 50
67.111821
 51
111.978847
  0
LINE
  8
0
 10
-73.682852
 20
11.210422
 30
0.0
 11
-65.682852
 21
11.210422
 31
0.0
  0
ARC
  8
0
 10
-63.182852
 20
11.710422
 30
0.0
 40
2.5
 50
90.0
 51
180.0
  0
ARC
  8
0
 10
-84.182852
 20
11.710422
 30
0.0
 40
2.5
 50
0.0
 51
90.0
  0
LINE
  8
0
 10
-73.682852
 20
14.210422
 30
0.0
 11
-56.182852
 21
14.210422
 31
0.0
  0
LINE
  8
0
 10
-65.682852
 20
11.210422
 30
0.0
 11
-65.682852
 21
11.710422
 31
0.0
  0
LINE
  8
0
 10
-81.682852
 20
11.210422
 30
0.0
 11
-81.682852
 21
11.710422
 31
0.0
  0
LINE
  8
0
 10
-81.682852
 20
11.210422
 30
0.0
 11
-79.182852
 21
11.210422
 31
0.0
  0
ARC
  8
0
 10
-56.182852
 20
16.710422
 30
0.0
 40
2.5
 50
270.0
 51
0.0
  0
ARC
  8
0
 10
-91.182852
 20
16.710422
 30
0.0
 40
2.5
 50
180.0
 51
270.0
  0
LINE
  8
0
 10
-91.182852
 20
14.210422
 30
0.0
 11
-84.182852
 21
14.210422
 31
0.0
  0
LINE
  8
0
 10
-80.682852
 20
1.210422
 30
0.0
 11
-66.682852
 21
1.210422
 31
0.0
  0
LINE
  8
0
 10
-93.682852
 20
16.710422
 30
0.0
 11
-93.682852
 21
23.335628
 31
0.0
  0
LINE
  8
0
 10
-53.682852
 20
16.710422
 30
0.0
 11
-53.682852
 21
23.335628
 31
0.0
  0
ARC
  8
0
 10
-73.682852
 20
-39.956244
 30
0.0
 40
68.166667
 50
74.544049
 51
105.455951
  0
ARC
  8
0
 10
-56.182852
 20
23.335628
 30
0.0
 40
2.5
 50
0.0
 51
74.544049
  0
ARC
  8
0
 10
-91.182852
 20
23.335628
 30
0.0
 40
2.5
 50
105.455951
 51
180.0
  0
LINE
  8
0
 10
-80.682852
 20
1.210422
 30
0.0
 11
-80.682852
 21
11.210422
 31
0.0
  0
LINE
  8
0
 10
-66.682852
 20
1.210422
 30
0.0
 11
-66.682852
 21
11.210422
 31
0.0
  0
ARC
  8
0
 10
42.463883
 20
56.672838
 30
0.0
 40
31.788588
 50
254.336514
 51
283.759886
  0
LINE
  8
0
 10
29.576205
 20
18.813873
 30
0.0
 11
40.076205
 21
18.813873
 31
0.0
  0
ARC
  8
0
 10
42.826205
 20
21.063873
 30
0.0
 40
2.75
 50
90.0
 51
180.0
  0
ARC
  8
0
 10
16.326205
 20
21.063873
 30
0.0
 40
2.75
 50
0.0
 51
90.0
  0
LINE
  8
0
 10
29.576205
 20
23.813873
 30
0.0
 11
51.326205
 21
23.813873
 31
0.0
  0
LINE
  8
0
 10
40.076205
 20
18.813873
 30
0.0
 11
40.076205
 21
21.063873
 31
0.0
  0
LINE
  8
0
 10
19.076205
 20
18.813873
 30
0.0
 11
19.076205
 21
21.063873
 31
0.0
  0
ARC
  8
0
 10
51.326205
 20
26.563873
 30
0.0
 40
2.75
 50
270.0
 51
0.0
  0
ARC
  8
0
 10
7.826205
 20
26.563873
 30
0.0
 40
2.75
 50
180.0
 51
270.0
  0
LINE
  8
0
 10
7.826205
 20
23.813873
 30
0.0
 11
16.326205
 21
23.813873
 31
0.0
  0
LINE
  8
0
 10
19.076205
 20
18.813873
 30
0.0
 11
22.576205
 21
18.813873
 31
0.0
  0
LINE
  8
0
 10
5.076205
 20
26.563873
 30
0.0
 11
5.076205
 21
32.388561
 31
0.0
  0
LINE
  8
0
 10
54.076205
 20
26.563873
 30
0.0
 11
54.076205
 21
32.388561
 31
0.0
  0
LINE
  8
0
 10
20.576205
 20
6.813873
 30
0.0
 11
38.576205
 21
6.813873
 31
0.0
  0
ARC
  8
0
 10
29.576205
 20
-30.130572
 30
0.0
 40
68.944444
 50
70.817546
 51
109.182454
  0
ARC
  8
0
 10
7.826205
 20
32.388561
 30
0.0
 40
2.75
 50
109.182454
 51
180.0
  0
ARC
  8
0
 10
51.326205
 20
32.388561
 30
0.0
 40
2.75
 50
0.0
 51
70.817546
  0
LINE
  8
0
  6
CENTER
 10
29.576205
 20
5.142548
 30
0.0
 11
29.576205
 21
39.606798
 31
0.0
  0
LINE
  8
0
 10
20.576205
 20
6.813873
 30
0.0
 11
20.576205
 21
18.813873
 31
0.0
  0
LINE
  8
0
 10
38.576205
 20
6.813873
 30
0.0
 11
38.576205
 21
18.813873
 31
0.0
  0
LINE
  8
0
 10
32.686726
 20
26.513645
 30
0.0
 11
32.686726
 21
34.238456
 31
0.0
  0
LINE
  8
0
 10
50.764177
 20
26.513645
 30
0.0
 11
50.764177
 21
33.157323
 31
0.0
  0
ARC
  8
0
 10
40.914385
 20
17.488091
 30
0.0
 40
18.937944
 50
63.207526
 51
111.665329
  0
ARC
  8
0
 10
-127.634475
 20
-46.619474
 30
0.0
 40
49.917378
 50
255.679724
 51
281.382437
  0
LINE
  8
0
 10
-144.373
 20
-106.856545
 30
0.0
 11
-132.373
 21
-106.856545
 31
0.0
  0
ARC
  8
0
 10
-128.373
 20
-101.856545
 30
0.0
 40
4.0
 50
90.0
 51
180.0
  0
ARC
  8
0
 10
-160.373
 20
-101.856545
 30
0.0
 40
4.0
 50
0.0
 51
90.0
  0
LINE
  8
0
 10
-144.373
 20
-97.856545
 30
0.0
 11
-115.873
 21
-97.856545
 31
0.0
  0
LINE
  8
0
 10
-132.373
 20
-106.856545
 30
0.0
 11
-132.373
 21
-101.856545
 31
0.0
  0
LINE
  8
0
 10
-156.373
 20
-106.856545
 30
0.0
 11
-156.373
 21
-101.856545
 31
0.0
  0
LINE
  8
0
 10
-156.373
 20
-106.856545
 30
0.0
 11
-152.373
 21
-106.856545
 31
0.0
  0
LINE
  8
0
 10
-134.373
 20
-120.856545
 30
0.0
 11
-134.373
 21
-106.856545
 31
0.0
  0
LINE
  8
0
 10
-154.373
 20
-120.856545
 30
0.0
 11
-154.373
 21
-106.856545
 31
0.0
  0
ARC
  8
0
 10
-115.873
 20
-94.856545
 30
0.0
 40
3.0
 50
270.0
 51
0.0
  0
ARC
  8
0
 10
-172.873
 20
-94.856545
 30
0.0
 40
3.0
 50
180.0
 51
270.0
  0
LINE
  8
0
 10
-172.873
 20
-97.856545
 30
0.0
 11
-160.373
 21
-97.856545
 31
0.0
  0
LINE
  8
0
 10
-154.373
 20
-120.856545
 30
0.0
 11
-134.373
 21
-120.856545
 31
0.0
  0
LINE
  8
0
 10
-175.873
 20
-94.856545
 30
0.0
 11
-175.873
 21
-88.793284
 31
0.0
  0
LINE
  8
0
 10
-112.873
 20
-94.856545
 30
0.0
 11
-112.873
 21
-88.793284
 31
0.0
  0
LINE
  8
0
  6
CENTER
 10
-144.373
 20
-122.18342
 30
0.0
 11
-144.373
 21
-78.736621
 31
0.0
  0
ARC
  8
0
 10
-144.373
 20
-206.887795
 30
0.0
 40
126.03125
 50
77.35253
 51
102.64747
  0
ARC
  8
0
 10
-170.873
 20
-88.793284
 30
0.0
 40
5.0
 50
102.64747
 51
180.0
  0
ARC
  8
0
 10
-117.873
 20
-88.793284
 30
0.0
 40
5.0
 50
0.0
 51
77.35253
  0
LINE
  8
0
 10
-141.194333
 20
-94.481625
 30
0.0
 11
-141.194333
 21
-85.566131
 31
0.0
  0
LINE
  8
0
 10
-117.325958
 20
-94.481625
 30
0.0
 11
-117.325958
 21
-85.566131
 31
0.0
  0
ARC
  8
0
 10
-129.861864
 20
-115.251978
 30
0.0
 40
32.100589
 50
68.979961
 51
109.086257
  0
LINE
  8
0
 10
23.942222
 20
-100.263441
 30
0.0
 11
39.442222
 21
-100.263441
 31
0.0
  0
ARC
  8
0
 10
44.442222
 20
-94.263441
 30
0.0
 40
5.0
 50
90.0
 51
180.0
  0
ARC
  8
0
 10
3.442222
 20
-94.263441
 30
0.0
 40
5.0
 50
0.0
 51
90.0
  0
LINE
  8
0
 10
23.942222
 20
-89.263441
 30
0.0
 11
59.942222
 21
-89.263441
 31
0.0
  0
LINE
  8
0
 10
39.442222
 20
-100.263441
 30
0.0
 11
39.442222
 21
-94.263441
 31
0.0
  0
LINE
  8
0
 10
8.442222
 20
-100.263441
 30
0.0
 11
8.442222
 21
-94.263441
 31
0.0
  0
LINE
  8
0
 10
8.442222
 20
-100.263441
 30
0.0
 11
13.942222
 21
-100.263441
 31
0.0
  0
LINE
  8
0
 10
36.442222
 20
-117.263441
 30
0.0
 11
36.442222
 21
-100.263441
 31
0.0
  0
LINE
  8
0
 10
11.442222
 20
-117.263441
 30
0.0
 11
11.442222
 21
-100.263441
 31
0.0
  0
ARC
  8
0
 10
59.942222
 20
-85.263441
 30
0.0
 40
4.0
 50
270.0
 51
0.0
  0
ARC
  8
0
 10
-12.057778
 20
-85.263441
 30
0.0
 40
4.0
 50
180.0
 51
270.0
  0
LINE
  8
0
 10
-12.057778
 20
-89.263441
 30
0.0
 11
3.442222
 21
-89.263441
 31
0.0
  0
ARC
  8
0
 10
44.470888
 20
-30.489611
 30
0.0
 40
55.664376
 50
254.352771
 51
285.647229
  0
LINE
  8
0
 10
-16.057778
 20
-85.263441
 30
0.0
 11
-16.057778
 21
-74.201564
 31
0.0
  0
LINE
  8
0
 10
63.942222
 20
-85.263441
 30
0.0
 11
63.942222
 21
-74.201564
 31
0.0
  0
LINE
  8
0
 10
11.442222
 20
-117.263441
 30
0.0
 11
15.942222
 21
-117.263441
 31
0.0
  0
LINE
  8
0
  6
CENTER
 10
23.942222
 20
-119.796965
 30
0.0
 11
23.942222
 21
-63.109375
 31
0.0
  0
ARC
  8
0
 10
23.942222
 20
-227.763441
 30
0.0
 40
162.5
 50
77.160412
 51
102.839588
  0
ARC
  8
0
 10
-11.057778
 20
-74.201564
 30
0.0
 40
5.0
 50
102.839588
 51
180.0
  0
ARC
  8
0
 10
58.942222
 20
-74.201564
 30
0.0
 40
5.0
 50
0.0
 51
77.160412
  0
LINE
  8
0
 10
28.964394
 20
-83.364691
 30
0.0
 11
28.964394
 21
-72.541991
 31
0.0
  0
LINE
  8
0
 10
60.042681
 20
-83.364691
 30
0.0
 11
60.042681
 21
-72.541991
 31
0.0
  0
ARC
  8
0
 10
43.952586
 20
-108.868266
 30
0.0
 40
39.923755
 50
67.388149
 51
111.397083
  0
LINE
  8
0
 10
-121.508644
 20
7.741448
 30
0.0
 11
-124.508644
 21
7.741448
 31
0.0
  0
LINE
  8
0
 10
-163.194674
 20
7.741448
 30
0.0
 11
-163.194674
 21
-4.758552
 31
0.0
  0
LINE
  8
0
 10
-163.194674
 20
7.741448
 30
0.0
 11
-160.194674
 21
9.473499
 31
0.0
  0
LINE
  8
0
 10
-124.508644
 20
-4.758552
 30
0.0
 11
-124.508644
 21
7.741448
 31
0.0
  0
LINE
  8
0
 10
-124.008644
 20
10.428682
 30
0.0
 11
-121.508644
 21
11.872058
 31
0.0
  0
LINE
  8
0
 10
-124.008644
 20
-4.258552
 30
0.0
 11
-124.008644
 21
10.428682
 31
0.0
  0
LINE
  8
0
 10
-160.194674
 20
15.241448
 30
0.0
 11
-164.694674
 21
15.241448
 31
0.0
  0
LINE
  8
0
 10
-164.694674
 20
4.241448
 30
0.0
 11
-164.694674
 21
9.241448
 31
0.0
  0
LINE
  8
0
 10
-164.694674
 20
9.241448
 30
0.0
 11
-166.194674
 21
9.241448
 31
0.0
  0
LINE
  8
0
 10
-166.194674
 20
9.241448
 30
0.0
 11
-166.194674
 21
13.741448
 31
0.0
  0
LINE
  8
0
 10
-166.194674
 20
13.741448
 30
0.0
 11
-164.694674
 21
15.241448
 31
0.0
  0
LINE
  8
0
 10
-121.508644
 20
15.241448
 30
0.0
 11
-126.008644
 21
15.241448
 31
0.0
  0
LINE
  8
0
 10
-127.508644
 20
13.741448
 30
0.0
 11
-126.008644
 21
15.241448
 31
0.0
  0
LINE
  8
0
 10
-127.508644
 20
9.241448
 30
0.0
 11
-127.508644
 21
13.741448
 31
0.0
  0
LINE
  8
0
 10
-126.008644
 20
9.241448
 30
0.0
 11
-127.508644
 21
9.241448
 31
0.0
  0
LINE
  8
0
 10
-126.008644
 20
4.241448
 30
0.0
 11
-126.008644
 21
9.241448
 31
0.0
  0
LINE
  8
0
 10
-127.508644
 20
-4.758552
 30
0.0
 11
-127.508644
 21
4.241448
 31
0.0
  0
LINE
  8
0
 10
-126.008644
 20
4.241448
 30
0.0
 11
-129.008644
 21
4.241448
 31
0.0
  0
LINE
  8
0
 10
-79.182852
 20
25.210422
 30
0.0
 11
-73.682852
 21
25.210422
 31
0.0
  0
LINE
  8
0
 10
-30.641404
 20
25.210422
 30
0.0
 11
-25.141404
 21
25.210422
 31
0.0
  0
LINE
  8
0
 10
-80.682852
 20
23.710422
 30
0.0
 11
-79.182852
 21
25.210422
 31
0.0
  0
LINE
  8
0
 10
-32.141404
 20
23.710422
 30
0.0
 11
-30.641404
 21
25.210422
 31
0.0
  0
LINE
  8
0
 10
-79.182852
 20
11.210422
 30
0.0
 11
-79.182852
 21
17.210422
 31
0.0
  0
LINE
  8
0
 10
-29.141404
 20
15.210422
 30
0.0
 11
-25.141404
 21
15.210422
 31
0.0
  0
LINE
  8
0
 10
-80.682852
 20
17.210422
 30
0.0
 11
-79.182852
 21
17.210422
 31
0.0
  0
LINE
  8
0
 10
-80.682852
 20
17.210422
 30
0.0
 11
-80.682852
 21
23.710422
 31
0.0
  0
LINE
  8
0
 10
-77.682852
 20
1.210422
 30
0.0
 11
-77.682852
 21
15.210422
 31
0.0
  0
LINE
  8
0
 10
-77.682852
 20
15.210422
 30
0.0
 11
-73.682852
 21
17.519823
 31
0.0
  0
LINE
  8
0
 10
-29.141404
 20
1.210422
 30
0.0
 11
-29.141404
 21
15.210422
 31
0.0
  0
LINE
  8
0
 10
-28.541404
 20
18.886444
 30
0.0
 11
-25.141404
 21
20.849435
 31
0.0
  0
LINE
  8
0
 10
-28.541404
 20
18.886444
 30
0.0
 11
-28.541404
 21
1.810422
 31
0.0
  0
LINE
  8
0
 10
-32.141404
 20
17.210422
 30
0.0
 11
-32.141404
 21
23.710422
 31
0.0
  0
LINE
  8
0
 10
-32.141404
 20
17.210422
 30
0.0
 11
-30.641404
 21
17.210422
 31
0.0
  0
LINE
  8
0
 10
-30.641404
 20
11.210422
 30
0.0
 11
-30.641404
 21
17.210422
 31
0.0
  0
LINE
  8
0
 10
-33.141404
 20
11.210422
 30
0.0
 11
-30.641404
 21
11.210422
 31
0.0
  0
LINE
  8
0
 10
-32.141404
 20
1.210422
 30
0.0
 11
-32.141404
 21
11.210422
 31
0.0
  0
INSERT
  8
0
  2
*X0
 10
-2.801728
 20
-30.543927
 30
0.0
  0
INSERT
  8
0
  2
*X1
 10
-2.801728
 20
-30.543927
 30
0.0
  0
INSERT
  8
0
  2
*X2
 10
0.0
 20
-18.017461
 30
0.0
  0
INSERT
  8
0
  2
*X3
 10
0.0
 20
-18.017461
 30
0.0
  0
LINE
  8
0
 10
81.657285
 20
24.813873
 30
0.0
 11
86.657285
 21
24.813873
 31
0.0
  0
LINE
  8
0
 10
22.076205
 20
32.813873
 30
0.0
 11
29.576205
 21
32.813873
 31
0.0
  0
LINE
  8
0
 10
20.576205
 20
31.313873
 30
0.0
 11
22.076205
 21
32.813873
 31
0.0
  0
LINE
  8
0
 10
22.576205
 20
18.813873
 30
0.0
 11
22.576205
 21
25.813873
 31
0.0
  0
LINE
  8
0
 10
24.576205
 20
24.813873
 30
0.0
 11
29.576205
 21
27.700624
 31
0.0
  0
LINE
  8
0
 10
24.576205
 20
24.813873
 30
0.0
 11
24.576205
 21
6.813873
 31
0.0
  0
LINE
  8
0
 10
20.576205
 20
25.813873
 30
0.0
 11
22.576205
 21
25.813873
 31
0.0
  0
LINE
  8
0
 10
20.576205
 20
25.813873
 30
0.0
 11
20.576205
 21
31.313873
 31
0.0
  0
LINE
  8
0
 10
79.157285
 20
32.813873
 30
0.0
 11
86.657285
 21
32.813873
 31
0.0
  0
LINE
  8
0
 10
77.657285
 20
31.313873
 30
0.0
 11
79.157285
 21
32.813873
 31
0.0
  0
LINE
  8
0
 10
77.657285
 20
25.813873
 30
0.0
 11
77.657285
 21
31.313873
 31
0.0
  0
LINE
  8
0
 10
77.657285
 20
25.813873
 30
0.0
 11
79.657285
 21
25.813873
 31
0.0
  0
LINE
  8
0
 10
79.657285
 20
18.813873
 30
0.0
 11
79.657285
 21
25.813873
 31
0.0
  0
LINE
  8
0
 10
76.157285
 20
18.813873
 30
0.0
 11
79.657285
 21
18.813873
 31
0.0
  0
LINE
  8
0
 10
77.657285
 20
6.813873
 30
0.0
 11
77.657285
 21
18.813873
 31
0.0
  0
LINE
  8
0
 10
82.407285
 20
7.563873
 30
0.0
 11
82.407285
 21
27.980497
 31
0.0
  0
LINE
  8
0
 10
82.407285
 20
27.980497
 30
0.0
 11
86.657285
 21
30.434236
 31
0.0
  0
LINE
  8
0
 10
81.657285
 20
6.813873
 30
0.0
 11
81.657285
 21
24.813873
 31
0.0
  0
INSERT
  8
0
  2
*X4
 10
-4.204404
 20
-25.849925
 30
0.0
  0
INSERT
  8
0
  2
*X5
 10
-4.204404
 20
-25.849925
 30
0.0
  0
LINE
  8
0
 10
-74.683985
 20
-98.856545
 30
0.0
 11
-68.683985
 21
-98.856545
 31
0.0
  0
LINE
  8
0
 10
-152.873
 20
-90.856545
 30
0.0
 11
-144.373
 21
-90.856545
 31
0.0
  0
LINE
  8
0
 10
-152.873
 20
-90.856545
 30
0.0
 11
-154.373
 21
-92.356545
 31
0.0
  0
LINE
  8
0
 10
-152.373
 20
-106.856545
 30
0.0
 11
-152.373
 21
-98.856545
 31
0.0
  0
LINE
  8
0
 10
-154.373
 20
-98.856545
 30
0.0
 11
-152.373
 21
-98.856545
 31
0.0
  0
LINE
  8
0
 10
-154.373
 20
-98.856545
 30
0.0
 11
-154.373
 21
-92.356545
 31
0.0
  0
LINE
  8
0
 10
-150.373
 20
-98.856545
 30
0.0
 11
-144.373
 21
-95.392443
 31
0.0
  0
LINE
  8
0
 10
-150.373
 20
-98.856545
 30
0.0
 11
-150.373
 21
-120.856545
 31
0.0
  0
LINE
  8
0
 10
-77.183985
 20
-90.856545
 30
0.0
 11
-68.683985
 21
-90.856545
 31
0.0
  0
LINE
  8
0
 10
-77.183985
 20
-90.856545
 30
0.0
 11
-78.683985
 21
-92.356545
 31
0.0
  0
LINE
  8
0
 10
-78.683985
 20
-98.856545
 30
0.0
 11
-78.683985
 21
-92.356545
 31
0.0
  0
LINE
  8
0
 10
-78.683985
 20
-98.856545
 30
0.0
 11
-76.683985
 21
-98.856545
 31
0.0
  0
LINE
  8
0
 10
-76.683985
 20
-106.856545
 30
0.0
 11
-76.683985
 21
-98.856545
 31
0.0
  0
LINE
  8
0
 10
-80.683985
 20
-106.856545
 30
0.0
 11
-76.683985
 21
-106.856545
 31
0.0
  0
LINE
  8
0
 10
-73.783985
 20
-119.956545
 30
0.0
 11
-73.783985
 21
-96.086361
 31
0.0
  0
LINE
  8
0
 10
-73.783985
 20
-96.086361
 30
0.0
 11
-68.683985
 21
-93.141875
 31
0.0
  0
LINE
  8
0
 10
-74.683985
 20
-98.856545
 30
0.0
 11
-74.683985
 21
-120.856545
 31
0.0
  0
INSERT
  8
0
  2
*X6
 10
5.514531
 20
-2.44161
 30
0.0
  0
INSERT
  8
0
  2
*X7
 10
5.514531
 20
-2.44161
 30
0.0
  0
LINE
  8
0
 10
12.942222
 20
-77.263441
 30
0.0
 11
23.942222
 21
-77.263441
 31
0.0
  0
LINE
  8
0
 10
11.442222
 20
-78.763441
 30
0.0
 11
12.942222
 21
-77.263441
 31
0.0
  0
LINE
  8
0
 10
13.942222
 20
-100.263441
 30
0.0
 11
13.942222
 21
-90.263441
 31
0.0
  0
LINE
  8
0
 10
11.442222
 20
-90.263441
 30
0.0
 11
13.942222
 21
-90.263441
 31
0.0
  0
LINE
  8
0
 10
11.442222
 20
-90.263441
 30
0.0
 11
11.442222
 21
-78.763441
 31
0.0
  0
LINE
  8
0
 10
15.942222
 20
-87.263441
 30
0.0
 11
23.942222
 21
-82.644639
 31
0.0
  0
LINE
  8
0
 10
15.942222
 20
-87.263441
 30
0.0
 11
15.942222
 21
-117.263441
 31
0.0
  0
LINE
  8
0
 10
97.265332
 20
-90.263441
 30
0.0
 11
97.265332
 21
-78.763441
 31
0.0
  0
LINE
  8
0
 10
97.265332
 20
-90.263441
 30
0.0
 11
99.765332
 21
-90.263441
 31
0.0
  0
LINE
  8
0
 10
97.265332
 20
-78.763441
 30
0.0
 11
98.765332
 21
-77.263441
 31
0.0
  0
LINE
  8
0
 10
99.765332
 20
-100.263441
 30
0.0
 11
99.765332
 21
-90.263441
 31
0.0
  0
LINE
  8
0
 10
94.265332
 20
-100.263441
 30
0.0
 11
99.765332
 21
-100.263441
 31
0.0
  0
LINE
  8
0
 10
98.765332
 20
-77.263441
 30
0.0
 11
109.765332
 21
-77.263441
 31
0.0
  0
LINE
  8
0
 10
101.765332
 20
-117.263441
 30
0.0
 11
101.765332
 21
-87.263441
 31
0.0
  0
LINE
  8
0
 10
101.765332
 20
-87.263441
 30
0.0
 11
109.765332
 21
-87.263441
 31
0.0
  0
LINE
  8
0
 10
102.765332
 20
-116.263441
 30
0.0
 11
102.765332
 21
-84.393062
 31
0.0
  0
LINE
  8
0
 10
102.765332
 20
-84.393062
 30
0.0
 11
109.765332
 21
-80.35161
 31
0.0
  0
INSERT
  8
0
  2
*X8
 10
-2.274943
 20
16.832577
 30
0.0
  0
INSERT
  8
0
  2
*X9
 10
-2.274943
 20
16.832577
 30
0.0
  0
ARC
  8
0
 10
-121.982245
 20
-12.958504
 30
0.0
 40
2.5
 50
20.540978
 51
159.459022
  0
ARC
  8
0
 10
-136.232245
 20
-27.208504
 30
0.0
 40
2.5
 50
110.540978
 51
249.459022
  0
ARC
  8
0
 10
-107.732245
 20
-27.208504
 30
0.0
 40
2.5
 50
290.540978
 51
69.459022
  0
ARC
  8
0
 10
-121.982245
 20
-41.458504
 30
0.0
 40
2.5
 50
200.540978
 51
339.459022
  0
LINE
  8
0
 10
-106.855052
 20
-29.549558
 30
0.0
 11
-109.340999
 21
-30.481042
 31
0.0
  0
ARC
  8
0
 10
-103.726963
 20
-45.463786
 30
0.0
 40
16.0
 50
110.540978
 51
159.459022
  0
LINE
  8
0
 10
-119.641192
 20
-42.335697
 30
0.0
 11
-118.709707
 21
-39.849751
 31
0.0
  0
LINE
  8
0
 10
-124.323299
 20
-42.335697
 30
0.0
 11
-125.254783
 21
-39.849751
 31
0.0
  0
LINE
  8
0
 10
-137.109438
 20
-29.549558
 30
0.0
 11
-134.623492
 21
-30.481042
 31
0.0
  0
ARC
  8
0
 10
-140.237527
 20
-45.463786
 30
0.0
 40
16.0
 50
20.540978
 51
69.459022
  0
LINE
  8
0
 10
-119.641191
 20
-12.081311
 30
0.0
 11
-118.709707
 21
-14.567257
 31
0.0
  0
LINE
  8
0
 10
-106.855052
 20
-24.86745
 30
0.0
 11
-109.340999
 21
-23.935966
 31
0.0
  0
ARC
  8
0
 10
-103.726963
 20
-8.953222
 30
0.0
 40
16.0
 50
200.540978
 51
249.459022
  0
ARC
  8
0
 10
-140.237527
 20
-8.953222
 30
0.0
 40
16.0
 50
290.540978
 51
339.459022
  0
LINE
  8
0
 10
-124.323299
 20
-12.081311
 30
0.0
 11
-125.254783
 21
-14.567257
 31
0.0
  0
LINE
  8
0
 10
-137.109438
 20
-24.86745
 30
0.0
 11
-134.623492
 21
-23.935966
 31
0.0
  0
ARC
  8
0
 10
-8.385239
 20
-27.208504
 30
0.0
 40
3.0
 50
270.0
 51
90.0
  0
ARC
  8
0
 10
-7.859204
 20
-9.682468
 30
0.0
 40
14.535557
 50
182.073962
 51
267.926038
  0
ARC
  8
0
 10
-25.385239
 20
-44.208504
 30
0.0
 40
3.0
 50
180.0
 51
0.0
  0
ARC
  8
0
 10
-7.859204
 20
-44.73454
 30
0.0
 40
14.535557
 50
92.073962
 51
177.926038
  0
ARC
  8
0
 10
-42.385239
 20
-27.208504
 30
0.0
 40
3.0
 50
90.0
 51
270.0
  0
ARC
  8
0
 10
-42.911275
 20
-44.73454
 30
0.0
 40
14.535557
 50
2.073962
 51
87.926038
  0
ARC
  8
0
 10
-42.911275
 20
-9.682468
 30
0.0
 40
14.535557
 50
272.073962
 51
357.926038
  0
ARC
  8
0
 10
-25.385239
 20
-10.208504
 30
0.0
 40
3.0
 50
0.0
 51
180.0
  0
LINE
  8
0
 10
90.165812
 20
-6.708504
 30
0.0
 11
90.165812
 21
-9.208504
 31
0.0
  0
ARC
  8
0
 10
104.165812
 20
-9.208504
 30
0.0
 40
14.0
 50
180.0
 51
270.0
  0
LINE
  8
0
 10
104.165812
 20
-23.208504
 30
0.0
 11
106.665812
 21
-23.208504
 31
0.0
  0
ARC
  8
0
 10
106.665812
 20
-27.208504
 30
0.0
 40
4.0
 50
270.0
 51
90.0
  0
LINE
  8
0
 10
106.665812
 20
-31.208504
 30
0.0
 11
104.165812
 21
-31.208504
 31
0.0
  0
ARC
  8
0
 10
104.165812
 20
-45.208504
 30
0.0
 40
14.0
 50
90.0
 51
180.0
  0
LINE
  8
0
 10
90.165812
 20
-45.208504
 30
0.0
 11
90.165812
 21
-47.708504
 31
0.0
  0
ARC
  8
0
 10
86.165812
 20
-47.708504
 30
0.0
 40
4.0
 50
180.0
 51
0.0
  0
LINE
  8
0
 10
82.165812
 20
-47.708504
 30
0.0
 11
82.165812
 21
-45.208504
 31
0.0
  0
ARC
  8
0
 10
68.165812
 20
-45.208504
 30
0.0
 40
14.0
 50
0.0
 51
90.0
  0
LINE
  8
0
 10
68.165812
 20
-31.208504
 30
0.0
 11
65.665812
 21
-31.208504
 31
0.0
  0
ARC
  8
0
 10
65.665812
 20
-27.208504
 30
0.0
 40
4.0
 50
90.0
 51
270.0
  0
ARC
  8
0
 10
68.165812
 20
-9.208504
 30
0.0
 40
14.0
 50
270.0
 51
0.0
  0
LINE
  8
0
 10
82.165812
 20
-9.208504
 30
0.0
 11
82.165812
 21
-6.708504
 31
0.0
  0
LINE
  8
0
 10
65.665812
 20
-23.208504
 30
0.0
 11
68.165812
 21
-23.208504
 31
0.0
  0
ARC
  8
0
 10
86.165812
 20
-6.708504
 30
0.0
 40
4.0
 50
0.0
 51
180.0
  0
LINE
  8
0
 10
-64.349169
 20
-137.500246
 30
0.0
 11
-64.349169
 21
-140.000246
 31
0.0
  0
ARC
  8
0
 10
-46.349169
 20
-140.000246
 30
0.0
 40
18.0
 50
180.0
 51
270.0
  0
LINE
  8
0
 10
-43.849169
 20
-158.000246
 30
0.0
 11
-46.349169
 21
-158.000246
 31
0.0
  0
ARC
  8
0
 10
-43.849169
 20
-163.500246
 30
0.0
 40
5.5
 50
270.0
 51
90.0
  0
LINE
  8
0
 10
-43.849169
 20
-169.000246
 30
0.0
 11
-46.349169
 21
-169.000246
 31
0.0
  0
ARC
  8
0
 10
-46.349169
 20
-187.000246
 30
0.0
 40
18.0
 50
90.0
 51
180.0
  0
LINE
  8
0
 10
-64.349169
 20
-189.500246
 30
0.0
 11
-64.349169
 21
-187.000246
 31
0.0
  0
ARC
  8
0
 10
-69.849169
 20
-189.135252
 30
0.0
 40
5.5
 50
180.0
 51
0.0
  0
LINE
  8
0
 10
-75.349169
 20
-189.500246
 30
0.0
 11
-75.349169
 21
-187.000246
 31
0.0
  0
ARC
  8
0
 10
-93.349169
 20
-187.000246
 30
0.0
 40
18.0
 50
0.0
 51
90.0
  0
LINE
  8
0
 10
-95.849169
 20
-169.000246
 30
0.0
 11
-93.349169
 21
-169.000246
 31
0.0
  0
ARC
  8
0
 10
-95.849169
 20
-163.500246
 30
0.0
 40
5.5
 50
90.0
 51
270.0
  0
ARC
  8
0
 10
-93.349169
 20
-140.000246
 30
0.0
 40
18.0
 50
270.0
 51
0.0
  0
LINE
  8
0
 10
-75.349169
 20
-137.500246
 30
0.0
 11
-75.349169
 21
-140.000246
 31
0.0
  0
LINE
  8
0
 10
-95.849169
 20
-158.000246
 30
0.0
 11
-93.349169
 21
-158.000246
 31
0.0
  0
ARC
  8
0
 10
-69.849169
 20
-137.500246
 30
0.0
 40
5.5
 50
0.0
 51
180.0
  0
ARC
  8
0
 10
149.215166
 20
-163.500246
 30
0.0
 40
6.0
 50
270.0
 51
90.0
  0
ARC
  8
0
 10
149.01588
 20
-129.699531
 30
0.0
 40
27.801429
 50
179.58929
 51
270.41071
  0
ARC
  8
0
 10
115.215166
 20
-197.500246
 30
0.0
 40
6.0
 50
180.0
 51
0.0
  0
ARC
  8
0
 10
149.01588
 20
-197.30096
 30
0.0
 40
27.801429
 50
89.58929
 51
180.41071
  0
ARC
  8
0
 10
81.215166
 20
-163.500246
 30
0.0
 40
6.0
 50
90.0
 51
270.0
  0
ARC
  8
0
 10
81.414452
 20
-197.30096
 30
0.0
 40
27.801429
 50
359.58929
 51
90.41071
  0
ARC
  8
0
 10
81.414452
 20
-129.699531
 30
0.0
 40
27.801429
 50
269.58929
 51
0.41071
  0
ARC
  8
0
 10
115.215166
 20
-129.500246
 30
0.0
 40
6.0
 50
0.0
 51
180.0
  0
LINE
  8
0
 10
-121.508644
 20
-4.258552
 30
0.0
 11
-124.008644
 21
-4.258552
 31
0.0
  0
LINE
  8
0
 10
-124.008644
 20
10.428682
 30
0.0
 11
-121.508644
 21
10.428682
 31
0.0
  0
LINE
  8
0
 10
-163.194674
 20
7.741448
 30
0.0
 11
-160.194674
 21
7.741448
 31
0.0
  0
LINE
  8
0
 10
-124.508644
 20
-4.758552
 30
0.0
 11
-124.008644
 21
-4.258552
 31
0.0
  0
LINE
  8
0
 10
-28.541404
 20
18.886444
 30
0.0
 11
-25.141404
 21
18.886444
 31
0.0
  0
LINE
  8
0
 10
-77.682852
 20
15.210422
 30
0.0
 11
-73.682852
 21
15.210422
 31
0.0
  0
LINE
  8
0
 10
-28.541404
 20
1.810422
 30
0.0
 11
-25.141404
 21
1.810422
 31
0.0
  0
LINE
  8
0
 10
82.407285
 20
27.980497
 30
0.0
 11
86.657285
 21
27.980497
 31
0.0
  0
LINE
  8
0
 10
24.576205
 20
24.813873
 30
0.0
 11
29.576205
 21
24.813873
 31
0.0
  0
LINE
  8
0
 10
82.407285
 20
7.563873
 30
0.0
 11
86.657285
 21
7.563873
 31
0.0
  0
LINE
  8
0
 10
81.657285
 20
6.813873
 30
0.0
 11
82.407285
 21
7.563873
 31
0.0
  0
LINE
  8
0
 10
-150.373
 20
-98.856545
 30
0.0
 11
-144.373
 21
-98.856545
 31
0.0
  0
LINE
  8
0
 10
-73.783985
 20
-96.086361
 30
0.0
 11
-68.683985
 21
-96.086361
 31
0.0
  0
LINE
  8
0
 10
-73.783985
 20
-119.956545
 30
0.0
 11
-68.683985
 21
-119.956545
 31
0.0
  0
LINE
  8
0
 10
-74.683985
 20
-120.856545
 30
0.0
 11
-73.783985
 21
-119.956545
 31
0.0
  0
LINE
  8
0
 10
15.942222
 20
-87.263441
 30
0.0
 11
23.942222
 21
-87.263441
 31
0.0
  0
LINE
  8
0
 10
102.765332
 20
-84.393062
 30
0.0
 11
109.765332
 21
-84.393062
 31
0.0
  0
LINE
  8
0
 10
102.765332
 20
-116.263441
 30
0.0
 11
109.765332
 21
-116.263441
 31
0.0
  0
LINE
  8
0
 10
101.765332
 20
-117.263441
 30
0.0
 11
102.765332
 21
-116.263441
 31
0.0
  0
LINE
  8
0
 10
-29.141404
 20
1.210422
 30
0.0
 11
-28.541404
 21
1.810422
 31
0.0
  0
INSERT
  8
0
  2
*X10
 10
0.0
 20
0.0
 30
0.0
1001
ACAD
1000
HATCH
1002
{
1070
    16
1000
ANSI31
1040
10.0
1040
0.0
1002
}
  0
INSERT
  8
0
  2
*X11
 10
0.0
 20
0.0
 30
0.0
1001
ACAD
1000
HATCH
1002
{
1070
    16
1000
ANSI31
1040
10.0
1040
0.0
1002
}
  0
INSERT
  8
0
  2
*X12
 10
0.0
 20
0.0
 30
0.0
1001
ACAD
1000
HATCH
1002
{
1070
    16
1000
ANSI31
1040
10.0
1040
0.0
1002
}
  0
INSERT
  8
0
  2
*X13
 10
0.0
 20
0.0
 30
0.0
1001
ACAD
1000
HATCH
1002
{
1070
    16
1000
ANSI31
1040
10.0
1040
0.0
1002
}
  0
INSERT
  8
0
  2
*X14
 10
0.0
 20
0.0
 30
0.0
1001
ACAD
1000
HATCH
1002
{
1070
    16
1000
ANSI31
1040
15.0
1040
0.0
1002
}
  0
INSERT
  8
0
  2
*X15
 10
0.0
 20
0.0
 30
0.0
1001
ACAD
1000
HATCH
1002
{
1070
    16
1000
ANSI31
1040
15.0
1040
0.0
1002
}
  0
INSERT
  8
0
  2
*X16
 10
0.0
 20
0.0
 30
0.0
1001
ACAD
1000
HATCH
1002
{
1070
    16
1000
ANSI31
1040
15.0
1040
0.0
1002
}
  0
INSERT
  8
0
  2
*X17
 10
0.0
 20
0.0
 30
0.0
1001
ACAD
1000
HATCH
1002
{
1070
    16
1000
ANSI31
1040
15.0
1040
0.0
1002
}
  0
LINE
  8
0
 10
15.942222
 20
-117.263441
 30
0.0
 11
36.442222
 21
-117.263441
 31
0.0
  0
INSERT
  8
0
  2
*X19
 10
0.0
 20
0.0
 30
0.0
1001
ACAD
1000
HATCH
1002
{
1070
    16
1000
ANSI31
1040
20.0
1040
0.0
1002
}
  0
INSERT
  8
0
  2
*X20
 10
0.0
 20
0.0
 30
0.0
1001
ACAD
1000
HATCH
1002
{
1070
    16
1000
ANSI31
1040
20.0
1040
0.0
1002
}
  0
ENDSEC
  0
EOF
