  0
SECTION
  2
HEADER
  9
$ACADVER
  1
AC1009
  9
$INSBASE
 10
0.0
 20
0.0
 30
0.0
  9
$EXTMIN
 10
96.982728141572807
 20
50.99375415918621
 30
-0.0015258207003583
  9
$EXTMAX
 10
299.01672446985822
 20
117.03428792224069
 30
0.0000000349246037
  9
$LIMMIN
 10
0.0
 20
0.0
  9
$LIMMAX
 10
420.0
 20
297.0
  9
$ORTHOMODE
 70
     1
  9
$REGENMODE
 70
     1
  9
$FILLMODE
 70
     1
  9
$QTEXTMODE
 70
     0
  9
$MIRRTEXT
 70
     1
  9
$DRAGMODE
 70
     2
  9
$LTSCALE
 40
1.0
  9
$OSMODE
 70
    40
  9
$ATTMODE
 70
     1
  9
$TEXTSIZE
 40
3.5
  9
$TRACEWID
 40
1.0
  9
$TEXTSTYLE
  7
STANDARD
  9
$CLAYER
  8
0
  9
$CELTYPE
  6
CONTINUOUS
  9
$CECOLOR
 62
   256
  9
$DIMSCALE
 40
1.0
  9
$DIMASZ
 40
2.5
  9
$DIMEXO
 40
0.625
  9
$DIMDLI
 40
3.75
  9
$DIMRND
 40
0.0
  9
$DIMDLE
 40
0.0
  9
$DIMEXE
 40
1.25
  9
$DIMTP
 40
0.0
  9
$DIMTM
 40
0.0
  9
$DIMTXT
 40
2.5
  9
$DIMCEN
 40
2.5
  9
$DIMTSZ
 40
0.0
  9
$DIMTOL
 70
     0
  9
$DIMLIM
 70
     0
  9
$DIMTIH
 70
     1
  9
$DIMTOH
 70
     0
  9
$DIMSE1
 70
     0
  9
$DIMSE2
 70
     0
  9
$DIMTAD
 70
     1
  9
$DIMZIN
 70
     8
  9
$DIMBLK
  1

  9
$DIMASO
 70
     1
  9
$DIMSHO
 70
     1
  9
$DIMPOST
  1

  9
$DIMAPOST
  1

  9
$DIMALT
 70
     0
  9
$DIMALTD
 70
     2
  9
$DIMALTF
 40
0.0394
  9
$DIMLFAC
 40
1.0
  9
$DIMTOFL
 70
     1
  9
$DIMTVP
 40
1.0
  9
$DIMTIX
 70
     0
  9
$DIMSOXD
 70
     0
  9
$DIMSAH
 70
     0
  9
$DIMBLK1
  1

  9
$DIMBLK2
  1

  9
$DIMSTYLE
  2
STANDARD
  9
$DIMCLRD
 70
     0
  9
$DIMCLRE
 70
     0
  9
$DIMCLRT
 70
     0
  9
$DIMTFAC
 40
1.0
  9
$DIMGAP
 40
0.625
  9
$LUNITS
 70
     2
  9
$LUPREC
 70
     4
  9
$SKETCHINC
 40
1.0
  9
$FILLETRAD
 40
0.0
  9
$AUNITS
 70
     0
  9
$AUPREC
 70
     0
  9
$MENU
  1
acad
  9
$ELEVATION
 40
0.0
  9
$PELEVATION
 40
0.0
  9
$THICKNESS
 40
0.0
  9
$LIMCHECK
 70
     0
  9
$BLIPMODE
 70
     0
  9
$CHAMFERA
 40
0.5
  9
$CHAMFERB
 40
0.5
  9
$SKPOLY
 70
     0
  9
$TDCREATE
 40
2450487.4102482642
  9
$TDUPDATE
 40
2452236.556173495
  9
$TDINDWG
 40
0.1467543981
  9
$TDUSRTIMER
 40
0.1467543981
  9
$USRTIMER
 70
     1
  9
$ANGBASE
 50
0.0
  9
$ANGDIR
 70
     0
  9
$PDMODE
 70
     0
  9
$PDSIZE
 40
0.0
  9
$PLINEWID
 40
0.0
  9
$COORDS
 70
     2
  9
$SPLFRAME
 70
     0
  9
$SPLINETYPE
 70
     6
  9
$SPLINESEGS
 70
     8
  9
$ATTDIA
 70
     0
  9
$ATTREQ
 70
     1
  9
$HANDLING
 70
-16383
  9
$HANDSEED
  5
EF
  9
$SURFTAB1
 70
     6
  9
$SURFTAB2
 70
     6
  9
$SURFTYPE
 70
     6
  9
$SURFU
 70
     6
  9
$SURFV
 70
     6
  9
$UCSNAME
  2

  9
$UCSORG
 10
0.0
 20
0.0
 30
0.0
  9
$UCSXDIR
 10
1.0
 20
0.0
 30
0.0
  9
$UCSYDIR
 10
0.0
 20
1.0
 30
0.0
  9
$PUCSNAME
  2

  9
$PUCSORG
 10
0.0
 20
0.0
 30
0.0
  9
$PUCSXDIR
 10
1.0
 20
0.0
 30
0.0
  9
$PUCSYDIR
 10
0.0
 20
1.0
 30
0.0
  9
$USERI1
 70
     0
  9
$USERI2
 70
     0
  9
$USERI3
 70
     0
  9
$USERI4
 70
     0
  9
$USERI5
 70
     0
  9
$USERR1
 40
0.0
  9
$USERR2
 40
0.0
  9
$USERR3
 40
0.0
  9
$USERR4
 40
0.0
  9
$USERR5
 40
0.0
  9
$WORLDVIEW
 70
     1
  9
$SHADEDGE
 70
     3
  9
$SHADEDIF
 70
    70
  9
$TILEMODE
 70
     1
  9
$MAXACTVP
 70
    16
  9
$PLIMCHECK
 70
     0
  9
$PEXTMIN
 10
1.0000000000000000E+020
 20
1.0000000000000000E+020
 30
1.0000000000000000E+020
  9
$PEXTMAX
 10
-1.0000000000000000E+020
 20
-1.0000000000000000E+020
 30
-1.0000000000000000E+020
  9
$PLIMMIN
 10
0.0
 20
0.0
  9
$PLIMMAX
 10
420.0
 20
297.0
  9
$UNITMODE
 70
     0
  9
$VISRETAIN
 70
     0
  9
$PLINEGEN
 70
     0
  9
$PSLTSCALE
 70
     1
  0
ENDSEC
  0
SECTION
  2
TABLES
  0
TABLE
  2
VPORT
 70
     3
  0
VPORT
  2
*ACTIVE
 70
     0
 10
0.0
 20
0.0
 11
1.0
 21
1.0
 12
197.99972630571551
 22
84.014021040713487
 13
0.0
 23
0.0
 14
0.5
 24
0.5
 15
10.0
 25
10.0
 16
0.0
 26
0.0
 36
1.0
 17
0.0
 27
0.0
 37
0.0
 40
260.72401915450268
 41
1.5573979591836731
 42
50.0
 43
0.0
 44
0.0
 50
0.0
 51
0.0
 71
     0
 72
   100
 73
     1
 74
     0
 75
     1
 76
     0
 77
     0
 78
     0
  0
ENDTAB
  0
TABLE
  2
LTYPE
 70
    25
  0
LTYPE
  2
CONTINUOUS
 70
     0
  3
Solid line
 72
    65
 73
     0
 40
0.0
  0
LTYPE
  2
CENTER
 70
     0
  3
____ _ ____ _ ____ _ ____ _ ____ _ ____ _ ____ 
 72
    65
 73
     4
 40
2.0
 49
1.25
 49
-0.25
 49
0.25
 49
-0.25
  0
LTYPE
  2
BORDER
 70
     0
  3
__ __ . __ __ . __ __ . __ __ . __ __ . __ __ .
 72
    65
 73
     6
 40
1.75
 49
0.5
 49
-0.25
 49
0.5
 49
-0.25
 49
0.0
 49
-0.25
  0
LTYPE
  2
BORDER2
 70
     0
  3
__.__.__.__.__.__.__.__.__.__.__.__.__.__.__.__
 72
    65
 73
     6
 40
0.875
 49
0.25
 49
-0.125
 49
0.25
 49
-0.125
 49
0.0
 49
-0.125
  0
LTYPE
  2
BORDERX2
 70
     0
  3
____  ____  .  ____  ____  .  ____  ____  .  __
 72
    65
 73
     6
 40
3.5
 49
1.0
 49
-0.5
 49
1.0
 49
-0.5
 49
0.0
 49
-0.5
  0
LTYPE
  2
CENTER2
 70
     0
  3
___ _ ___ _ ___ _ ___ _ ___ _ ___ _ ___ _ ___ _
 72
    65
 73
     4
 40
1.125
 49
0.75
 49
-0.125
 49
0.125
 49
-0.125
  0
LTYPE
  2
CENTERX2
 70
     0
  3
________  __  ________  __  ________  __  _____
 72
    65
 73
     4
 40
4.0
 49
2.5
 49
-0.5
 49
0.5
 49
-0.5
  0
LTYPE
  2
DASHDOT
 70
     0
  3
__ . __ . __ . __ . __ . __ . __ . __ . __ . __
 72
    65
 73
     4
 40
1.0
 49
0.5
 49
-0.25
 49
0.0
 49
-0.25
  0
LTYPE
  2
DASHDOT2
 70
     0
  3
_._._._._._._._._._._._._._._._._._._._._._._._
 72
    65
 73
     4
 40
0.5
 49
0.25
 49
-0.125
 49
0.0
 49
-0.125
  0
LTYPE
  2
DASHDOTX2
 70
     0
  3
____  .  ____  .  ____  .  ____  .  ____  .  __
 72
    65
 73
     4
 40
2.0
 49
1.0
 49
-0.5
 49
0.0
 49
-0.5
  0
LTYPE
  2
DASHED
 70
     0
  3
__ __ __ __ __ __ __ __ __ __ __ __ __ __ __ __
 72
    65
 73
     2
 40
0.75
 49
0.5
 49
-0.25
  0
LTYPE
  2
DASHED2
 70
     0
  3
_ _ _ _ _ _ _ _ _ _ _ _ _ _ _ _ _ _ _ _ _ _ _ _
 72
    65
 73
     2
 40
0.375
 49
0.25
 49
-0.125
  0
LTYPE
  2
DASHEDX2
 70
     0
  3
____  ____  ____  ____  ____  ____  ____  ____ 
 72
    65
 73
     2
 40
1.5
 49
1.0
 49
-0.5
  0
LTYPE
  2
DIVIDE
 70
     0
  3
____ . . ____ . . ____ . . ____ . . ____ . . __
 72
    65
 73
     6
 40
1.25
 49
0.5
 49
-0.25
 49
0.0
 49
-0.25
 49
0.0
 49
-0.25
  0
LTYPE
  2
DIVIDE2
 70
     0
  3
__..__..__..__..__..__..__..__..__..__..__..__.
 72
    65
 73
     6
 40
0.625
 49
0.25
 49
-0.125
 49
0.0
 49
-0.125
 49
0.0
 49
-0.125
  0
LTYPE
  2
DIVIDEX2
 70
     0
  3
________  .  .  ________  .  .  ________  .  . 
 72
    65
 73
     6
 40
2.5
 49
1.0
 49
-0.5
 49
0.0
 49
-0.5
 49
0.0
 49
-0.5
  0
LTYPE
  2
DOT
 70
     0
  3
. . . . . . . . . . . . . . . . . . . . . . . .
 72
    65
 73
     2
 40
0.25
 49
0.0
 49
-0.25
  0
LTYPE
  2
DOT2
 70
     0
  3
...............................................
 72
    65
 73
     2
 40
0.125
 49
0.0
 49
-0.125
  0
LTYPE
  2
DOTX2
 70
     0
  3
.  .  .  .  .  .  .  .  .  .  .  .  .  .  .  . 
 72
    65
 73
     2
 40
0.5
 49
0.0
 49
-0.5
  0
LTYPE
  2
HIDDEN
 70
     0
  3
__ __ __ __ __ __ __ __ __ __ __ __ __ __ __ __
 72
    65
 73
     2
 40
0.375
 49
0.25
 49
-0.125
  0
LTYPE
  2
HIDDEN2
 70
     0
  3
_ _ _ _ _ _ _ _ _ _ _ _ _ _ _ _ _ _ _ _ _ _ _ _
 72
    65
 73
     2
 40
0.1875
 49
0.125
 49
-0.0625
  0
LTYPE
  2
HIDDENX2
 70
     0
  3
____ ____ ____ ____ ____ ____ ____ ____ ____ __
 72
    65
 73
     2
 40
0.75
 49
0.5
 49
-0.25
  0
LTYPE
  2
PHANTOM
 70
     0
  3
______  __  __  ______  __  __  ______  __  __ 
 72
    65
 73
     6
 40
2.5
 49
1.25
 49
-0.25
 49
0.25
 49
-0.25
 49
0.25
 49
-0.25
  0
LTYPE
  2
PHANTOM2
 70
     0
  3
___ _ _ ___ _ _ ___ _ _ ___ _ _ ___ _ _ ___ _ _
 72
    65
 73
     6
 40
1.25
 49
0.625
 49
-0.125
 49
0.125
 49
-0.125
 49
0.125
 49
-0.125
  0
LTYPE
  2
PHANTOMX2
 70
     0
  3
____________    ____    ____    ____________   
 72
    65
 73
     6
 40
5.0
 49
2.5
 49
-0.5
 49
0.5
 49
-0.5
 49
0.5
 49
-0.5
  0
ENDTAB
  0
TABLE
  2
LAYER
 70
     1
  0
LAYER
  2
0
 70
     0
 62
     7
  6
CONTINUOUS
  0
ENDTAB
  0
TABLE
  2
STYLE
 70
     1
  0
STYLE
  2
STANDARD
 70
     0
 40
0.0
 41
1.0
 50
0.0
 71
     0
 42
3.5
  3
txt
  4

  0
ENDTAB
  0
TABLE
  2
VIEW
 70
     0
  0
ENDTAB
  0
TABLE
  2
UCS
 70
     0
  0
ENDTAB
  0
TABLE
  2
APPID
 70
     1
  0
APPID
  2
ACAD
 70
     0
  0
ENDTAB
  0
TABLE
  2
DIMSTYLE
 70
     1
  0
DIMSTYLE
  2
STANDARD
 70
     0
  3

  4

  5

  6

  7

 40
1.0
 41
0.18
 42
0.0625
 43
0.38
 44
0.18
 45
0.0
 46
0.0
 47
0.0
 48
0.0
140
0.18
141
0.09
142
0.0
143
25.399999999999999
144
1.0
145
0.0
146
1.0
147
0.09
 71
     0
 72
     0
 73
     1
 74
     1
 75
     0
 76
     0
 77
     0
 78
     0
170
     0
171
     2
172
     0
173
     0
174
     0
175
     0
176
     0
177
     0
178
     0
  0
ENDTAB
  0
ENDSEC
  0
SECTION
  2
BLOCKS
  0
BLOCK
  8
0
  2
$MODEL_SPACE
 70
     0
 10
0.0
 20
0.0
 30
0.0
  3
$MODEL_SPACE
  1

  0
ENDBLK
  5
3F
  8
0
  0
BLOCK
 67
     1
  8
0
  2
$PAPER_SPACE
 70
     0
 10
0.0
 20
0.0
 30
0.0
  3
$PAPER_SPACE
  1

  0
ENDBLK
  5
3D
 67
     1
  8
0
  0
ENDSEC
  0
SECTION
  2
ENTITIES
  0
LINE
  5
40
  8
0
 10
100.5
 20
100.0
 30
0.0
 11
131.49999999999989
 21
100.0
 31
0.0
  0
LINE
  5
41
  8
0
 10
132.0
 20
100.5
 30
0.0
 11
132.0
 21
110.0
 31
0.0
  0
LINE
  5
42
  8
0
 10
130.0
 20
114.0
 30
0.0
 11
116.0
 21
114.0
 31
0.0
  0
LINE
  5
43
  8
0
 10
100.0
 20
110.0
 30
0.0
 11
100.0
 21
100.5
 31
0.0
  0
LINE
  5
44
  8
0
 10
130.0
 20
114.0
 30
0.0
 11
132.0
 21
110.0
 31
0.0
  0
LINE
  5
45
  8
0
 10
102.0
 20
114.0
 30
0.0
 11
100.0
 21
110.0
 31
0.0
  0
LINE
  5
46
  8
0
 10
100.0
 20
110.0
 30
0.0
 11
116.0
 21
110.0
 31
0.0
  0
LINE
  5
47
  8
0
 10
132.0
 20
100.5
 30
0.0
 11
131.49999999999989
 21
100.0
 31
0.0
  0
LINE
  5
48
  8
0
 10
100.5
 20
100.0
 30
0.0
 11
100.0
 21
100.5
 31
0.0
  0
LINE
  5
49
  8
0
  6
CENTER2
 10
116.0
 20
97.0
 30
0.0
 11
116.0
 21
117.0
 31
0.0
  0
LINE
  5
4A
  8
0
  6
CONTINUOUS
 10
117.5
 20
100.0
 30
0.0
 11
117.5
 21
104.0
 31
0.0
  0
LINE
  5
4B
  8
0
  6
CONTINUOUS
 10
123.0
 20
107.0
 30
0.0
 11
117.5
 21
104.0
 31
0.0
  0
LINE
  5
4C
  8
0
  6
CONTINUOUS
 10
123.0
 20
107.0
 30
0.0
 11
123.0
 21
111.0
 31
0.0
  0
LINE
  5
4D
  8
0
  6
CONTINUOUS
 10
116.0
 20
111.0
 30
0.0
 11
128.0
 21
111.0
 31
0.0
  0
LINE
  5
4E
  8
0
  6
CONTINUOUS
 10
128.0
 20
111.0
 30
0.0
 11
128.0
 21
112.5
 31
0.0
  0
LINE
  5
4F
  8
0
  6
CONTINUOUS
 10
116.0
 20
112.5
 30
0.0
 11
129.0
 21
112.5
 31
0.0
  0
LINE
  5
50
  8
0
  6
CONTINUOUS
 10
129.0
 20
112.5
 30
0.0
 11
129.0
 21
114.0
 31
0.0
  0
LINE
  5
51
  8
0
  6
CONTINUOUS
 10
117.5
 20
104.0
 30
0.0
 11
116.0
 21
104.0
 31
0.0
  0
LINE
  5
52
  8
0
  6
CONTINUOUS
 10
122.0
 20
114.0
 30
0.0
 11
122.0
 21
112.5
 31
0.0
  0
LINE
  5
53
  8
0
 10
116.0
 20
114.0
 30
0.0
 11
102.0
 21
114.0
 31
0.0
  0
LINE
  5
54
  8
0
  6
CONTINUOUS
 62
     0
 10
117.5
 20
103.35786437626901
 30
0.0
 11
118.9126983722081
 21
104.7705627484771
 31
0.0
  0
LINE
  5
55
  8
0
  6
CONTINUOUS
 62
     0
 10
117.5
 20
100.52943725152279
 30
0.0
 11
127.97056274847709
 21
111.0
 31
0.0
  0
LINE
  5
56
  8
0
  6
CONTINUOUS
 62
     0
 10
128.0
 20
111.02943725152279
 30
0.0
 11
130.323520916159
 21
113.3529581676819
 31
0.0
  0
LINE
  5
57
  8
0
  6
CONTINUOUS
 62
     0
 10
119.79898987322331
 20
100.0
 30
0.0
 11
131.26632995774111
 21
111.4673400845177
 31
0.0
  0
LINE
  5
58
  8
0
  6
CONTINUOUS
 62
     0
 10
122.6274169979695
 20
100.0
 30
0.0
 11
132.0
 21
109.3725830020304
 31
0.0
  0
LINE
  5
59
  8
0
  6
CONTINUOUS
 62
     0
 10
125.4558441227157
 20
100.0
 30
0.0
 11
132.0
 21
106.5441558772842
 31
0.0
  0
LINE
  5
5A
  8
0
  6
CONTINUOUS
 62
     0
 10
128.2842712474619
 20
100.0
 30
0.0
 11
132.0
 21
103.715728752538
 31
0.0
  0
LINE
  5
5B
  8
0
  6
CONTINUOUS
 62
     0
 10
131.112698372208
 20
100.0
 30
0.0
 11
132.0
 21
100.8873016277919
 31
0.0
  0
LINE
  5
5C
  8
0
  6
CONTINUOUS
 62
     0
 10
123.0
 20
108.85786437626901
 30
0.0
 11
125.14213562373089
 21
111.0
 31
0.0
  0
LINE
  5
5D
  8
0
  6
CONTINUOUS
 62
     0
 10
122.2594513539337
 20
112.5
 30
0.0
 11
122.0
 21
112.7594513539337
 31
0.0
  0
LINE
  5
5E
  8
0
  6
CONTINUOUS
 62
     0
 10
125.0878784786799
 20
112.5
 30
0.0
 11
123.5878784786799
 21
114.0
 31
0.0
  0
LINE
  5
5F
  8
0
  6
CONTINUOUS
 62
     0
 10
127.9163056034261
 20
112.5
 30
0.0
 11
126.4163056034261
 21
114.0
 31
0.0
  0
CIRCLE
  5
60
  8
0
  6
CONTINUOUS
 10
127.2499999999999
 20
111.7499999999999
 30
0.0
 40
0.75
  0
CIRCLE
  5
61
  8
0
  6
CONTINUOUS
 10
122.0
 20
111.7499999999999
 30
0.0
 40
0.75
  0
CIRCLE
  5
62
  8
0
  6
CONTINUOUS
 10
116.0
 20
70.0
 30
0.0
 40
16.0
  0
CIRCLE
  5
63
  8
0
  6
CONTINUOUS
 10
116.0
 20
70.0
 30
0.0
 40
14.0
  0
CIRCLE
  5
64
  8
0
  6
CONTINUOUS
 10
116.0
 20
70.0
 30
0.0
 40
6.0
  0
LINE
  5
65
  8
0
  6
CONTINUOUS
 10
121.25
 20
72.904737509655561
 30
0.0
 11
121.25
 21
67.095262490344439
 31
0.0
  0
LINE
  5
66
  8
0
  6
CONTINUOUS
 10
110.7499999999999
 20
72.904737509655561
 30
0.0
 11
110.7499999999999
 21
67.095262490344439
 31
0.0
  0
LINE
  5
67
  8
0
  6
CENTER2
 10
116.0
 20
89.0
 30
0.0
 11
116.0
 21
51.0
 31
0.0
  0
LINE
  5
68
  8
0
  6
CENTER2
 10
135.0
 20
70.0
 30
0.0
 11
97.0
 21
70.0
 31
0.0
  0
LINE
  5
69
  8
0
  6
CONTINUOUS
 10
160.49999999999989
 20
100.0
 30
0.0
 11
184.49999999999989
 21
100.0
 31
0.0
  0
LINE
  5
6A
  8
0
  6
CONTINUOUS
 10
185.0
 20
100.5
 30
0.0
 11
185.0
 21
109.0
 31
0.0
  0
LINE
  5
6B
  8
0
  6
CONTINUOUS
 10
183.49999999999989
 20
111.0
 30
0.0
 11
161.5
 21
111.0
 31
0.0
  0
LINE
  5
6C
  8
0
  6
CONTINUOUS
 10
160.0
 20
109.0
 30
0.0
 11
160.0
 21
100.5
 31
0.0
  0
LINE
  5
6D
  8
0
  6
CENTER2
 10
172.5
 20
97.0
 30
0.0
 11
172.5
 21
114.0
 31
0.0
  0
LINE
  5
6E
  8
0
  6
CONTINUOUS
 10
173.75
 20
100.0
 30
0.0
 11
173.75
 21
103.0
 31
0.0
  0
LINE
  5
6F
  8
0
  6
CONTINUOUS
 10
173.75
 20
103.0
 30
0.0
 11
172.5
 21
103.0
 31
0.0
  0
LINE
  5
70
  8
0
  6
CONTINUOUS
 10
172.5
 20
109.0
 30
0.0
 11
182.5
 21
109.0
 31
0.0
  0
LINE
  5
71
  8
0
  6
CONTINUOUS
 10
182.5
 20
111.0
 30
0.0
 11
182.5
 21
109.0
 31
0.0
  0
LINE
  5
72
  8
0
  6
CONTINUOUS
 10
181.49999999999989
 20
109.0
 30
0.0
 11
181.49999999999989
 21
108.0
 31
0.0
  0
LINE
  5
73
  8
0
  6
CONTINUOUS
 10
181.49999999999989
 20
108.0
 30
0.0
 11
172.5
 21
108.0
 31
0.0
  0
LINE
  5
74
  8
0
  6
CONTINUOUS
 10
173.75
 20
103.0
 30
0.0
 11
177.5
 21
104.4999999999999
 31
0.0
  0
LINE
  5
75
  8
0
  6
CONTINUOUS
 10
177.5
 20
104.4999999999999
 30
0.0
 11
177.5
 21
108.0
 31
0.0
  0
LINE
  5
76
  8
0
  6
CONTINUOUS
 10
177.0
 20
111.0
 30
0.0
 11
177.0
 21
109.0
 31
0.0
  0
CIRCLE
  5
77
  8
0
  6
CONTINUOUS
 10
181.0
 20
108.4999999999999
 30
0.0
 40
0.5
  0
CIRCLE
  5
78
  8
0
  6
CONTINUOUS
 10
177.0
 20
108.4999999999999
 30
0.0
 40
0.5
  0
LINE
  5
79
  8
0
  6
CONTINUOUS
 62
     0
 10
179.49956672411139
 20
109.0
 30
0.0
 11
177.49956672411139
 21
111.0
 31
0.0
  0
LINE
  5
7A
  8
0
  6
CONTINUOUS
 62
     0
 10
182.32799384885749
 20
109.0
 30
0.0
 11
180.32799384885749
 21
111.0
 31
0.0
  0
LINE
  5
7B
  8
0
  6
CONTINUOUS
 62
     0
 10
177.5
 20
106.7893218813452
 30
0.0
 11
178.7106781186547
 21
107.9999999999999
 31
0.0
  0
LINE
  5
7C
  8
0
  6
CONTINUOUS
 62
     0
 10
173.75
 20
100.210894756599
 30
0.0
 11
183.94533081860061
 21
110.406225575199
 31
0.0
  0
LINE
  5
7D
  8
0
  6
CONTINUOUS
 62
     0
 10
176.3675323681471
 20
100.0
 30
0.0
 11
185.0
 21
108.6324676318528
 31
0.0
  0
LINE
  5
7E
  8
0
  6
CONTINUOUS
 62
     0
 10
179.19595949289331
 20
100.0
 30
0.0
 11
185.0
 21
105.80404050710671
 31
0.0
  0
LINE
  5
7F
  8
0
  6
CONTINUOUS
 62
     0
 10
182.02438661763949
 20
100.0
 30
0.0
 11
185.0
 21
102.97561338236039
 31
0.0
  0
LINE
  5
80
  8
0
  6
CONTINUOUS
 62
     0
 10
184.85281374238571
 20
100.0
 30
0.0
 11
185.0
 21
100.14718625761429
 31
0.0
  0
LINE
  5
81
  8
0
  6
CONTINUOUS
 10
185.0
 20
109.0
 30
0.0
 11
183.49999999999989
 21
111.0
 31
0.0
  0
LINE
  5
82
  8
0
  6
CONTINUOUS
 10
160.0
 20
109.0
 30
0.0
 11
161.5
 21
111.0
 31
0.0
  0
LINE
  5
83
  8
0
  6
CONTINUOUS
 10
160.49999999999989
 20
100.0
 30
0.0
 11
160.0
 21
100.5
 31
0.0
  0
LINE
  5
84
  8
0
  6
CONTINUOUS
 10
184.49999999999989
 20
100.0
 30
0.0
 11
185.0
 21
100.5
 31
0.0
  0
LINE
  5
85
  8
0
  6
CONTINUOUS
 10
160.0
 20
109.0
 30
0.0
 11
172.5
 21
109.0
 31
0.0
  0
CIRCLE
  5
86
  8
0
  6
CONTINUOUS
 10
172.5
 20
70.0
 30
0.0
 40
12.5
  0
CIRCLE
  5
87
  8
0
  6
CONTINUOUS
 10
172.5
 20
70.0
 30
0.0
 40
11.0
  0
CIRCLE
  5
88
  8
0
  6
CONTINUOUS
 10
172.5
 20
70.0
 30
0.0
 40
4.5
  0
LINE
  5
89
  8
0
  6
CONTINUOUS
 10
176.5
 20
72.061552812808813
 30
0.0
 11
176.5
 21
67.938447187191159
 31
0.0
  0
LINE
  5
8A
  8
0
  6
CONTINUOUS
 10
168.5
 20
72.061552812808813
 30
0.0
 11
168.5
 21
67.938447187191159
 31
0.0
  0
LINE
  5
8B
  8
0
  6
CENTER2
 10
157.0
 20
70.0
 30
0.0
 11
188.0
 21
70.0
 31
0.0
  0
LINE
  5
8C
  8
0
  6
CENTER2
 10
172.5
 20
85.5
 30
0.0
 11
172.5
 21
54.5
 31
0.0
  0
LINE
  5
8D
  8
0
  6
CONTINUOUS
 10
220.5
 20
100.0
 30
0.0
 11
239.5
 21
100.0
 31
0.0
  0
LINE
  5
8E
  8
0
  6
CONTINUOUS
 10
239.0
 20
110.0
 30
0.0
 11
221.0
 21
110.0
 31
0.0
  0
LINE
  5
8F
  8
0
  6
CONTINUOUS
 10
220.0
 20
108.0
 30
0.0
 11
220.0
 21
100.5
 31
0.0
  0
LINE
  5
90
  8
0
  6
CONTINUOUS
 10
240.0
 20
100.5
 30
0.0
 11
240.0
 21
108.0
 31
0.0
  0
LINE
  5
91
  8
0
  6
CONTINUOUS
 10
240.0
 20
108.0
 30
0.0
 11
239.0
 21
110.0
 31
0.0
  0
LINE
  5
92
  8
0
  6
CONTINUOUS
 10
220.0
 20
108.0
 30
0.0
 11
221.0
 21
110.0
 31
0.0
  0
LINE
  5
93
  8
0
  6
CONTINUOUS
 10
240.0
 20
100.5
 30
0.0
 11
239.5
 21
100.0
 31
0.0
  0
LINE
  5
94
  8
0
  6
CONTINUOUS
 10
220.5
 20
100.0
 30
0.0
 11
220.0
 21
100.5
 31
0.0
  0
LINE
  5
95
  8
0
  6
CENTER2
 10
230.0
 20
97.0
 30
0.0
 11
230.0
 21
113.0
 31
0.0
  0
LINE
  5
96
  8
0
  6
CONTINUOUS
 10
238.0
 20
110.0
 30
0.0
 11
238.0
 21
108.4999999999999
 31
0.0
  0
LINE
  5
97
  8
0
  6
CONTINUOUS
 10
238.0
 20
108.4999999999999
 30
0.0
 11
230.0
 21
108.4999999999999
 31
0.0
  0
LINE
  5
98
  8
0
  6
CONTINUOUS
 10
237.5
 20
108.4999999999999
 30
0.0
 11
237.5
 21
108.0
 31
0.0
  0
LINE
  5
99
  8
0
  6
CONTINUOUS
 10
237.5
 20
108.0
 30
0.0
 11
230.0
 21
108.0
 31
0.0
  0
LINE
  5
9A
  8
0
  6
CONTINUOUS
 10
235.0
 20
108.0
 30
0.0
 11
235.0
 21
104.4999999999999
 31
0.0
  0
LINE
  5
9B
  8
0
  6
CONTINUOUS
 10
235.0
 20
104.4999999999999
 30
0.0
 11
231.74999999999989
 21
102.4999999999999
 31
0.0
  0
LINE
  5
9C
  8
0
  6
CONTINUOUS
 10
231.74999999999989
 20
102.4999999999999
 30
0.0
 11
231.74999999999989
 21
100.0
 31
0.0
  0
LINE
  5
9D
  8
0
  6
CONTINUOUS
 10
231.74999999999989
 20
102.4999999999999
 30
0.0
 11
229.97959807151321
 21
102.4999999999999
 31
0.0
  0
LINE
  5
9E
  8
0
  6
CONTINUOUS
 10
235.0
 20
104.4999999999999
 30
0.0
 11
230.0
 21
104.4999999999999
 31
0.0
  0
LINE
  5
9F
  8
0
  6
CONTINUOUS
 10
234.0
 20
110.0
 30
0.0
 11
234.0
 21
108.4999999999999
 31
0.0
  0
CIRCLE
  5
A0
  8
0
  6
CONTINUOUS
 10
237.25
 20
108.25
 30
0.0
 40
0.25
  0
CIRCLE
  5
A1
  8
0
  6
CONTINUOUS
 10
234.0
 20
108.25
 30
0.0
 40
0.25
  0
LINE
  5
A2
  8
0
  6
CONTINUOUS
 62
     0
 10
235.153895656662
 20
108.4999999999999
 30
0.0
 11
234.0
 21
109.653895656662
 31
0.0
  0
LINE
  5
A3
  8
0
  6
CONTINUOUS
 62
     0
 10
236.56810921903511
 20
108.4999999999999
 30
0.0
 11
235.06810921903511
 21
109.9999999999999
 31
0.0
  0
LINE
  5
A4
  8
0
  6
CONTINUOUS
 62
     0
 10
237.98232278140819
 20
108.4999999999999
 30
0.0
 11
236.48232278140819
 21
109.9999999999999
 31
0.0
  0
LINE
  5
A5
  8
0
  6
CONTINUOUS
 62
     0
 10
238.0
 20
109.89653634378131
 30
0.0
 11
237.89653634378129
 21
109.9999999999999
 31
0.0
  0
LINE
  5
A6
  8
0
  6
CONTINUOUS
 62
     0
 10
235.0
 20
107.7207793864214
 30
0.0
 11
235.2792206135785
 21
108.0
 31
0.0
  0
LINE
  5
A7
  8
0
  6
CONTINUOUS
 62
     0
 10
235.0
 20
106.30656582404831
 30
0.0
 11
236.69343417595161
 21
108.0
 31
0.0
  0
LINE
  5
A8
  8
0
  6
CONTINUOUS
 62
     0
 10
238.0
 20
109.30656582404831
 30
0.0
 11
238.69343417595161
 21
110.0
 31
0.0
  0
LINE
  5
A9
  8
0
  6
CONTINUOUS
 62
     0
 10
231.74999999999989
 20
101.6423522616752
 30
0.0
 11
233.9798841196442
 21
103.8722363813195
 31
0.0
  0
LINE
  5
AA
  8
0
  6
CONTINUOUS
 62
     0
 10
235.0
 20
104.8923522616752
 30
0.0
 11
239.36921591277479
 21
109.2615681744501
 31
0.0
  0
LINE
  5
AB
  8
0
  6
CONTINUOUS
 62
     0
 10
231.74999999999989
 20
100.22813869930209
 30
0.0
 11
239.8406204335659
 21
108.3187591328681
 31
0.0
  0
LINE
  5
AC
  8
0
  6
CONTINUOUS
 62
     0
 10
232.9360748630709
 20
100.0
 30
0.0
 11
240.0
 21
107.063925136929
 31
0.0
  0
LINE
  5
AD
  8
0
  6
CONTINUOUS
 62
     0
 10
234.35028842544401
 20
100.0
 30
0.0
 11
240.0
 21
105.64971157455589
 31
0.0
  0
LINE
  5
AE
  8
0
  6
CONTINUOUS
 62
     0
 10
235.76450198781711
 20
100.0
 30
0.0
 11
240.0
 21
104.2354980121828
 31
0.0
  0
LINE
  5
AF
  8
0
  6
CONTINUOUS
 62
     0
 10
237.17871555019019
 20
100.0
 30
0.0
 11
240.0
 21
102.8212844498098
 31
0.0
  0
LINE
  5
B0
  8
0
  6
CONTINUOUS
 62
     0
 10
238.5929291125633
 20
100.0
 30
0.0
 11
240.0
 21
101.4070708874367
 31
0.0
  0
CIRCLE
  5
B1
  8
0
  6
CONTINUOUS
 10
230.0
 20
70.0
 30
0.0
 40
10.0
  0
CIRCLE
  5
B2
  8
0
  6
CONTINUOUS
 10
230.0
 20
70.0
 30
0.0
 40
9.0
  0
CIRCLE
  5
B3
  8
0
  6
CONTINUOUS
 10
230.0
 20
70.0
 30
0.0
 40
8.0
  0
CIRCLE
  5
B4
  8
0
  6
CONTINUOUS
 10
230.0
 20
70.0
 30
0.0
 40
4.0
  0
CIRCLE
  5
B5
  8
0
  6
CONTINUOUS
 10
172.5
 20
70.0
 30
0.0
 40
10.0
  0
CIRCLE
  5
B6
  8
0
  6
CONTINUOUS
 10
116.0
 20
70.0
 30
0.0
 40
13.0
  0
LINE
  5
B7
  8
0
  6
CONTINUOUS
 10
233.74999999999989
 20
71.391941090707505
 30
0.0
 11
233.74999999999989
 21
68.608058909292467
 31
0.0
  0
LINE
  5
B8
  8
0
  6
CONTINUOUS
 10
226.25
 20
71.391941090707505
 30
0.0
 11
226.25
 21
68.608058909292467
 31
0.0
  0
LINE
  5
B9
  8
0
  6
CENTER2
 10
217.0
 20
70.0
 30
0.0
 11
243.0
 21
70.0
 31
0.0
  0
LINE
  5
BA
  8
0
  6
CENTER2
 10
230.0
 20
83.0
 30
0.0
 11
230.0
 21
57.0
 31
0.0
  0
LINE
  5
BB
  8
0
  6
CONTINUOUS
 10
280.5
 20
100.0
 30
0.0
 11
295.5
 21
100.0
 31
0.0
  0
LINE
  5
BC
  8
0
  6
CONTINUOUS
 10
295.5
 20
108.0
 30
0.0
 11
280.5
 21
108.0
 31
0.0
  0
LINE
  5
BD
  8
0
  6
CONTINUOUS
 10
280.0
 20
107.0
 30
0.0
 11
280.0
 21
100.5
 31
0.0
  0
LINE
  5
BE
  8
0
  6
CONTINUOUS
 10
296.0
 20
100.5
 30
0.0
 11
296.0
 21
107.0
 31
0.0
  0
LINE
  5
BF
  8
0
  6
CONTINUOUS
 10
280.5
 20
108.0
 30
0.0
 11
280.0
 21
107.0
 31
0.0
  0
LINE
  5
C0
  8
0
  6
CONTINUOUS
 10
295.5
 20
108.0
 30
0.0
 11
296.0
 21
107.0
 31
0.0
  0
LINE
  5
C1
  8
0
  6
CONTINUOUS
 10
280.5
 20
100.0
 30
0.0
 11
280.0
 21
100.5
 31
0.0
  0
LINE
  5
C2
  8
0
  6
CONTINUOUS
 10
295.5
 20
100.0
 30
0.0
 11
296.0
 21
100.5
 31
0.0
  0
LINE
  5
C3
  8
0
  6
CENTER2
 10
288.0
 20
97.0
 30
0.0
 11
288.0
 21
111.0
 31
0.0
  0
LINE
  5
C4
  8
0
  6
CONTINUOUS
 10
294.0
 20
106.4999999999999
 30
0.0
 11
294.0
 21
105.4999999999999
 31
0.0
  0
LINE
  5
C5
  8
0
  6
CONTINUOUS
 10
294.0
 20
105.4999999999999
 30
0.0
 11
288.0
 21
105.4999999999999
 31
0.0
  0
LINE
  5
C6
  8
0
  6
CONTINUOUS
 10
291.75
 20
105.4999999999999
 30
0.0
 11
291.75
 21
103.4999999999999
 31
0.0
  0
LINE
  5
C7
  8
0
  6
CONTINUOUS
 10
289.0
 20
100.0
 30
0.0
 11
289.0
 21
102.0
 31
0.0
  0
LINE
  5
C8
  8
0
  6
CONTINUOUS
 10
289.0
 20
102.0
 30
0.0
 11
291.75
 21
103.4999999999999
 31
0.0
  0
LINE
  5
C9
  8
0
  6
CONTINUOUS
 10
291.75
 20
103.4999999999999
 30
0.0
 11
288.0241289381409
 21
103.4999999999999
 31
0.0
  0
LINE
  5
CA
  8
0
  6
CONTINUOUS
 10
289.0
 20
102.0
 30
0.0
 11
288.0
 21
102.0
 31
0.0
  0
LINE
  5
CB
  8
0
  6
CONTINUOUS
 10
291.0
 20
108.0
 30
0.0
 11
291.0
 21
106.4999999999999
 31
0.0
  0
LINE
  5
CC
  8
0
  6
CONTINUOUS
 62
     0
 10
292.30822458921278
 20
106.4999999999999
 30
0.0
 11
291.0
 21
107.8082245892127
 31
0.0
  0
LINE
  5
CD
  8
0
  6
CONTINUOUS
 62
     0
 10
293.72243815158589
 20
106.4999999999999
 30
0.0
 11
292.22243815158578
 21
108.0
 31
0.0
  0
LINE
  5
CE
  8
0
  6
CONTINUOUS
 62
     0
 10
295.0
 20
106.636651713959
 30
0.0
 11
293.63665171395888
 21
108.0
 31
0.0
  0
LINE
  5
CF
  8
0
  6
CONTINUOUS
 62
     0
 10
291.75
 20
105.0738097667514
 30
0.0
 11
292.17619023324852
 21
105.4999999999999
 31
0.0
  0
LINE
  5
D0
  8
0
  6
CONTINUOUS
 62
     0
 10
294.0
 20
105.9095962043783
 30
0.0
 11
294.59040379562163
 21
106.4999999999999
 31
0.0
  0
LINE
  5
D1
  8
0
  6
CONTINUOUS
 62
     0
 10
289.0
 20
100.9095962043784
 30
0.0
 11
291.39888835036749
 21
103.3084845547459
 31
0.0
  0
LINE
  5
D2
  8
0
  6
CONTINUOUS
 62
     0
 10
289.50461735799468
 20
100.0
 30
0.0
 11
296.0
 21
106.4953826420052
 31
0.0
  0
LINE
  5
D3
  8
0
  6
CONTINUOUS
 62
     0
 10
290.91883092036778
 20
100.0
 30
0.0
 11
296.0
 21
105.0811690796321
 31
0.0
  0
LINE
  5
D4
  8
0
  6
CONTINUOUS
 62
     0
 10
292.33304448274089
 20
100.0
 30
0.0
 11
296.0
 21
103.6669555172591
 31
0.0
  0
LINE
  5
D5
  8
0
  6
CONTINUOUS
 62
     0
 10
293.74725804511399
 20
100.0
 30
0.0
 11
296.0
 21
102.25274195488591
 31
0.0
  0
LINE
  5
D6
  8
0
  6
CONTINUOUS
 62
     0
 10
295.1614716074871
 20
100.0
 30
0.0
 11
296.0
 21
100.8385283925129
 31
0.0
  0
LINE
  5
D7
  8
0
  6
CONTINUOUS
 62
     0
 10
291.75
 20
103.6595962043783
 30
0.0
 11
293.59040379562163
 21
105.4999999999999
 31
0.0
  0
LINE
  5
D8
  8
0
  6
CONTINUOUS
 10
288.0
 20
106.4999999999999
 30
0.0
 11
295.0
 21
106.4999999999999
 31
0.0
  0
LINE
  5
D9
  8
0
  6
CONTINUOUS
 10
295.0
 20
106.4999999999999
 30
0.0
 11
295.0
 21
108.0
 31
0.0
  0
LINE
  5
DA
  8
0
  6
CONTINUOUS
 62
     0
 10
295.0
 20
106.9095962043783
 30
0.0
 11
295.69680126520723
 21
107.6063974695855
 31
0.0
  0
CIRCLE
  5
DB
  8
0
  6
CONTINUOUS
 10
293.5
 20
106.0
 30
0.0
 40
0.5
  0
CIRCLE
  5
DC
  8
0
  6
CONTINUOUS
 10
291.0
 20
106.0
 30
0.0
 40
0.5
  0
CIRCLE
  5
DD
  8
0
  6
CONTINUOUS
 10
288.0
 20
70.0
 30
0.0
 40
8.0
  0
CIRCLE
  5
DE
  8
0
  6
CONTINUOUS
 10
288.0
 20
70.0
 30
0.0
 40
7.5
  0
CIRCLE
  5
DF
  8
0
  6
CONTINUOUS
 10
288.0
 20
70.0
 30
0.0
 40
7.0
  0
CIRCLE
  5
E0
  8
0
  6
CONTINUOUS
 10
288.0
 20
70.0
 30
0.0
 40
3.0
  0
LINE
  5
E1
  8
0
  6
CONTINUOUS
 10
290.5
 20
71.658312395177703
 30
0.0
 11
290.5
 21
68.341687604822326
 31
0.0
  0
LINE
  5
E2
  8
0
  6
CONTINUOUS
 10
285.5
 20
71.658312395177703
 30
0.0
 11
285.5
 21
68.341687604822326
 31
0.0
  0
LINE
  5
E3
  8
0
  6
CENTER2
 10
277.0
 20
70.0
 30
0.0
 11
299.0
 21
70.0
 31
0.0
  0
LINE
  5
E4
  8
0
  6
CENTER2
 10
288.0
 20
81.0
 30
0.0
 11
288.0
 21
59.0
 31
0.0
  0
LINE
  5
E5
  8
0
  6
CONTINUOUS
 10
220.0
 20
108.0
 30
0.0
 11
230.0
 21
108.0
 31
0.0
  0
LINE
  5
E6
  8
0
  6
CONTINUOUS
 10
280.0
 20
107.0
 30
0.0
 11
288.0
 21
107.0
 31
0.0
  0
ENDSEC
  0
EOF
