  0
SECTION
  2
HEADER
  9
$ACADVER
  1
AC1009
  9
$INSBASE
 10
0.0
 20
0.0
 30
0.0
  9
$EXTMIN
 10
-127.152214
 20
-143.669155
 30
0.0
  9
$EXTMAX
 10
34.044787
 20
-11.372993
 30
0.0
  9
$LIMMIN
 10
0.0
 20
0.0
  9
$LIMMAX
 10
12.0
 20
9.0
  9
$ORTHOMODE
 70
     1
  9
$REGENMODE
 70
     1
  9
$FILLMODE
 70
     1
  9
$QTEXTMODE
 70
     0
  9
$MIRRTEXT
 70
     1
  9
$DRAGMODE
 70
     2
  9
$LTSCALE
 40
5.0
  9
$OSMODE
 70
     0
  9
$ATTMODE
 70
     1
  9
$TEXTSIZE
 40
0.2
  9
$TRACEWID
 40
0.05
  9
$TEXTSTYLE
  7
STANDARD
  9
$CLAYER
  8
0
  9
$CELTYPE
  6
BYLAYER
  9
$CECOLOR
 62
   256
  9
$DIMSCALE
 40
1.0
  9
$DIMASZ
 40
2.5
  9
$DIMEXO
 40
0.0
  9
$DIMDLI
 40
5.0
  9
$DIMRND
 40
0.0
  9
$DIMDLE
 40
0.0
  9
$DIMEXE
 40
1.0
  9
$DIMTP
 40
0.0
  9
$DIMTM
 40
0.0
  9
$DIMTXT
 40
2.5
  9
$DIMCEN
 40
0.09
  9
$DIMTSZ
 40
0.0
  9
$DIMTOL
 70
     0
  9
$DIMLIM
 70
     0
  9
$DIMTIH
 70
     0
  9
$DIMTOH
 70
     0
  9
$DIMSE1
 70
     0
  9
$DIMSE2
 70
     0
  9
$DIMTAD
 70
     1
  9
$DIMZIN
 70
     0
  9
$DIMBLK
  1

  9
$DIMASO
 70
     0
  9
$DIMSHO
 70
     0
  9
$DIMPOST
  1

  9
$DIMAPOST
  1

  9
$DIMALT
 70
     0
  9
$DIMALTD
 70
     2
  9
$DIMALTF
 40
25.4
  9
$DIMLFAC
 40
1.0
  9
$DIMTOFL
 70
     1
  9
$DIMTVP
 40
0.0
  9
$DIMTIX
 70
     0
  9
$DIMSOXD
 70
     0
  9
$DIMSAH
 70
     0
  9
$DIMBLK1
  1

  9
$DIMBLK2
  1

  9
$DIMSTYLE
  2
*UNNAMED
  9
$DIMCLRD
 70
     0
  9
$DIMCLRE
 70
     0
  9
$DIMCLRT
 70
     0
  9
$DIMTFAC
 40
1.0
  9
$DIMGAP
 40
0.09
  9
$LUNITS
 70
     2
  9
$LUPREC
 70
     4
  9
$SKETCHINC
 40
0.1
  9
$FILLETRAD
 40
0.0
  9
$AUNITS
 70
     0
  9
$AUPREC
 70
     0
  9
$MENU
  1
wiberger
  9
$ELEVATION
 40
0.0
  9
$PELEVATION
 40
0.0
  9
$THICKNESS
 40
0.0
  9
$LIMCHECK
 70
     0
  9
$BLIPMODE
 70
     1
  9
$CHAMFERA
 40
1.5
  9
$CHAMFERB
 40
1.5
  9
$SKPOLY
 70
     0
  9
$TDCREATE
 40
2450191.410933565
  9
$TDUPDATE
 40
2450218.584392592
  9
$TDINDWG
 40
0.0195405093
  9
$TDUSRTIMER
 40
0.0195405093
  9
$USRTIMER
 70
     1
  9
$ANGBASE
 50
0.0
  9
$ANGDIR
 70
     0
  9
$PDMODE
 70
     3
  9
$PDSIZE
 40
0.3
  9
$PLINEWID
 40
0.0
  9
$COORDS
 70
     0
  9
$SPLFRAME
 70
     0
  9
$SPLINETYPE
 70
     6
  9
$SPLINESEGS
 70
     8
  9
$ATTDIA
 70
     0
  9
$ATTREQ
 70
     1
  9
$HANDLING
 70
     0
  9
$HANDSEED
  5
0
  9
$SURFTAB1
 70
     6
  9
$SURFTAB2
 70
     6
  9
$SURFTYPE
 70
     6
  9
$SURFU
 70
     6
  9
$SURFV
 70
     6
  9
$UCSNAME
  2

  9
$UCSORG
 10
0.0
 20
0.0
 30
0.0
  9
$UCSXDIR
 10
1.0
 20
0.0
 30
0.0
  9
$UCSYDIR
 10
0.0
 20
1.0
 30
0.0
  9
$PUCSNAME
  2

  9
$PUCSORG
 10
0.0
 20
0.0
 30
0.0
  9
$PUCSXDIR
 10
1.0
 20
0.0
 30
0.0
  9
$PUCSYDIR
 10
0.0
 20
1.0
 30
0.0
  9
$USERI1
 70
     0
  9
$USERI2
 70
     0
  9
$USERI3
 70
     0
  9
$USERI4
 70
     0
  9
$USERI5
 70
     0
  9
$USERR1
 40
0.0
  9
$USERR2
 40
0.0
  9
$USERR3
 40
0.0
  9
$USERR4
 40
0.0
  9
$USERR5
 40
0.0
  9
$WORLDVIEW
 70
     1
  9
$SHADEDGE
 70
     3
  9
$SHADEDIF
 70
    70
  9
$TILEMODE
 70
     1
  9
$MAXACTVP
 70
    16
  9
$PINSBASE
 10
0.0
 20
0.0
 30
0.0
  9
$PLIMCHECK
 70
     0
  9
$PEXTMIN
 10
1.000000E+20
 20
1.000000E+20
 30
1.000000E+20
  9
$PEXTMAX
 10
-1.000000E+20
 20
-1.000000E+20
 30
-1.000000E+20
  9
$PLIMMIN
 10
0.0
 20
0.0
  9
$PLIMMAX
 10
12.0
 20
9.0
  9
$UNITMODE
 70
     0
  9
$VISRETAIN
 70
     0
  9
$PLINEGEN
 70
     0
  9
$PSLTSCALE
 70
     0
  9
$TREEDEPTH
 70
  3020
  9
$DWGCODEPAGE
  3
undefined
  0
ENDSEC
  0
SECTION
  2
TABLES
  0
TABLE
  2
VPORT
 70
     2
  0
VPORT
  2
*ACTIVE
 70
     0
 10
0.0
 20
0.0
 11
1.0
 21
1.0
 12
-7.441381
 22
-77.521074
 13
0.0
 23
0.0
 14
1.0
 24
1.0
 15
0.0
 25
0.0
 16
0.0
 26
0.0
 36
1.0
 17
0.0
 27
0.0
 37
0.0
 40
146.995735
 41
1.767507
 42
50.0
 43
0.0
 44
0.0
 50
0.0
 51
0.0
 71
     0
 72
   100
 73
     1
 74
     0
 75
     0
 76
     0
 77
     0
 78
     0
  0
ENDTAB
  0
TABLE
  2
LTYPE
 70
     2
  0
LTYPE
  2
CONTINUOUS
 70
    64
  3
Solid line
 72
    65
 73
     0
 40
0.0
  0
LTYPE
  2
CENTER
 70
    64
  3
____ _ ____ _ ____ _ ____ _ ____ _ ____ _ ____
 72
    65
 73
     4
 40
2.0
 49
1.25
 49
-0.25
 49
0.25
 49
-0.25
  0
ENDTAB
  0
TABLE
  2
LAYER
 70
     1
  0
LAYER
  2
0
 70
    64
 62
     7
  6
CONTINUOUS
  0
ENDTAB
  0
TABLE
  2
STYLE
 70
     1
  0
STYLE
  2
STANDARD
 70
     0
 40
0.0
 41
1.0
 50
0.0
 71
     0
 42
0.2
  3
txt
  4

  0
ENDTAB
  0
TABLE
  2
VIEW
 70
     0
  0
ENDTAB
  0
TABLE
  2
UCS
 70
     0
  0
ENDTAB
  0
TABLE
  2
APPID
 70
     1
  0
APPID
  2
ACAD
 70
    64
  0
ENDTAB
  0
TABLE
  2
DIMSTYLE
 70
     0
  0
ENDTAB
  0
ENDSEC
  0
SECTION
  2
BLOCKS
  0
BLOCK
  8
0
  2
*X0
 70
    65
 10
0.0
 20
0.0
 30
0.0
  3
*X
  0
LINE
  8
0
 62
     0
 10
-127.152214
 20
-92.680759
 30
0.0
 11
-126.302214
 21
-91.830759
 31
0.0
  0
LINE
  8
0
 62
     0
 10
-127.152214
 20
-91.796875
 30
0.0
 11
-126.302214
 21
-90.946875
 31
0.0
  0
LINE
  8
0
 62
     0
 10
-127.152214
 20
-90.912992
 30
0.0
 11
-126.302214
 21
-90.062992
 31
0.0
  0
LINE
  8
0
 62
     0
 10
-127.152214
 20
-90.029108
 30
0.0
 11
-126.302214
 21
-89.179108
 31
0.0
  0
LINE
  8
0
 62
     0
 10
-127.152214
 20
-89.145225
 30
0.0
 11
-126.402214
 21
-88.395225
 31
0.0
  0
LINE
  8
0
 62
     0
 10
-127.152214
 20
-88.261341
 30
0.0
 11
-126.402214
 21
-87.511341
 31
0.0
  0
LINE
  8
0
 62
     0
 10
-127.152214
 20
-87.377458
 30
0.0
 11
-126.402214
 21
-86.627458
 31
0.0
  0
LINE
  8
0
 62
     0
 10
-127.152214
 20
-86.493574
 30
0.0
 11
-126.402214
 21
-85.743574
 31
0.0
  0
LINE
  8
0
 62
     0
 10
-127.152214
 20
-85.609691
 30
0.0
 11
-126.402214
 21
-84.859691
 31
0.0
  0
LINE
  8
0
 62
     0
 10
-127.152214
 20
-93.564642
 30
0.0
 11
-126.302214
 21
-92.714642
 31
0.0
  0
LINE
  8
0
 62
     0
 10
-127.152214
 20
-94.448526
 30
0.0
 11
-126.302214
 21
-93.598526
 31
0.0
  0
LINE
  8
0
 62
     0
 10
-127.152214
 20
-95.332409
 30
0.0
 11
-126.302214
 21
-94.482409
 31
0.0
  0
LINE
  8
0
 62
     0
 10
-127.152214
 20
-96.216293
 30
0.0
 11
-126.302214
 21
-95.366293
 31
0.0
  0
LINE
  8
0
 62
     0
 10
-127.152214
 20
-97.100176
 30
0.0
 11
-126.302214
 21
-96.250176
 31
0.0
  0
LINE
  8
0
 62
     0
 10
-127.152214
 20
-97.98406
 30
0.0
 11
-126.302214
 21
-97.13406
 31
0.0
  0
LINE
  8
0
 62
     0
 10
-127.152214
 20
-98.867943
 30
0.0
 11
-126.302214
 21
-98.017943
 31
0.0
  0
LINE
  8
0
 62
     0
 10
-126.416995
 20
-99.016607
 30
0.0
 11
-125.902214
 21
-98.501827
 31
0.0
  0
ENDBLK
  8
0
  0
BLOCK
  8
0
  2
*X1
 70
    65
 10
0.0
 20
0.0
 30
0.0
  3
*X
  0
LINE
  8
0
 62
     0
 10
-119.302903
 20
-91.018632
 30
0.0
 11
-118.352903
 21
-90.068632
 31
0.0
  0
LINE
  8
0
 62
     0
 10
-119.302903
 20
-90.134748
 30
0.0
 11
-118.352903
 21
-89.184748
 31
0.0
  0
LINE
  8
0
 62
     0
 10
-119.302903
 20
-89.250865
 30
0.0
 11
-118.352903
 21
-88.300865
 31
0.0
  0
LINE
  8
0
 62
     0
 10
-119.302903
 20
-88.366981
 30
0.0
 11
-118.352903
 21
-87.416981
 31
0.0
  0
LINE
  8
0
 62
     0
 10
-119.302903
 20
-87.483098
 30
0.0
 11
-118.352903
 21
-86.533098
 31
0.0
  0
LINE
  8
0
 62
     0
 10
-119.302903
 20
-86.599214
 30
0.0
 11
-118.420296
 21
-85.716607
 31
0.0
  0
LINE
  8
0
 62
     0
 10
-119.302903
 20
-85.715331
 30
0.0
 11
-118.552903
 21
-84.965331
 31
0.0
  0
LINE
  8
0
 62
     0
 10
-119.302903
 20
-84.831447
 30
0.0
 11
-118.552903
 21
-84.081447
 31
0.0
  0
LINE
  8
0
 62
     0
 10
-119.302903
 20
-83.947564
 30
0.0
 11
-118.552903
 21
-83.197564
 31
0.0
  0
LINE
  8
0
 62
     0
 10
-119.302903
 20
-83.063681
 30
0.0
 11
-118.552903
 21
-82.313681
 31
0.0
  0
LINE
  8
0
 62
     0
 10
-119.302903
 20
-82.179797
 30
0.0
 11
-118.839713
 21
-81.716607
 31
0.0
  0
LINE
  8
0
 62
     0
 10
-119.302903
 20
-91.902515
 30
0.0
 11
-118.352903
 21
-90.952515
 31
0.0
  0
LINE
  8
0
 62
     0
 10
-119.302903
 20
-92.786399
 30
0.0
 11
-118.352903
 21
-91.836399
 31
0.0
  0
LINE
  8
0
 62
     0
 10
-119.302903
 20
-93.670282
 30
0.0
 11
-118.352903
 21
-92.720282
 31
0.0
  0
LINE
  8
0
 62
     0
 10
-119.302903
 20
-94.554166
 30
0.0
 11
-118.352903
 21
-93.604166
 31
0.0
  0
LINE
  8
0
 62
     0
 10
-119.302903
 20
-95.438049
 30
0.0
 11
-118.352903
 21
-94.488049
 31
0.0
  0
LINE
  8
0
 62
     0
 10
-119.302903
 20
-96.321933
 30
0.0
 11
-118.352903
 21
-95.371933
 31
0.0
  0
LINE
  8
0
 62
     0
 10
-119.302903
 20
-97.205816
 30
0.0
 11
-118.352903
 21
-96.255816
 31
0.0
  0
LINE
  8
0
 62
     0
 10
-119.302903
 20
-98.0897
 30
0.0
 11
-118.352903
 21
-97.1397
 31
0.0
  0
LINE
  8
0
 62
     0
 10
-118.945927
 20
-98.616607
 30
0.0
 11
-118.352903
 21
-98.023583
 31
0.0
  0
ENDBLK
  8
0
  0
BLOCK
  8
0
  2
*X2
 70
    65
 10
0.0
 20
0.0
 30
0.0
  3
*X
  0
LINE
  8
0
 62
     0
 10
-108.448129
 20
-90.77046
 30
0.0
 11
-107.198129
 21
-89.52046
 31
0.0
  0
LINE
  8
0
 62
     0
 10
-108.448129
 20
-89.886576
 30
0.0
 11
-107.198129
 21
-88.636576
 31
0.0
  0
LINE
  8
0
 62
     0
 10
-108.448129
 20
-89.002693
 30
0.0
 11
-107.198129
 21
-87.752693
 31
0.0
  0
LINE
  8
0
 62
     0
 10
-108.448129
 20
-88.118809
 30
0.0
 11
-107.198129
 21
-86.868809
 31
0.0
  0
LINE
  8
0
 62
     0
 10
-108.448129
 20
-87.234926
 30
0.0
 11
-107.198129
 21
-85.984926
 31
0.0
  0
LINE
  8
0
 62
     0
 10
-108.448129
 20
-86.351042
 30
0.0
 11
-107.198129
 21
-85.101042
 31
0.0
  0
LINE
  8
0
 62
     0
 10
-108.448129
 20
-85.467159
 30
0.0
 11
-107.198129
 21
-84.217159
 31
0.0
  0
LINE
  8
0
 62
     0
 10
-108.448129
 20
-84.583275
 30
0.0
 11
-107.448129
 21
-83.583275
 31
0.0
  0
LINE
  8
0
 62
     0
 10
-108.448129
 20
-83.699392
 30
0.0
 11
-107.448129
 21
-82.699392
 31
0.0
  0
LINE
  8
0
 62
     0
 10
-108.448129
 20
-82.815508
 30
0.0
 11
-107.448129
 21
-81.815508
 31
0.0
  0
LINE
  8
0
 62
     0
 10
-108.448129
 20
-81.931625
 30
0.0
 11
-107.448129
 21
-80.931625
 31
0.0
  0
LINE
  8
0
 62
     0
 10
-108.448129
 20
-81.047741
 30
0.0
 11
-107.448129
 21
-80.047741
 31
0.0
  0
LINE
  8
0
 62
     0
 10
-108.448129
 20
-91.654343
 30
0.0
 11
-107.198129
 21
-90.404343
 31
0.0
  0
LINE
  8
0
 62
     0
 10
-108.448129
 20
-92.538227
 30
0.0
 11
-107.198129
 21
-91.288227
 31
0.0
  0
LINE
  8
0
 62
     0
 10
-108.448129
 20
-93.42211
 30
0.0
 11
-107.198129
 21
-92.17211
 31
0.0
  0
LINE
  8
0
 62
     0
 10
-108.448129
 20
-94.305994
 30
0.0
 11
-107.198129
 21
-93.055994
 31
0.0
  0
LINE
  8
0
 62
     0
 10
-108.448129
 20
-95.189877
 30
0.0
 11
-107.198129
 21
-93.939877
 31
0.0
  0
LINE
  8
0
 62
     0
 10
-108.448129
 20
-96.073761
 30
0.0
 11
-107.198129
 21
-94.823761
 31
0.0
  0
LINE
  8
0
 62
     0
 10
-108.448129
 20
-96.957644
 30
0.0
 11
-107.198129
 21
-95.707644
 31
0.0
  0
LINE
  8
0
 62
     0
 10
-108.448129
 20
-97.841527
 30
0.0
 11
-107.198129
 21
-96.591527
 31
0.0
  0
LINE
  8
0
 62
     0
 10
-108.448129
 20
-98.725411
 30
0.0
 11
-107.198129
 21
-97.475411
 31
0.0
  0
LINE
  8
0
 62
     0
 10
-107.855442
 20
-99.016607
 30
0.0
 11
-107.055442
 21
-98.216607
 31
0.0
  0
LINE
  8
0
 62
     0
 10
-106.971558
 20
-99.016607
 30
0.0
 11
-106.798129
 21
-98.843178
 31
0.0
  0
ENDBLK
  8
0
  0
BLOCK
  8
0
  2
*X3
 70
    65
 10
0.0
 20
0.0
 30
0.0
  3
*X
  0
LINE
  8
0
 62
     0
 10
-80.087526
 20
-88.572807
 30
0.0
 11
-77.687526
 21
-86.172807
 31
0.0
  0
LINE
  8
0
 62
     0
 10
-80.087526
 20
-87.158594
 30
0.0
 11
-77.687526
 21
-84.758594
 31
0.0
  0
LINE
  8
0
 62
     0
 10
-80.087526
 20
-85.74438
 30
0.0
 11
-78.059753
 21
-83.716607
 31
0.0
  0
LINE
  8
0
 62
     0
 10
-80.087526
 20
-84.330167
 30
0.0
 11
-78.087526
 21
-82.330167
 31
0.0
  0
LINE
  8
0
 62
     0
 10
-80.087526
 20
-82.915953
 30
0.0
 11
-78.087526
 21
-80.915953
 31
0.0
  0
LINE
  8
0
 62
     0
 10
-80.087526
 20
-81.501739
 30
0.0
 11
-78.087526
 21
-79.501739
 31
0.0
  0
LINE
  8
0
 62
     0
 10
-80.087526
 20
-80.087526
 30
0.0
 11
-78.087526
 21
-78.087526
 31
0.0
  0
LINE
  8
0
 62
     0
 10
-80.087526
 20
-78.673312
 30
0.0
 11
-79.130821
 21
-77.716607
 31
0.0
  0
LINE
  8
0
 62
     0
 10
-80.087526
 20
-89.987021
 30
0.0
 11
-77.687526
 21
-87.587021
 31
0.0
  0
LINE
  8
0
 62
     0
 10
-80.087526
 20
-91.401234
 30
0.0
 11
-77.687526
 21
-89.001234
 31
0.0
  0
LINE
  8
0
 62
     0
 10
-80.087526
 20
-92.815448
 30
0.0
 11
-77.687526
 21
-90.415448
 31
0.0
  0
LINE
  8
0
 62
     0
 10
-80.087526
 20
-94.229661
 30
0.0
 11
-77.687526
 21
-91.829661
 31
0.0
  0
LINE
  8
0
 62
     0
 10
-80.087526
 20
-95.643875
 30
0.0
 11
-77.687526
 21
-93.243875
 31
0.0
  0
LINE
  8
0
 62
     0
 10
-80.087526
 20
-97.058089
 30
0.0
 11
-77.687526
 21
-94.658089
 31
0.0
  0
LINE
  8
0
 62
     0
 10
-79.831831
 20
-98.216607
 30
0.0
 11
-77.687526
 21
-96.072302
 31
0.0
  0
LINE
  8
0
 62
     0
 10
-78.417617
 20
-98.216607
 30
0.0
 11
-77.687526
 21
-97.486516
 31
0.0
  0
ENDBLK
  8
0
  0
BLOCK
  8
0
  2
*X4
 70
    65
 10
0.0
 20
0.0
 30
0.0
  3
*X
  0
LINE
  8
0
 62
     0
 10
-95.869687
 20
-89.682503
 30
0.0
 11
-94.069687
 21
-87.882503
 31
0.0
  0
LINE
  8
0
 62
     0
 10
-95.869687
 20
-88.79862
 30
0.0
 11
-94.069687
 21
-86.99862
 31
0.0
  0
LINE
  8
0
 62
     0
 10
-95.869687
 20
-87.914736
 30
0.0
 11
-94.069687
 21
-86.114736
 31
0.0
  0
LINE
  8
0
 62
     0
 10
-95.869687
 20
-87.030853
 30
0.0
 11
-94.069687
 21
-85.230853
 31
0.0
  0
LINE
  8
0
 62
     0
 10
-95.869687
 20
-86.146969
 30
0.0
 11
-94.069687
 21
-84.346969
 31
0.0
  0
LINE
  8
0
 62
     0
 10
-95.869687
 20
-85.263086
 30
0.0
 11
-94.069687
 21
-83.463086
 31
0.0
  0
LINE
  8
0
 62
     0
 10
-95.869687
 20
-84.379202
 30
0.0
 11
-94.207092
 21
-82.716607
 31
0.0
  0
LINE
  8
0
 62
     0
 10
-95.869687
 20
-83.495319
 30
0.0
 11
-94.369687
 21
-81.995319
 31
0.0
  0
LINE
  8
0
 62
     0
 10
-95.869687
 20
-82.611435
 30
0.0
 11
-94.369687
 21
-81.111435
 31
0.0
  0
LINE
  8
0
 62
     0
 10
-95.869687
 20
-81.727552
 30
0.0
 11
-94.369687
 21
-80.227552
 31
0.0
  0
LINE
  8
0
 62
     0
 10
-95.869687
 20
-80.843668
 30
0.0
 11
-94.369687
 21
-79.343668
 31
0.0
  0
LINE
  8
0
 62
     0
 10
-95.869687
 20
-79.959785
 30
0.0
 11
-94.369687
 21
-78.459785
 31
0.0
  0
LINE
  8
0
 62
     0
 10
-95.869687
 20
-79.075901
 30
0.0
 11
-94.510393
 21
-77.716607
 31
0.0
  0
LINE
  8
0
 62
     0
 10
-95.869687
 20
-90.566387
 30
0.0
 11
-94.069687
 21
-88.766387
 31
0.0
  0
LINE
  8
0
 62
     0
 10
-95.869687
 20
-91.45027
 30
0.0
 11
-94.069687
 21
-89.65027
 31
0.0
  0
LINE
  8
0
 62
     0
 10
-95.869687
 20
-92.334153
 30
0.0
 11
-94.069687
 21
-90.534153
 31
0.0
  0
LINE
  8
0
 62
     0
 10
-95.869687
 20
-93.218037
 30
0.0
 11
-94.069687
 21
-91.418037
 31
0.0
  0
LINE
  8
0
 62
     0
 10
-95.869687
 20
-94.10192
 30
0.0
 11
-94.069687
 21
-92.30192
 31
0.0
  0
LINE
  8
0
 62
     0
 10
-95.869687
 20
-94.985804
 30
0.0
 11
-94.069687
 21
-93.185804
 31
0.0
  0
LINE
  8
0
 62
     0
 10
-95.869687
 20
-95.869687
 30
0.0
 11
-94.069687
 21
-94.069687
 31
0.0
  0
LINE
  8
0
 62
     0
 10
-95.869687
 20
-96.753571
 30
0.0
 11
-94.069687
 21
-94.953571
 31
0.0
  0
LINE
  8
0
 62
     0
 10
-95.869687
 20
-97.637454
 30
0.0
 11
-94.069687
 21
-95.837454
 31
0.0
  0
LINE
  8
0
 62
     0
 10
-95.869687
 20
-98.521338
 30
0.0
 11
-94.069687
 21
-96.721338
 31
0.0
  0
LINE
  8
0
 62
     0
 10
-95.181073
 20
-98.716607
 30
0.0
 11
-93.981073
 21
-97.516607
 31
0.0
  0
LINE
  8
0
 62
     0
 10
-94.29719
 20
-98.716607
 30
0.0
 11
-93.619687
 21
-98.039105
 31
0.0
  0
ENDBLK
  8
0
  0
BLOCK
  8
0
  2
*X5
 70
    65
 10
0.0
 20
0.0
 30
0.0
  3
*X
  0
LINE
  8
0
 62
     0
 10
-62.049036
 20
-86.090666
 30
0.0
 11
-59.499036
 21
-83.540666
 31
0.0
  0
LINE
  8
0
 62
     0
 10
-62.049036
 20
-84.676453
 30
0.0
 11
-59.499036
 21
-82.126453
 31
0.0
  0
LINE
  8
0
 62
     0
 10
-62.049036
 20
-83.262239
 30
0.0
 11
-59.499036
 21
-80.712239
 31
0.0
  0
LINE
  8
0
 62
     0
 10
-62.049036
 20
-81.848026
 30
0.0
 11
-59.917617
 21
-79.716607
 31
0.0
  0
LINE
  8
0
 62
     0
 10
-62.049036
 20
-80.433812
 30
0.0
 11
-60.049036
 21
-78.433812
 31
0.0
  0
LINE
  8
0
 62
     0
 10
-62.049036
 20
-79.019599
 30
0.0
 11
-60.049036
 21
-77.019599
 31
0.0
  0
LINE
  8
0
 62
     0
 10
-62.049036
 20
-77.605385
 30
0.0
 11
-60.049036
 21
-75.605385
 31
0.0
  0
LINE
  8
0
 62
     0
 10
-62.049036
 20
-76.191171
 30
0.0
 11
-60.049036
 21
-74.191171
 31
0.0
  0
LINE
  8
0
 62
     0
 10
-62.049036
 20
-74.776958
 30
0.0
 11
-60.049036
 21
-72.776958
 31
0.0
  0
LINE
  8
0
 62
     0
 10
-62.049036
 20
-73.362744
 30
0.0
 11
-60.402899
 21
-71.716607
 31
0.0
  0
LINE
  8
0
 62
     0
 10
-62.049036
 20
-87.50488
 30
0.0
 11
-59.499036
 21
-84.95488
 31
0.0
  0
LINE
  8
0
 62
     0
 10
-62.049036
 20
-88.919093
 30
0.0
 11
-59.499036
 21
-86.369093
 31
0.0
  0
LINE
  8
0
 62
     0
 10
-62.049036
 20
-90.333307
 30
0.0
 11
-59.499036
 21
-87.783307
 31
0.0
  0
LINE
  8
0
 62
     0
 10
-62.049036
 20
-91.747521
 30
0.0
 11
-59.499036
 21
-89.197521
 31
0.0
  0
LINE
  8
0
 62
     0
 10
-62.049036
 20
-93.161734
 30
0.0
 11
-59.499036
 21
-90.611734
 31
0.0
  0
LINE
  8
0
 62
     0
 10
-62.049036
 20
-94.575948
 30
0.0
 11
-59.499036
 21
-92.025948
 31
0.0
  0
LINE
  8
0
 62
     0
 10
-62.049036
 20
-95.990161
 30
0.0
 11
-59.499036
 21
-93.440161
 31
0.0
  0
LINE
  8
0
 62
     0
 10
-62.049036
 20
-97.404375
 30
0.0
 11
-59.499036
 21
-94.854375
 31
0.0
  0
LINE
  8
0
 62
     0
 10
-60.947054
 20
-97.716607
 30
0.0
 11
-59.499036
 21
-96.268588
 31
0.0
  0
LINE
  8
0
 62
     0
 10
-59.532841
 20
-97.716607
 30
0.0
 11
-59.049036
 21
-97.232802
 31
0.0
  0
ENDBLK
  8
0
  0
BLOCK
  8
0
  2
*X6
 70
    65
 10
0.0
 20
0.0
 30
0.0
  3
*X
  0
LINE
  8
0
 62
     0
 10
-43.168252
 20
-84.180446
 30
0.0
 11
-39.518252
 21
-80.530446
 31
0.0
  0
LINE
  8
0
 62
     0
 10
-43.168252
 20
-82.766232
 30
0.0
 11
-39.518252
 21
-79.116232
 31
0.0
  0
LINE
  8
0
 62
     0
 10
-43.168252
 20
-81.352019
 30
0.0
 11
-39.532841
 21
-77.716607
 31
0.0
  0
LINE
  8
0
 62
     0
 10
-43.168252
 20
-79.937805
 30
0.0
 11
-40.168252
 21
-76.937805
 31
0.0
  0
LINE
  8
0
 62
     0
 10
-43.168252
 20
-78.523592
 30
0.0
 11
-40.168252
 21
-75.523592
 31
0.0
  0
LINE
  8
0
 62
     0
 10
-43.168252
 20
-77.109378
 30
0.0
 11
-40.168252
 21
-74.109378
 31
0.0
  0
LINE
  8
0
 62
     0
 10
-43.168252
 20
-75.695164
 30
0.0
 11
-40.168252
 21
-72.695164
 31
0.0
  0
LINE
  8
0
 62
     0
 10
-43.168252
 20
-74.280951
 30
0.0
 11
-40.168252
 21
-71.280951
 31
0.0
  0
LINE
  8
0
 62
     0
 10
-43.168252
 20
-72.866737
 30
0.0
 11
-40.168252
 21
-69.866737
 31
0.0
  0
LINE
  8
0
 62
     0
 10
-43.168252
 20
-71.452524
 30
0.0
 11
-40.168252
 21
-68.452524
 31
0.0
  0
LINE
  8
0
 62
     0
 10
-43.168252
 20
-70.03831
 30
0.0
 11
-40.846549
 21
-67.716607
 31
0.0
  0
LINE
  8
0
 62
     0
 10
-43.168252
 20
-85.594659
 30
0.0
 11
-39.518252
 21
-81.944659
 31
0.0
  0
LINE
  8
0
 62
     0
 10
-43.168252
 20
-87.008873
 30
0.0
 11
-39.518252
 21
-83.358873
 31
0.0
  0
LINE
  8
0
 62
     0
 10
-43.168252
 20
-88.423086
 30
0.0
 11
-39.518252
 21
-84.773086
 31
0.0
  0
LINE
  8
0
 62
     0
 10
-43.168252
 20
-89.8373
 30
0.0
 11
-39.518252
 21
-86.1873
 31
0.0
  0
LINE
  8
0
 62
     0
 10
-43.168252
 20
-91.251514
 30
0.0
 11
-39.518252
 21
-87.601514
 31
0.0
  0
LINE
  8
0
 62
     0
 10
-43.168252
 20
-92.665727
 30
0.0
 11
-39.518252
 21
-89.015727
 31
0.0
  0
LINE
  8
0
 62
     0
 10
-43.168252
 20
-94.079941
 30
0.0
 11
-39.518252
 21
-90.429941
 31
0.0
  0
LINE
  8
0
 62
     0
 10
-43.168252
 20
-95.494154
 30
0.0
 11
-39.518252
 21
-91.844154
 31
0.0
  0
LINE
  8
0
 62
     0
 10
-42.976492
 20
-96.716607
 30
0.0
 11
-39.518252
 21
-93.258368
 31
0.0
  0
LINE
  8
0
 62
     0
 10
-41.562278
 20
-96.716607
 30
0.0
 11
-39.518252
 21
-94.672581
 31
0.0
  0
LINE
  8
0
 62
     0
 10
-40.148065
 20
-96.716607
 30
0.0
 11
-39.518252
 21
-96.086795
 31
0.0
  0
ENDBLK
  8
0
  0
BLOCK
  8
0
  2
*X7
 70
    65
 10
0.0
 20
0.0
 30
0.0
  3
*X
  0
LINE
  8
0
 62
     0
 10
10.044787
 20
-74.808027
 30
0.0
 11
14.944787
 21
-69.908027
 31
0.0
  0
LINE
  8
0
 62
     0
 10
10.044787
 20
-73.04026
 30
0.0
 11
14.944787
 21
-68.14026
 31
0.0
  0
LINE
  8
0
 62
     0
 10
10.044787
 20
-71.272493
 30
0.0
 11
14.944787
 21
-66.372493
 31
0.0
  0
LINE
  8
0
 62
     0
 10
10.044787
 20
-69.504726
 30
0.0
 11
14.944787
 21
-64.604726
 31
0.0
  0
LINE
  8
0
 62
     0
 10
10.044787
 20
-67.736959
 30
0.0
 11
14.065139
 21
-63.716607
 31
0.0
  0
LINE
  8
0
 62
     0
 10
10.044787
 20
-65.969192
 30
0.0
 11
14.044787
 21
-61.969192
 31
0.0
  0
LINE
  8
0
 62
     0
 10
10.044787
 20
-64.201425
 30
0.0
 11
14.044787
 21
-60.201425
 31
0.0
  0
LINE
  8
0
 62
     0
 10
10.044787
 20
-62.433658
 30
0.0
 11
14.044787
 21
-58.433658
 31
0.0
  0
LINE
  8
0
 62
     0
 10
10.044787
 20
-60.665891
 30
0.0
 11
14.044787
 21
-56.665891
 31
0.0
  0
LINE
  8
0
 62
     0
 10
10.044787
 20
-58.898124
 30
0.0
 11
14.044787
 21
-54.898124
 31
0.0
  0
LINE
  8
0
 62
     0
 10
10.044787
 20
-57.130357
 30
0.0
 11
14.044787
 21
-53.130357
 31
0.0
  0
LINE
  8
0
 62
     0
 10
10.044787
 20
-55.36259
 30
0.0
 11
14.044787
 21
-51.36259
 31
0.0
  0
LINE
  8
0
 62
     0
 10
10.044787
 20
-53.594823
 30
0.0
 11
14.044787
 21
-49.594823
 31
0.0
  0
LINE
  8
0
 62
     0
 10
10.044787
 20
-51.827056
 30
0.0
 11
14.044787
 21
-47.827056
 31
0.0
  0
LINE
  8
0
 62
     0
 10
10.044787
 20
-50.059289
 30
0.0
 11
12.387469
 21
-47.716607
 31
0.0
  0
LINE
  8
0
 62
     0
 10
10.044787
 20
-76.575794
 30
0.0
 11
14.944787
 21
-71.675794
 31
0.0
  0
LINE
  8
0
 62
     0
 10
10.044787
 20
-78.34356
 30
0.0
 11
14.944787
 21
-73.44356
 31
0.0
  0
LINE
  8
0
 62
     0
 10
10.044787
 20
-80.111327
 30
0.0
 11
14.944787
 21
-75.211327
 31
0.0
  0
LINE
  8
0
 62
     0
 10
10.044787
 20
-81.879094
 30
0.0
 11
14.944787
 21
-76.979094
 31
0.0
  0
LINE
  8
0
 62
     0
 10
10.044787
 20
-83.646861
 30
0.0
 11
14.944787
 21
-78.746861
 31
0.0
  0
LINE
  8
0
 62
     0
 10
10.044787
 20
-85.414628
 30
0.0
 11
14.944787
 21
-80.514628
 31
0.0
  0
LINE
  8
0
 62
     0
 10
10.044787
 20
-87.182395
 30
0.0
 11
14.944787
 21
-82.282395
 31
0.0
  0
LINE
  8
0
 62
     0
 10
10.044787
 20
-88.950162
 30
0.0
 11
14.944787
 21
-84.050162
 31
0.0
  0
LINE
  8
0
 62
     0
 10
10.044787
 20
-90.717929
 30
0.0
 11
14.944787
 21
-85.817929
 31
0.0
  0
LINE
  8
0
 62
     0
 10
10.044787
 20
-92.485696
 30
0.0
 11
14.944787
 21
-87.585696
 31
0.0
  0
LINE
  8
0
 62
     0
 10
10.044787
 20
-94.253463
 30
0.0
 11
14.944787
 21
-89.353463
 31
0.0
  0
LINE
  8
0
 62
     0
 10
10.044787
 20
-96.02123
 30
0.0
 11
14.944787
 21
-91.12123
 31
0.0
  0
LINE
  8
0
 62
     0
 10
11.317177
 20
-96.516607
 30
0.0
 11
14.944787
 21
-92.888997
 31
0.0
  0
LINE
  8
0
 62
     0
 10
13.084944
 20
-96.516607
 30
0.0
 11
15.084944
 21
-94.516607
 31
0.0
  0
LINE
  8
0
 62
     0
 10
14.852711
 20
-96.516607
 30
0.0
 11
16.044787
 21
-95.324531
 31
0.0
  0
ENDBLK
  8
0
  0
BLOCK
  8
0
  2
*X8
 70
    65
 10
0.0
 20
0.0
 30
0.0
  3
*X
  0
LINE
  8
0
 62
     0
 10
-18.252003
 20
-80.123847
 30
0.0
 11
-14.352003
 21
-76.223847
 31
0.0
  0
LINE
  8
0
 62
     0
 10
-18.252003
 20
-78.35608
 30
0.0
 11
-14.352003
 21
-74.45608
 31
0.0
  0
LINE
  8
0
 62
     0
 10
-18.252003
 20
-76.588313
 30
0.0
 11
-14.352003
 21
-72.688313
 31
0.0
  0
LINE
  8
0
 62
     0
 10
-18.252003
 20
-74.820546
 30
0.0
 11
-15.148065
 21
-71.716607
 31
0.0
  0
LINE
  8
0
 62
     0
 10
-18.252003
 20
-73.052779
 30
0.0
 11
-15.252003
 21
-70.052779
 31
0.0
  0
LINE
  8
0
 62
     0
 10
-18.252003
 20
-71.285012
 30
0.0
 11
-15.252003
 21
-68.285012
 31
0.0
  0
LINE
  8
0
 62
     0
 10
-18.252003
 20
-69.517245
 30
0.0
 11
-15.252003
 21
-66.517245
 31
0.0
  0
LINE
  8
0
 62
     0
 10
-18.252003
 20
-67.749478
 30
0.0
 11
-15.252003
 21
-64.749478
 31
0.0
  0
LINE
  8
0
 62
     0
 10
-18.252003
 20
-65.981711
 30
0.0
 11
-15.252003
 21
-62.981711
 31
0.0
  0
LINE
  8
0
 62
     0
 10
-18.252003
 20
-64.213944
 30
0.0
 11
-15.252003
 21
-61.213944
 31
0.0
  0
LINE
  8
0
 62
     0
 10
-18.252003
 20
-62.446177
 30
0.0
 11
-15.522433
 21
-59.716607
 31
0.0
  0
LINE
  8
0
 62
     0
 10
-18.252003
 20
-81.891614
 30
0.0
 11
-14.352003
 21
-77.991614
 31
0.0
  0
LINE
  8
0
 62
     0
 10
-18.252003
 20
-83.659381
 30
0.0
 11
-14.352003
 21
-79.759381
 31
0.0
  0
LINE
  8
0
 62
     0
 10
-18.252003
 20
-85.427148
 30
0.0
 11
-14.352003
 21
-81.527148
 31
0.0
  0
LINE
  8
0
 62
     0
 10
-18.252003
 20
-87.194915
 30
0.0
 11
-14.352003
 21
-83.294915
 31
0.0
  0
LINE
  8
0
 62
     0
 10
-18.252003
 20
-88.962681
 30
0.0
 11
-14.352003
 21
-85.062681
 31
0.0
  0
LINE
  8
0
 62
     0
 10
-18.252003
 20
-90.730448
 30
0.0
 11
-14.352003
 21
-86.830448
 31
0.0
  0
LINE
  8
0
 62
     0
 10
-18.252003
 20
-92.498215
 30
0.0
 11
-14.352003
 21
-88.598215
 31
0.0
  0
LINE
  8
0
 62
     0
 10
-18.252003
 20
-94.265982
 30
0.0
 11
-14.352003
 21
-90.365982
 31
0.0
  0
LINE
  8
0
 62
     0
 10
-18.252003
 20
-96.033749
 30
0.0
 11
-14.352003
 21
-92.133749
 31
0.0
  0
LINE
  8
0
 62
     0
 10
-17.167094
 20
-96.716607
 30
0.0
 11
-14.352003
 21
-93.901516
 31
0.0
  0
LINE
  8
0
 62
     0
 10
-15.399327
 20
-96.716607
 30
0.0
 11
-13.252003
 21
-94.569283
 31
0.0
  0
LINE
  8
0
 62
     0
 10
-13.63156
 20
-96.716607
 30
0.0
 11
-13.252003
 21
-96.33705
 31
0.0
  0
ENDBLK
  8
0
  0
ENDSEC
  0
SECTION
  2
ENTITIES
  0
LINE
  8
0
 10
-127.152214
 20
-85.066607
 30
0.0
 11
-127.152214
 21
-99.366607
 31
0.0
  0
LINE
  8
0
 10
-123.152214
 20
-85.066607
 30
0.0
 11
-123.152214
 21
-99.366607
 31
0.0
  0
LINE
  8
0
 10
-126.802214
 20
-84.716607
 30
0.0
 11
-123.502214
 21
-84.716607
 31
0.0
  0
LINE
  8
0
 10
-126.802214
 20
-99.716607
 30
0.0
 11
-125.902214
 21
-99.716607
 31
0.0
  0
LINE
  8
0
 10
-125.902214
 20
-98.216607
 30
0.0
 11
-125.902214
 21
-100.466607
 31
0.0
  0
LINE
  8
0
 10
-124.402214
 20
-99.716607
 30
0.0
 11
-124.402214
 21
-100.466607
 31
0.0
  0
ARC
  8
0
 10
-125.152214
 20
-100.466607
 30
0.0
 40
0.75
 50
180.0
 51
0.0
  0
LINE
  8
0
 10
-127.152214
 20
-99.016607
 30
0.0
 11
-125.902214
 21
-99.016607
 31
0.0
  0
LINE
  8
0
 10
-126.302214
 20
-98.216607
 30
0.0
 11
-125.902214
 21
-98.216607
 31
0.0
  0
LINE
  8
0
 10
-126.402214
 20
-84.716607
 30
0.0
 11
-126.402214
 21
-88.716607
 31
0.0
  0
LINE
  8
0
 10
-125.802214
 20
-84.716607
 30
0.0
 11
-125.802214
 21
-87.216607
 31
0.0
  0
LINE
  8
0
 10
-125.802214
 20
-87.216607
 30
0.0
 11
-125.152214
 21
-87.216607
 31
0.0
  0
LINE
  8
0
 10
-125.152214
 20
-99.716607
 30
0.0
 11
-123.502214
 21
-99.716607
 31
0.0
  0
LINE
  8
0
 10
-126.252214
 20
-94.216607
 30
0.0
 11
-125.152214
 21
-94.216607
 31
0.0
  0
LINE
  8
0
 10
-126.402214
 20
-88.716607
 30
0.0
 11
-125.152214
 21
-88.716607
 31
0.0
  0
LINE
  8
0
 10
-126.252214
 20
-94.216607
 30
0.0
 11
-126.252214
 21
-98.216607
 31
0.0
  0
LINE
  8
0
 10
-126.302214
 20
-88.716607
 30
0.0
 11
-126.302214
 21
-98.216607
 31
0.0
  0
LINE
  8
0
 10
-126.146083
 20
-88.731102
 30
0.0
 11
-125.152214
 21
-88.731102
 31
0.0
  0
LINE
  8
0
 10
-125.152214
 20
-89.090714
 30
0.0
 11
-126.146083
 21
-89.408353
 31
0.0
  0
LINE
  8
0
 10
-126.07533
 20
-89.430966
 30
0.0
 11
-125.152214
 21
-89.725992
 31
0.0
  0
LINE
  8
0
 10
-125.152214
 20
-90.445216
 30
0.0
 11
-126.146083
 21
-90.762855
 31
0.0
  0
LINE
  8
0
 10
-126.07533
 20
-90.785468
 30
0.0
 11
-125.152214
 21
-91.080494
 31
0.0
  0
LINE
  8
0
 10
-125.152214
 20
-91.799717
 30
0.0
 11
-126.146083
 21
-92.117357
 31
0.0
  0
LINE
  8
0
 10
-126.07533
 20
-92.139969
 30
0.0
 11
-125.152214
 21
-92.434996
 31
0.0
  0
LINE
  8
0
 10
-125.152214
 20
-93.154219
 30
0.0
 11
-126.146083
 21
-93.471859
 31
0.0
  0
LINE
  8
0
 10
-126.146083
 20
-94.14911
 30
0.0
 11
-125.152214
 21
-94.14911
 31
0.0
  0
LINE
  8
0
 10
-126.07533
 20
-93.494471
 30
0.0
 11
-125.152214
 21
-93.789498
 31
0.0
  0
LINE
  8
0
 10
-126.146083
 20
-93.517084
 30
0.0
 11
-125.152214
 21
-93.834723
 31
0.0
  0
LINE
  8
0
 10
-126.146083
 20
-94.194335
 30
0.0
 11
-125.152214
 21
-94.194335
 31
0.0
  0
LINE
  8
0
 10
-125.152214
 20
-93.199445
 30
0.0
 11
-126.07533
 21
-93.494471
 31
0.0
  0
LINE
  8
0
 10
-126.146083
 20
-92.162582
 30
0.0
 11
-125.152214
 21
-92.480222
 31
0.0
  0
LINE
  8
0
 10
-125.152214
 20
-91.844943
 30
0.0
 11
-126.07533
 21
-92.139969
 31
0.0
  0
LINE
  8
0
 10
-126.146083
 20
-90.80808
 30
0.0
 11
-125.152214
 21
-91.12572
 31
0.0
  0
LINE
  8
0
 10
-125.152214
 20
-90.490441
 30
0.0
 11
-126.07533
 21
-90.785468
 31
0.0
  0
LINE
  8
0
 10
-126.146083
 20
-89.453578
 30
0.0
 11
-125.152214
 21
-89.771218
 31
0.0
  0
LINE
  8
0
 10
-125.152214
 20
-89.135939
 30
0.0
 11
-126.07533
 21
-89.430966
 31
0.0
  0
LINE
  8
0
 10
-126.146083
 20
-88.776328
 30
0.0
 11
-125.152214
 21
-88.776328
 31
0.0
  0
LINE
  8
0
 10
-126.146083
 20
-88.731102
 30
0.0
 11
-126.146083
 21
-88.776328
 31
0.0
  0
LINE
  8
0
 10
-126.146083
 20
-89.408353
 30
0.0
 11
-126.146083
 21
-89.453578
 31
0.0
  0
LINE
  8
0
 10
-126.146083
 20
-90.762855
 30
0.0
 11
-126.146083
 21
-90.80808
 31
0.0
  0
LINE
  8
0
 10
-126.146083
 20
-92.117357
 30
0.0
 11
-126.146083
 21
-92.162582
 31
0.0
  0
LINE
  8
0
 10
-126.146083
 20
-93.471859
 30
0.0
 11
-126.146083
 21
-93.517084
 31
0.0
  0
LINE
  8
0
 10
-126.146083
 20
-94.194335
 30
0.0
 11
-126.146083
 21
-94.14911
 31
0.0
  0
LINE
  8
0
 10
-126.202214
 20
-84.716607
 30
0.0
 11
-126.202214
 21
-88.716607
 31
0.0
  0
LINE
  8
0
 10
-126.802214
 20
-84.716607
 30
0.0
 11
-126.802214
 21
-99.016607
 31
0.0
  0
LINE
  8
0
 10
-123.502214
 20
-84.716607
 30
0.0
 11
-123.502214
 21
-99.716607
 31
0.0
  0
LINE
  8
0
 10
-126.802214
 20
-84.716607
 30
0.0
 11
-127.152214
 21
-85.066607
 31
0.0
  0
LINE
  8
0
 10
-126.802214
 20
-99.716607
 30
0.0
 11
-127.152214
 21
-99.366607
 31
0.0
  0
LINE
  8
0
 10
-123.502214
 20
-84.716607
 30
0.0
 11
-123.152214
 21
-85.066607
 31
0.0
  0
LINE
  8
0
 10
-123.502214
 20
-99.716607
 30
0.0
 11
-123.152214
 21
-99.366607
 31
0.0
  0
LINE
  8
0
  6
CENTER
 10
-125.152214
 20
-83.998242
 30
0.0
 11
-125.152214
 21
-101.63753
 31
0.0
  0
CIRCLE
  8
0
 10
-125.152214
 20
-104.995739
 30
0.0
 40
2.0
  0
CIRCLE
  8
0
 10
-125.152214
 20
-104.995739
 30
0.0
 40
1.65
  0
CIRCLE
  8
0
 10
-125.152214
 20
-104.995739
 30
0.0
 40
1.05
  0
CIRCLE
  8
0
 10
-125.152214
 20
-104.995739
 30
0.0
 40
1.25
  0
POLYLINE
  8
0
 66
     1
 10
0.0
 20
0.0
 30
0.0
 70
     1
  0
VERTEX
  8
0
 10
-125.802214
 20
-104.620462
 30
0.0
  0
VERTEX
  8
0
 10
-125.152214
 20
-104.245184
 30
0.0
  0
VERTEX
  8
0
 10
-124.502214
 20
-104.620462
 30
0.0
  0
VERTEX
  8
0
 10
-124.502214
 20
-105.371017
 30
0.0
  0
VERTEX
  8
0
 10
-125.152214
 20
-105.746295
 30
0.0
  0
VERTEX
  8
0
 10
-125.802214
 20
-105.371017
 30
0.0
  0
SEQEND
  8
0
  0
ARC
  8
0
 10
-125.152214
 20
-79.903571
 30
0.0
 40
1.65
 50
190.475682
 51
349.524318
  0
CIRCLE
  8
0
 10
-125.152214
 20
-79.903571
 30
0.0
 40
2.0
  0
CIRCLE
  8
0
 10
-125.152214
 20
-79.903571
 30
0.0
 40
0.75
  0
LINE
  8
0
 10
-123.174842
 20
-79.603571
 30
0.0
 11
-124.464828
 21
-79.603571
 31
0.0
  0
LINE
  8
0
 10
-123.174842
 20
-80.203571
 30
0.0
 11
-124.464828
 21
-80.203571
 31
0.0
  0
LINE
  8
0
 10
-125.839601
 20
-80.203571
 30
0.0
 11
-127.129586
 21
-80.203571
 31
0.0
  0
LINE
  8
0
 10
-125.839601
 20
-79.603571
 30
0.0
 11
-127.129586
 21
-79.603571
 31
0.0
  0
ARC
  8
0
 10
-125.152214
 20
-79.903571
 30
0.0
 40
1.65
 50
10.475682
 51
169.524318
  0
LINE
  8
0
  6
CENTER
 10
-116.802903
 20
-80.623274
 30
0.0
 11
-116.802903
 21
-102.56994
 31
0.0
  0
LINE
  8
0
 10
-119.302903
 20
-82.116607
 30
0.0
 11
-119.302903
 21
-99.316607
 31
0.0
  0
LINE
  8
0
 10
-114.302903
 20
-82.116607
 30
0.0
 11
-114.302903
 21
-99.316607
 31
0.0
  0
LINE
  8
0
 10
-118.902903
 20
-81.716607
 30
0.0
 11
-114.702903
 21
-81.716607
 31
0.0
  0
LINE
  8
0
 10
-118.902903
 20
-99.716607
 30
0.0
 11
-118.002903
 21
-99.716607
 31
0.0
  0
ARC
  8
0
 10
-116.802903
 20
-100.816607
 30
0.0
 40
1.2
 50
179.999979
 51
0.000021
  0
LINE
  8
0
 10
-115.602903
 20
-100.816607
 30
0.0
 11
-115.602903
 21
-99.716607
 31
0.0
  0
LINE
  8
0
 10
-118.002903
 20
-100.816607
 30
0.0
 11
-118.002903
 21
-98.816607
 31
0.0
  0
LINE
  8
0
 10
-118.352903
 20
-98.816607
 30
0.0
 11
-118.002903
 21
-98.816607
 31
0.0
  0
LINE
  8
0
 10
-118.302903
 20
-94.016607
 30
0.0
 11
-116.802903
 21
-94.016607
 31
0.0
  0
LINE
  8
0
 10
-118.302903
 20
-94.016607
 30
0.0
 11
-118.302903
 21
-98.816607
 31
0.0
  0
LINE
  8
0
 10
-118.352903
 20
-85.716607
 30
0.0
 11
-118.352903
 21
-98.816607
 31
0.0
  0
LINE
  8
0
 10
-118.552903
 20
-81.716607
 30
0.0
 11
-118.552903
 21
-85.716607
 31
0.0
  0
LINE
  8
0
 10
-118.552903
 20
-85.716607
 30
0.0
 11
-116.802903
 21
-85.716607
 31
0.0
  0
LINE
  8
0
 10
-118.252903
 20
-81.716607
 30
0.0
 11
-118.252903
 21
-85.716607
 31
0.0
  0
LINE
  8
0
 10
-116.802903
 20
-99.716607
 30
0.0
 11
-114.702903
 21
-99.716607
 31
0.0
  0
LINE
  8
0
 10
-119.302903
 20
-98.616607
 30
0.0
 11
-118.352903
 21
-98.616607
 31
0.0
  0
LINE
  8
0
 10
-118.247804
 20
-85.750914
 30
0.0
 11
-116.802903
 21
-85.750914
 31
0.0
  0
LINE
  8
0
 10
-116.802903
 20
-86.256324
 30
0.0
 11
-118.247804
 21
-86.761733
 31
0.0
  0
LINE
  8
0
 10
-118.101485
 20
-86.812914
 30
0.0
 11
-116.802903
 21
-87.267142
 31
0.0
  0
LINE
  8
0
 10
-116.802903
 20
-88.277961
 30
0.0
 11
-118.247804
 21
-88.78337
 31
0.0
  0
LINE
  8
0
 10
-118.101485
 20
-88.834551
 30
0.0
 11
-116.802903
 21
-89.28878
 31
0.0
  0
LINE
  8
0
 10
-116.802903
 20
-90.299599
 30
0.0
 11
-118.247804
 21
-90.805008
 31
0.0
  0
LINE
  8
0
 10
-118.101485
 20
-90.856189
 30
0.0
 11
-116.802903
 21
-91.310417
 31
0.0
  0
LINE
  8
0
 10
-116.802903
 20
-92.321236
 30
0.0
 11
-118.247804
 21
-92.826645
 31
0.0
  0
LINE
  8
0
 10
-118.101485
 20
-92.877826
 30
0.0
 11
-116.802903
 21
-93.332055
 31
0.0
  0
LINE
  8
0
 10
-116.802903
 20
-93.837464
 30
0.0
 11
-118.247804
 21
-93.837464
 31
0.0
  0
LINE
  8
0
 10
-116.802903
 20
-93.939825
 30
0.0
 11
-118.247804
 21
-93.939825
 31
0.0
  0
LINE
  8
0
 10
-118.247804
 20
-92.929007
 30
0.0
 11
-116.802903
 21
-93.434416
 31
0.0
  0
LINE
  8
0
 10
-116.802903
 20
-92.423597
 30
0.0
 11
-118.101485
 21
-92.877826
 31
0.0
  0
LINE
  8
0
 10
-118.247804
 20
-90.907369
 30
0.0
 11
-116.802903
 21
-91.412779
 31
0.0
  0
LINE
  8
0
 10
-116.802903
 20
-90.40196
 30
0.0
 11
-118.101485
 21
-90.856189
 31
0.0
  0
LINE
  8
0
 10
-118.247804
 20
-88.885732
 30
0.0
 11
-116.802903
 21
-89.391141
 31
0.0
  0
LINE
  8
0
 10
-116.802903
 20
-88.380322
 30
0.0
 11
-118.101485
 21
-88.834551
 31
0.0
  0
LINE
  8
0
 10
-118.247804
 20
-86.864094
 30
0.0
 11
-116.802903
 21
-87.369504
 31
0.0
  0
LINE
  8
0
 10
-116.802903
 20
-86.358685
 30
0.0
 11
-118.101485
 21
-86.812914
 31
0.0
  0
LINE
  8
0
 10
-118.247804
 20
-85.853276
 30
0.0
 11
-116.802903
 21
-85.853276
 31
0.0
  0
LINE
  8
0
 10
-118.247804
 20
-86.761733
 30
0.0
 11
-118.247804
 21
-86.864094
 31
0.0
  0
LINE
  8
0
 10
-118.247804
 20
-88.78337
 30
0.0
 11
-118.247804
 21
-88.885732
 31
0.0
  0
LINE
  8
0
 10
-118.247804
 20
-85.750914
 30
0.0
 11
-118.247804
 21
-85.853276
 31
0.0
  0
LINE
  8
0
 10
-118.247804
 20
-90.805008
 30
0.0
 11
-118.247804
 21
-90.907369
 31
0.0
  0
LINE
  8
0
 10
-118.247804
 20
-92.826645
 30
0.0
 11
-118.247804
 21
-92.929007
 31
0.0
  0
LINE
  8
0
 10
-118.247804
 20
-93.939825
 30
0.0
 11
-118.247804
 21
-93.837464
 31
0.0
  0
LINE
  8
0
 10
-117.552903
 20
-81.716607
 30
0.0
 11
-117.552903
 21
-83.716607
 31
0.0
  0
LINE
  8
0
 10
-117.552903
 20
-83.716607
 30
0.0
 11
-116.802903
 21
-83.716607
 31
0.0
  0
LINE
  8
0
 10
-118.902903
 20
-81.716607
 30
0.0
 11
-118.902903
 21
-98.616607
 31
0.0
  0
LINE
  8
0
 10
-114.702903
 20
-81.716607
 30
0.0
 11
-114.702903
 21
-99.716607
 31
0.0
  0
LINE
  8
0
 10
-118.902903
 20
-81.716607
 30
0.0
 11
-119.302903
 21
-82.116607
 31
0.0
  0
LINE
  8
0
 10
-119.302903
 20
-99.316607
 30
0.0
 11
-118.902903
 21
-99.716607
 31
0.0
  0
LINE
  8
0
 10
-114.702903
 20
-99.716607
 30
0.0
 11
-114.302903
 21
-99.316607
 31
0.0
  0
LINE
  8
0
 10
-114.702903
 20
-81.716607
 30
0.0
 11
-114.302903
 21
-82.116607
 31
0.0
  0
LINE
  8
0
 10
-114.302903
 20
-82.116607
 30
0.0
 11
-116.802903
 21
-82.116607
 31
0.0
  0
LINE
  8
0
 10
-114.302903
 20
-99.316607
 30
0.0
 11
-116.802903
 21
-99.316607
 31
0.0
  0
CIRCLE
  8
0
 10
-116.802903
 20
-106.406567
 30
0.0
 40
2.5
  0
CIRCLE
  8
0
 10
-116.802903
 20
-106.406567
 30
0.0
 40
2.1
  0
CIRCLE
  8
0
 10
-116.802903
 20
-106.406567
 30
0.0
 40
1.75
  0
CIRCLE
  8
0
 10
-116.802903
 20
-106.406567
 30
0.0
 40
1.45
  0
POLYLINE
  8
0
 66
     1
 10
0.0
 20
0.0
 30
0.0
 70
     1
  0
VERTEX
  8
0
 10
-117.552903
 20
-105.973554
 30
0.0
  0
VERTEX
  8
0
 10
-116.802903
 20
-105.540541
 30
0.0
  0
VERTEX
  8
0
 10
-116.052903
 20
-105.973554
 30
0.0
  0
VERTEX
  8
0
 10
-116.052903
 20
-106.839579
 30
0.0
  0
VERTEX
  8
0
 10
-116.802903
 20
-107.272592
 30
0.0
  0
VERTEX
  8
0
 10
-117.552903
 20
-106.839579
 30
0.0
  0
SEQEND
  8
0
  0
ARC
  8
0
 10
-116.802903
 20
-75.886019
 30
0.0
 40
2.1
 50
16.60155
 51
163.39845
  0
CIRCLE
  8
0
 10
-116.802903
 20
-75.886019
 30
0.0
 40
2.5
  0
CIRCLE
  8
0
 10
-116.802903
 20
-75.886019
 30
0.0
 40
1.2
  0
LINE
  8
0
 10
-114.375971
 20
-75.286019
 30
0.0
 11
-115.763673
 21
-75.286019
 31
0.0
  0
LINE
  8
0
 10
-114.375971
 20
-76.486019
 30
0.0
 11
-115.763673
 21
-76.486019
 31
0.0
  0
ARC
  8
0
 10
-116.802903
 20
-75.886019
 30
0.0
 40
2.1
 50
196.60155
 51
343.39845
  0
LINE
  8
0
 10
-117.842134
 20
-75.286019
 30
0.0
 11
-119.229835
 21
-75.286019
 31
0.0
  0
LINE
  8
0
 10
-117.842134
 20
-76.486019
 30
0.0
 11
-119.229835
 21
-76.486019
 31
0.0
  0
LINE
  8
0
  6
CENTER
 10
-105.448129
 20
-78.129481
 30
0.0
 11
-105.448129
 21
-103.259902
 31
0.0
  0
LINE
  8
0
 10
-108.448129
 20
-80.216607
 30
0.0
 11
-108.448129
 21
-99.216607
 31
0.0
  0
LINE
  8
0
 10
-102.448129
 20
-80.216607
 30
0.0
 11
-102.448129
 21
-99.216607
 31
0.0
  0
LINE
  8
0
 10
-107.948129
 20
-79.716607
 30
0.0
 11
-102.948129
 21
-79.716607
 31
0.0
  0
LINE
  8
0
 10
-107.948129
 20
-99.716607
 30
0.0
 11
-106.798129
 21
-99.716607
 31
0.0
  0
ARC
  8
0
 10
-105.448129
 20
-100.866607
 30
0.0
 40
1.35
 50
180.0
 51
0.0
  0
LINE
  8
0
 10
-106.798129
 20
-100.866607
 30
0.0
 11
-106.798129
 21
-98.216607
 31
0.0
  0
LINE
  8
0
 10
-104.098129
 20
-100.866607
 30
0.0
 11
-104.098129
 21
-99.716607
 31
0.0
  0
LINE
  8
0
 10
-107.098129
 20
-92.216607
 30
0.0
 11
-107.098129
 21
-98.216607
 31
0.0
  0
LINE
  8
0
 10
-107.198129
 20
-83.916607
 30
0.0
 11
-107.198129
 21
-98.216607
 31
0.0
  0
LINE
  8
0
 10
-107.098129
 20
-92.216607
 30
0.0
 11
-105.448129
 21
-92.216607
 31
0.0
  0
LINE
  8
0
 10
-107.198129
 20
-98.216607
 30
0.0
 11
-106.798129
 21
-98.216607
 31
0.0
  0
LINE
  8
0
 10
-105.448129
 20
-99.716607
 30
0.0
 11
-102.948129
 21
-99.716607
 31
0.0
  0
LINE
  8
0
 10
-107.448129
 20
-79.716607
 30
0.0
 11
-107.448129
 21
-83.916607
 31
0.0
  0
LINE
  8
0
 10
-107.448129
 20
-83.916607
 30
0.0
 11
-105.448129
 21
-83.916607
 31
0.0
  0
LINE
  8
0
 10
-107.098129
 20
-79.716607
 30
0.0
 11
-107.098129
 21
-83.916607
 31
0.0
  0
LINE
  8
0
 10
-107.06836
 20
-83.983239
 30
0.0
 11
-105.448129
 21
-83.983239
 31
0.0
  0
LINE
  8
0
 10
-107.06836
 20
-91.978342
 30
0.0
 11
-105.448129
 21
-91.978342
 31
0.0
  0
LINE
  8
0
 10
-105.448129
 20
-84.482933
 30
0.0
 11
-107.06836
 21
-84.982627
 31
0.0
  0
LINE
  8
0
 10
-106.801591
 20
-85.064901
 30
0.0
 11
-105.448129
 21
-85.482321
 31
0.0
  0
LINE
  8
0
 10
-105.448129
 20
-86.481708
 30
0.0
 11
-107.06836
 21
-86.981402
 31
0.0
  0
LINE
  8
0
 10
-106.801591
 20
-87.063676
 30
0.0
 11
-105.448129
 21
-87.481096
 31
0.0
  0
LINE
  8
0
 10
-105.448129
 20
-88.480484
 30
0.0
 11
-107.06836
 21
-88.980178
 31
0.0
  0
LINE
  8
0
 10
-106.801591
 20
-89.062452
 30
0.0
 11
-105.448129
 21
-89.479872
 31
0.0
  0
LINE
  8
0
 10
-105.448129
 20
-90.47926
 30
0.0
 11
-107.06836
 21
-90.978954
 31
0.0
  0
LINE
  8
0
 10
-107.06836
 20
-90.978954
 30
0.0
 11
-105.448129
 21
-91.478648
 31
0.0
  0
LINE
  8
0
 10
-107.06836
 20
-91.143502
 30
0.0
 11
-105.448129
 21
-91.643196
 31
0.0
  0
LINE
  8
0
 10
-105.448129
 20
-90.643808
 30
0.0
 11
-106.801591
 21
-91.061228
 31
0.0
  0
LINE
  8
0
 10
-107.06836
 20
-89.144726
 30
0.0
 11
-105.448129
 21
-89.64442
 31
0.0
  0
LINE
  8
0
 10
-105.448129
 20
-88.645032
 30
0.0
 11
-106.801591
 21
-89.062452
 31
0.0
  0
LINE
  8
0
 10
-107.06836
 20
-87.145951
 30
0.0
 11
-105.448129
 21
-87.645645
 31
0.0
  0
LINE
  8
0
 10
-105.448129
 20
-86.646257
 30
0.0
 11
-106.801591
 21
-87.063676
 31
0.0
  0
LINE
  8
0
 10
-107.06836
 20
-85.147175
 30
0.0
 11
-105.448129
 21
-85.646869
 31
0.0
  0
LINE
  8
0
 10
-105.448129
 20
-84.647481
 30
0.0
 11
-106.801591
 21
-85.064901
 31
0.0
  0
LINE
  8
0
 10
-107.06836
 20
-92.14289
 30
0.0
 11
-105.448129
 21
-92.14289
 31
0.0
  0
LINE
  8
0
 10
-107.06836
 20
-84.147787
 30
0.0
 11
-105.448129
 21
-84.147787
 31
0.0
  0
LINE
  8
0
 10
-107.06836
 20
-83.983239
 30
0.0
 11
-107.06836
 21
-84.147787
 31
0.0
  0
LINE
  8
0
 10
-107.06836
 20
-84.982627
 30
0.0
 11
-107.06836
 21
-85.147175
 31
0.0
  0
LINE
  8
0
 10
-107.06836
 20
-86.981402
 30
0.0
 11
-107.06836
 21
-87.145951
 31
0.0
  0
LINE
  8
0
 10
-107.06836
 20
-88.980178
 30
0.0
 11
-107.06836
 21
-89.144726
 31
0.0
  0
LINE
  8
0
 10
-107.06836
 20
-90.978954
 30
0.0
 11
-107.06836
 21
-91.143502
 31
0.0
  0
LINE
  8
0
 10
-107.06836
 20
-91.978342
 30
0.0
 11
-107.06836
 21
-92.14289
 31
0.0
  0
LINE
  8
0
 10
-107.948129
 20
-79.716607
 30
0.0
 11
-107.948129
 21
-99.016607
 31
0.0
  0
LINE
  8
0
 10
-102.948129
 20
-79.716607
 30
0.0
 11
-102.948129
 21
-99.716607
 31
0.0
  0
LINE
  8
0
 10
-107.948129
 20
-79.716607
 30
0.0
 11
-108.448129
 21
-80.216607
 31
0.0
  0
LINE
  8
0
 10
-108.448129
 20
-99.216607
 30
0.0
 11
-107.948129
 21
-99.716607
 31
0.0
  0
LINE
  8
0
 10
-102.948129
 20
-99.716607
 30
0.0
 11
-102.448129
 21
-99.216607
 31
0.0
  0
LINE
  8
0
 10
-102.948129
 20
-79.716607
 30
0.0
 11
-102.448129
 21
-80.216607
 31
0.0
  0
LINE
  8
0
 10
-106.448129
 20
-79.716607
 30
0.0
 11
-106.448129
 21
-82.216607
 31
0.0
  0
LINE
  8
0
 10
-106.448129
 20
-82.216607
 30
0.0
 11
-105.448129
 21
-82.216607
 31
0.0
  0
LINE
  8
0
 10
-102.448129
 20
-80.216607
 30
0.0
 11
-105.448129
 21
-80.216607
 31
0.0
  0
LINE
  8
0
 10
-102.448129
 20
-99.216607
 30
0.0
 11
-105.448129
 21
-99.216607
 31
0.0
  0
CIRCLE
  8
0
 10
-105.448129
 20
-107.820588
 30
0.0
 40
3.0
  0
CIRCLE
  8
0
 10
-105.448129
 20
-107.820588
 30
0.0
 40
2.5
  0
CIRCLE
  8
0
 10
-105.448129
 20
-107.820588
 30
0.0
 40
2.0
  0
CIRCLE
  8
0
 10
-105.448129
 20
-107.820588
 30
0.0
 40
1.65
  0
POLYLINE
  8
0
 66
     1
 10
0.0
 20
0.0
 30
0.0
 70
     1
  0
VERTEX
  8
0
 10
-106.448129
 20
-107.243238
 30
0.0
  0
VERTEX
  8
0
 10
-105.448129
 20
-106.665888
 30
0.0
  0
VERTEX
  8
0
 10
-104.448129
 20
-107.243238
 30
0.0
  0
VERTEX
  8
0
 10
-104.448129
 20
-108.397939
 30
0.0
  0
VERTEX
  8
0
 10
-105.448129
 20
-108.975289
 30
0.0
  0
VERTEX
  8
0
 10
-106.448129
 20
-108.397939
 30
0.0
  0
SEQEND
  8
0
  0
ARC
  8
0
 10
-105.448129
 20
-72.01387
 30
0.0
 40
2.5
 50
15.070062
 51
164.929938
  0
CIRCLE
  8
0
 10
-105.448129
 20
-72.01387
 30
0.0
 40
3.0
  0
CIRCLE
  8
0
 10
-105.448129
 20
-72.01387
 30
0.0
 40
1.35
  0
LINE
  8
0
 10
-102.519392
 20
-71.36387
 30
0.0
 11
-104.264913
 21
-71.36387
 31
0.0
  0
LINE
  8
0
 10
-102.519392
 20
-72.66387
 30
0.0
 11
-104.264913
 21
-72.66387
 31
0.0
  0
ARC
  8
0
 10
-105.448129
 20
-72.01387
 30
0.0
 40
2.5
 50
195.070062
 51
344.929938
  0
LINE
  8
0
 10
-106.631345
 20
-71.36387
 30
0.0
 11
-108.376866
 21
-71.36387
 31
0.0
  0
LINE
  8
0
 10
-106.631345
 20
-72.66387
 30
0.0
 11
-108.376866
 21
-72.66387
 31
0.0
  0
LINE
  8
0
 10
-108.448129
 20
-99.016607
 30
0.0
 11
-106.798129
 21
-99.016607
 31
0.0
  0
LINE
  8
0
 10
-88.469687
 20
-99.716607
 30
0.0
 11
-87.869687
 21
-99.116607
 31
0.0
  0
LINE
  8
0
 10
-88.469687
 20
-77.716607
 30
0.0
 11
-87.869687
 21
-78.316607
 31
0.0
  0
LINE
  8
0
 10
-95.869687
 20
-99.116607
 30
0.0
 11
-95.269687
 21
-99.716607
 31
0.0
  0
LINE
  8
0
 10
-95.269687
 20
-77.716607
 30
0.0
 11
-95.869687
 21
-78.316607
 31
0.0
  0
LINE
  8
0
 10
-88.469687
 20
-77.716607
 30
0.0
 11
-88.469687
 21
-99.716607
 31
0.0
  0
LINE
  8
0
 10
-95.269687
 20
-77.716607
 30
0.0
 11
-95.269687
 21
-98.716607
 31
0.0
  0
LINE
  8
0
 10
-93.119687
 20
-80.716607
 30
0.0
 11
-91.869687
 21
-80.716607
 31
0.0
  0
LINE
  8
0
 10
-93.119687
 20
-77.716607
 30
0.0
 11
-93.119687
 21
-80.716607
 31
0.0
  0
LINE
  8
0
 10
-91.869687
 20
-99.716607
 30
0.0
 11
-88.469687
 21
-99.716607
 31
0.0
  0
LINE
  8
0
 10
-94.369687
 20
-82.716607
 30
0.0
 11
-91.869687
 21
-82.716607
 31
0.0
  0
LINE
  8
0
 10
-94.369687
 20
-77.716607
 30
0.0
 11
-94.369687
 21
-82.716607
 31
0.0
  0
LINE
  8
0
 10
-94.069687
 20
-82.716607
 30
0.0
 11
-94.069687
 21
-97.516607
 31
0.0
  0
LINE
  8
0
 10
-93.969687
 20
-92.716607
 30
0.0
 11
-93.969687
 21
-97.516607
 31
0.0
  0
LINE
  8
0
 10
-94.069687
 20
-97.516607
 30
0.0
 11
-93.619687
 21
-97.516607
 31
0.0
  0
LINE
  8
0
 10
-93.969687
 20
-92.716607
 30
0.0
 11
-91.869687
 21
-92.716607
 31
0.0
  0
LINE
  8
0
 10
-90.119687
 20
-100.966607
 30
0.0
 11
-90.119687
 21
-99.716607
 31
0.0
  0
LINE
  8
0
 10
-93.619687
 20
-100.966607
 30
0.0
 11
-93.619687
 21
-97.516607
 31
0.0
  0
ARC
  8
0
 10
-91.869687
 20
-100.966607
 30
0.0
 40
1.75
 50
179.999988
 51
0.000012
  0
LINE
  8
0
 10
-95.269687
 20
-99.716607
 30
0.0
 11
-93.619687
 21
-99.716607
 31
0.0
  0
LINE
  8
0
 10
-95.269687
 20
-77.716607
 30
0.0
 11
-88.469687
 21
-77.716607
 31
0.0
  0
LINE
  8
0
 10
-87.869687
 20
-78.316607
 30
0.0
 11
-87.869687
 21
-99.116607
 31
0.0
  0
LINE
  8
0
 10
-95.869687
 20
-78.316607
 30
0.0
 11
-95.869687
 21
-99.116607
 31
0.0
  0
LINE
  8
0
 10
-91.869687
 20
-76.207393
 30
0.0
 11
-91.869687
 21
-103.858662
 31
0.0
  0
LINE
  8
0
 10
-93.869687
 20
-82.754302
 30
0.0
 11
-91.869687
 21
-82.754302
 31
0.0
  0
LINE
  8
0
 10
-93.869687
 20
-92.500119
 30
0.0
 11
-91.869687
 21
-92.500119
 31
0.0
  0
LINE
  8
0
 10
-91.869687
 20
-83.363415
 30
0.0
 11
-93.869687
 21
-83.972529
 31
0.0
  0
LINE
  8
0
 10
-93.576162
 20
-84.061924
 30
0.0
 11
-91.869687
 21
-84.581643
 31
0.0
  0
LINE
  8
0
 10
-91.869687
 20
-85.79987
 30
0.0
 11
-93.869687
 21
-86.408983
 31
0.0
  0
LINE
  8
0
 10
-93.576162
 20
-86.498378
 30
0.0
 11
-91.869687
 21
-87.018097
 31
0.0
  0
LINE
  8
0
 10
-91.869687
 20
-88.236324
 30
0.0
 11
-93.869687
 21
-88.845437
 31
0.0
  0
LINE
  8
0
 10
-93.576162
 20
-88.934832
 30
0.0
 11
-91.869687
 21
-89.454551
 31
0.0
  0
LINE
  8
0
 10
-91.869687
 20
-90.672778
 30
0.0
 11
-93.869687
 21
-91.281892
 31
0.0
  0
LINE
  8
0
 10
-93.576162
 20
-91.371287
 30
0.0
 11
-91.869687
 21
-91.891005
 31
0.0
  0
LINE
  8
0
 10
-93.869687
 20
-91.460682
 30
0.0
 11
-91.869687
 21
-92.069795
 31
0.0
  0
LINE
  8
0
 10
-91.869687
 20
-90.851568
 30
0.0
 11
-93.576162
 21
-91.371287
 31
0.0
  0
LINE
  8
0
 10
-93.869687
 20
-89.024227
 30
0.0
 11
-91.869687
 21
-89.633341
 31
0.0
  0
LINE
  8
0
 10
-91.869687
 20
-88.415114
 30
0.0
 11
-93.576162
 21
-88.934832
 31
0.0
  0
LINE
  8
0
 10
-93.869687
 20
-86.587773
 30
0.0
 11
-91.869687
 21
-87.196887
 31
0.0
  0
LINE
  8
0
 10
-91.869687
 20
-85.97866
 30
0.0
 11
-93.576162
 21
-86.498378
 31
0.0
  0
LINE
  8
0
 10
-93.869687
 20
-84.151319
 30
0.0
 11
-91.869687
 21
-84.760433
 31
0.0
  0
LINE
  8
0
 10
-91.869687
 20
-83.542205
 30
0.0
 11
-93.576162
 21
-84.061924
 31
0.0
  0
LINE
  8
0
 10
-93.869687
 20
-92.678909
 30
0.0
 11
-91.869687
 21
-92.678909
 31
0.0
  0
LINE
  8
0
 10
-93.869687
 20
-82.933092
 30
0.0
 11
-91.869687
 21
-82.933092
 31
0.0
  0
LINE
  8
0
 10
-93.869687
 20
-82.754302
 30
0.0
 11
-93.869687
 21
-82.933092
 31
0.0
  0
LINE
  8
0
 10
-93.869687
 20
-83.972529
 30
0.0
 11
-93.869687
 21
-84.151319
 31
0.0
  0
LINE
  8
0
 10
-93.869687
 20
-86.408983
 30
0.0
 11
-93.869687
 21
-86.587773
 31
0.0
  0
LINE
  8
0
 10
-93.869687
 20
-88.845437
 30
0.0
 11
-93.869687
 21
-89.024227
 31
0.0
  0
LINE
  8
0
 10
-93.869687
 20
-91.281892
 30
0.0
 11
-93.869687
 21
-91.460682
 31
0.0
  0
LINE
  8
0
 10
-93.869687
 20
-92.500119
 30
0.0
 11
-93.869687
 21
-92.678909
 31
0.0
  0
LINE
  8
0
 10
-87.869687
 20
-78.316607
 30
0.0
 11
-91.869687
 21
-78.316607
 31
0.0
  0
LINE
  8
0
 10
-87.869687
 20
-99.116607
 30
0.0
 11
-91.869687
 21
-99.116607
 31
0.0
  0
LINE
  8
0
 10
-95.869687
 20
-98.716607
 30
0.0
 11
-93.619687
 21
-98.716607
 31
0.0
  0
CIRCLE
  8
0
 10
-91.869687
 20
-110.435495
 30
0.0
 40
4.0
  0
CIRCLE
  8
0
 10
-91.869687
 20
-110.435495
 30
0.0
 40
3.4
  0
CIRCLE
  8
0
 10
-91.869687
 20
-110.435495
 30
0.0
 40
2.5
  0
LINE
  8
0
 10
-93.969687
 20
-77.716607
 30
0.0
 11
-93.969687
 21
-82.716607
 31
0.0
  0
CIRCLE
  8
0
 10
-91.869687
 20
-110.435495
 30
0.0
 40
2.1
  0
POLYLINE
  8
0
 66
     1
 10
0.0
 20
0.0
 30
0.0
 70
     1
  0
VERTEX
  8
0
 10
-93.119687
 20
-109.713807
 30
0.0
  0
VERTEX
  8
0
 10
-91.869687
 20
-108.99212
 30
0.0
  0
VERTEX
  8
0
 10
-90.619687
 20
-109.713807
 30
0.0
  0
VERTEX
  8
0
 10
-90.619687
 20
-111.157183
 30
0.0
  0
VERTEX
  8
0
 10
-91.869687
 20
-111.878871
 30
0.0
  0
VERTEX
  8
0
 10
-93.119687
 20
-111.157183
 30
0.0
  0
SEQEND
  8
0
  0
ARC
  8
0
 10
-91.869687
 20
-68.889973
 30
0.0
 40
3.4
 50
12.743585
 51
167.256415
  0
CIRCLE
  8
0
 10
-91.869687
 20
-68.889973
 30
0.0
 40
4.0
  0
CIRCLE
  8
0
 10
-91.869687
 20
-68.889973
 30
0.0
 40
1.75
  0
LINE
  8
0
 10
-87.940629
 20
-68.139973
 30
0.0
 11
-90.288549
 21
-68.139973
 31
0.0
  0
LINE
  8
0
 10
-87.940629
 20
-69.639973
 30
0.0
 11
-90.288549
 21
-69.639973
 31
0.0
  0
ARC
  8
0
 10
-91.869687
 20
-68.889973
 30
0.0
 40
3.4
 50
192.743585
 51
347.256415
  0
LINE
  8
0
 10
-93.450826
 20
-68.139973
 30
0.0
 11
-95.798746
 21
-68.139973
 31
0.0
  0
LINE
  8
0
 10
-93.450826
 20
-69.639973
 30
0.0
 11
-95.798746
 21
-69.639973
 31
0.0
  0
LINE
  8
0
  6
CENTER
 10
-75.087526
 20
-75.39898
 30
0.0
 11
-75.087526
 21
-103.945805
 31
0.0
  0
LINE
  8
0
 10
-80.087526
 20
-78.466607
 30
0.0
 11
-80.087526
 21
-98.966607
 31
0.0
  0
LINE
  8
0
 10
-70.087526
 20
-78.466607
 30
0.0
 11
-70.087526
 21
-98.966607
 31
0.0
  0
LINE
  8
0
 10
-79.337526
 20
-77.716607
 30
0.0
 11
-70.837526
 21
-77.716607
 31
0.0
  0
LINE
  8
0
 10
-79.337526
 20
-99.716607
 30
0.0
 11
-77.087526
 21
-99.716607
 31
0.0
  0
ARC
  8
0
 10
-75.087526
 20
-100.716607
 30
0.0
 40
2.0
 50
180.0
 51
0.0
  0
LINE
  8
0
 10
-73.087526
 20
-100.716607
 30
0.0
 11
-73.087526
 21
-99.716607
 31
0.0
  0
LINE
  8
0
 10
-77.087526
 20
-100.716607
 30
0.0
 11
-77.087526
 21
-97.516607
 31
0.0
  0
LINE
  8
0
 10
-77.587526
 20
-91.216607
 30
0.0
 11
-75.087526
 21
-91.216607
 31
0.0
  0
LINE
  8
0
 10
-77.687526
 20
-97.516607
 30
0.0
 11
-77.087526
 21
-97.516607
 31
0.0
  0
LINE
  8
0
 10
-77.587526
 20
-91.216607
 30
0.0
 11
-77.587526
 21
-97.516607
 31
0.0
  0
LINE
  8
0
 10
-77.687526
 20
-83.716607
 30
0.0
 11
-77.687526
 21
-97.516607
 31
0.0
  0
LINE
  8
0
 10
-75.087526
 20
-99.716607
 30
0.0
 11
-70.837526
 21
-99.716607
 31
0.0
  0
LINE
  8
0
 10
-77.087526
 20
-91.216607
 30
0.0
 11
-77.087526
 21
-93.650228
 31
0.0
  0
LINE
  8
0
 10
-78.087526
 20
-77.716607
 30
0.0
 11
-78.087526
 21
-83.716607
 31
0.0
  0
LINE
  8
0
 10
-78.087526
 20
-83.716607
 30
0.0
 11
-75.087526
 21
-83.716607
 31
0.0
  0
LINE
  8
0
 10
-77.587526
 20
-77.716607
 30
0.0
 11
-77.587526
 21
-83.716607
 31
0.0
  0
LINE
  8
0
 10
-76.587526
 20
-77.716607
 30
0.0
 11
-76.587526
 21
-81.716607
 31
0.0
  0
LINE
  8
0
 10
-76.587526
 20
-81.716607
 30
0.0
 11
-75.087526
 21
-81.716607
 31
0.0
  0
LINE
  8
0
 10
-76.937645
 20
-83.741752
 30
0.0
 11
-75.087526
 21
-83.741752
 31
0.0
  0
LINE
  8
0
 10
-76.937645
 20
-93.426887
 30
0.0
 11
-75.087526
 21
-93.426887
 31
0.0
  0
LINE
  8
0
 10
-75.087526
 20
-84.226009
 30
0.0
 11
-76.937645
 21
-84.710266
 31
0.0
  0
LINE
  8
0
 10
-76.541556
 20
-84.81394
 30
0.0
 11
-75.087526
 21
-85.194523
 31
0.0
  0
LINE
  8
0
 10
-75.087526
 20
-86.163036
 30
0.0
 11
-76.937645
 21
-86.647293
 31
0.0
  0
LINE
  8
0
 10
-76.541556
 20
-86.750967
 30
0.0
 11
-75.087526
 21
-87.131549
 31
0.0
  0
LINE
  8
0
 10
-75.087526
 20
-88.100063
 30
0.0
 11
-76.937645
 21
-88.58432
 31
0.0
  0
LINE
  8
0
 10
-76.541556
 20
-88.687994
 30
0.0
 11
-75.087526
 21
-89.068576
 31
0.0
  0
LINE
  8
0
 10
-75.087526
 20
-90.03709
 30
0.0
 11
-76.937645
 21
-90.521346
 31
0.0
  0
LINE
  8
0
 10
-76.541556
 20
-90.62502
 30
0.0
 11
-75.087526
 21
-91.005603
 31
0.0
  0
LINE
  8
0
 10
-75.087526
 20
-91.974117
 30
0.0
 11
-76.937645
 21
-92.458373
 31
0.0
  0
LINE
  8
0
 10
-76.541556
 20
-92.562047
 30
0.0
 11
-75.087526
 21
-92.94263
 31
0.0
  0
LINE
  8
0
 10
-76.937645
 20
-92.665721
 30
0.0
 11
-75.087526
 21
-93.149978
 31
0.0
  0
LINE
  8
0
 10
-75.087526
 20
-92.181464
 30
0.0
 11
-76.541556
 21
-92.562047
 31
0.0
  0
LINE
  8
0
 10
-76.937645
 20
-90.728694
 30
0.0
 11
-75.087526
 21
-91.212951
 31
0.0
  0
LINE
  8
0
 10
-75.087526
 20
-90.244438
 30
0.0
 11
-76.541556
 21
-90.62502
 31
0.0
  0
LINE
  8
0
 10
-76.937645
 20
-88.791667
 30
0.0
 11
-75.087526
 21
-89.275924
 31
0.0
  0
LINE
  8
0
 10
-75.087526
 20
-88.307411
 30
0.0
 11
-76.541556
 21
-88.687994
 31
0.0
  0
LINE
  8
0
 10
-76.937645
 20
-86.854641
 30
0.0
 11
-75.087526
 21
-87.338897
 31
0.0
  0
LINE
  8
0
 10
-75.087526
 20
-86.370384
 30
0.0
 11
-76.541556
 21
-86.750967
 31
0.0
  0
LINE
  8
0
 10
-76.937645
 20
-84.917614
 30
0.0
 11
-75.087526
 21
-85.40187
 31
0.0
  0
LINE
  8
0
 10
-75.087526
 20
-84.433357
 30
0.0
 11
-76.541556
 21
-84.81394
 31
0.0
  0
LINE
  8
0
 10
-76.937645
 20
-93.634235
 30
0.0
 11
-75.087526
 21
-93.634235
 31
0.0
  0
LINE
  8
0
 10
-76.937645
 20
-83.9491
 30
0.0
 11
-75.087526
 21
-83.9491
 31
0.0
  0
LINE
  8
0
 10
-76.937645
 20
-83.741752
 30
0.0
 11
-76.937645
 21
-83.9491
 31
0.0
  0
LINE
  8
0
 10
-76.937645
 20
-84.710266
 30
0.0
 11
-76.937645
 21
-84.917614
 31
0.0
  0
LINE
  8
0
 10
-76.937645
 20
-86.647293
 30
0.0
 11
-76.937645
 21
-86.854641
 31
0.0
  0
LINE
  8
0
 10
-76.937645
 20
-88.58432
 30
0.0
 11
-76.937645
 21
-88.791667
 31
0.0
  0
LINE
  8
0
 10
-76.937645
 20
-90.521346
 30
0.0
 11
-76.937645
 21
-90.728694
 31
0.0
  0
LINE
  8
0
 10
-76.937645
 20
-92.458373
 30
0.0
 11
-76.937645
 21
-92.665721
 31
0.0
  0
LINE
  8
0
 10
-76.937645
 20
-93.426887
 30
0.0
 11
-76.937645
 21
-93.634235
 31
0.0
  0
LINE
  8
0
 10
-75.087526
 20
-93.650228
 30
0.0
 11
-77.087526
 21
-93.650228
 31
0.0
  0
LINE
  8
0
 10
-79.337526
 20
-77.716607
 30
0.0
 11
-79.337526
 21
-98.216607
 31
0.0
  0
LINE
  8
0
 10
-70.837526
 20
-77.716607
 30
0.0
 11
-70.837526
 21
-99.716607
 31
0.0
  0
LINE
  8
0
 10
-79.337526
 20
-77.716607
 30
0.0
 11
-80.087526
 21
-78.466607
 31
0.0
  0
LINE
  8
0
 10
-80.087526
 20
-98.966607
 30
0.0
 11
-79.337526
 21
-99.716607
 31
0.0
  0
LINE
  8
0
 10
-70.837526
 20
-77.716607
 30
0.0
 11
-70.087526
 21
-78.466607
 31
0.0
  0
LINE
  8
0
 10
-70.837526
 20
-99.716607
 30
0.0
 11
-70.087526
 21
-98.966607
 31
0.0
  0
LINE
  8
0
 10
-70.087526
 20
-78.466607
 30
0.0
 11
-75.087526
 21
-78.466607
 31
0.0
  0
LINE
  8
0
 10
-70.087526
 20
-98.966607
 30
0.0
 11
-75.087526
 21
-98.966607
 31
0.0
  0
LINE
  8
0
 10
-80.087526
 20
-98.216607
 30
0.0
 11
-77.087526
 21
-98.216607
 31
0.0
  0
CIRCLE
  8
0
 10
-75.087526
 20
-112.609341
 30
0.0
 40
5.0
  0
CIRCLE
  8
0
 10
-75.087526
 20
-112.609341
 30
0.0
 40
4.25
  0
CIRCLE
  8
0
 10
-75.087526
 20
-112.609341
 30
0.0
 40
3.0
  0
CIRCLE
  8
0
 10
-75.087526
 20
-112.609341
 30
0.0
 40
2.5
  0
POLYLINE
  8
0
 66
     1
 10
0.0
 20
0.0
 30
0.0
 70
     1
  0
VERTEX
  8
0
 10
-76.587526
 20
-111.743316
 30
0.0
  0
VERTEX
  8
0
 10
-75.087526
 20
-110.877291
 30
0.0
  0
VERTEX
  8
0
 10
-73.587526
 20
-111.743316
 30
0.0
  0
VERTEX
  8
0
 10
-73.587526
 20
-113.475367
 30
0.0
  0
VERTEX
  8
0
 10
-75.087526
 20
-114.341392
 30
0.0
  0
VERTEX
  8
0
 10
-76.587526
 20
-113.475367
 30
0.0
  0
SEQEND
  8
0
  0
ARC
  8
0
 10
-75.087526
 20
-62.815904
 30
0.0
 40
4.25
 50
10.164249
 51
169.835751
  0
CIRCLE
  8
0
 10
-75.087526
 20
-62.815904
 30
0.0
 40
5.0
  0
CIRCLE
  8
0
 10
-75.087526
 20
-62.815904
 30
0.0
 40
2.0
  0
LINE
  8
0
 10
-70.144096
 20
-62.065904
 30
0.0
 11
-73.233476
 21
-62.065904
 31
0.0
  0
LINE
  8
0
 10
-70.144096
 20
-63.565904
 30
0.0
 11
-73.233476
 21
-63.565904
 31
0.0
  0
ARC
  8
0
 10
-75.087526
 20
-62.815904
 30
0.0
 40
4.25
 50
190.164249
 51
349.835751
  0
LINE
  8
0
 10
-76.941575
 20
-62.065904
 30
0.0
 11
-80.030956
 21
-62.065904
 31
0.0
  0
LINE
  8
0
 10
-76.941575
 20
-63.565904
 30
0.0
 11
-80.030956
 21
-63.565904
 31
0.0
  0
LINE
  8
0
  6
CENTER
 10
-56.049036
 20
-68.405712
 30
0.0
 11
-56.049036
 21
-106.149918
 31
0.0
  0
LINE
  8
0
 10
-62.049036
 20
-72.816607
 30
0.0
 11
-62.049036
 21
-98.616607
 31
0.0
  0
LINE
  8
0
 10
-50.049036
 20
-72.816607
 30
0.0
 11
-50.049036
 21
-98.616607
 31
0.0
  0
LINE
  8
0
 10
-60.949036
 20
-71.716607
 30
0.0
 11
-51.149036
 21
-71.716607
 31
0.0
  0
LINE
  8
0
 10
-60.949036
 20
-99.716607
 30
0.0
 11
-59.049036
 21
-99.716607
 31
0.0
  0
ARC
  8
0
 10
-56.049036
 20
-100.716607
 30
0.0
 40
3.0
 50
180.0
 51
0.0
  0
LINE
  8
0
 10
-53.049036
 20
-100.716607
 30
0.0
 11
-53.049036
 21
-99.716607
 31
0.0
  0
LINE
  8
0
 10
-59.049036
 20
-100.716607
 30
0.0
 11
-59.049036
 21
-96.716607
 31
0.0
  0
LINE
  8
0
 10
-59.399036
 20
-87.716607
 30
0.0
 11
-56.049036
 21
-87.716607
 31
0.0
  0
LINE
  8
0
 10
-59.399036
 20
-87.716607
 30
0.0
 11
-59.399036
 21
-96.716607
 31
0.0
  0
LINE
  8
0
 10
-59.499036
 20
-96.716607
 30
0.0
 11
-59.049036
 21
-96.716607
 31
0.0
  0
LINE
  8
0
 10
-59.499036
 20
-79.716607
 30
0.0
 11
-59.499036
 21
-96.716607
 31
0.0
  0
LINE
  8
0
 10
-58.899036
 20
-93.516607
 30
0.0
 11
-56.049036
 21
-93.516607
 31
0.0
  0
LINE
  8
0
 10
-58.899036
 20
-87.716607
 30
0.0
 11
-58.899036
 21
-93.516607
 31
0.0
  0
LINE
  8
0
 10
-60.049036
 20
-79.716607
 30
0.0
 11
-56.049036
 21
-79.716607
 31
0.0
  0
LINE
  8
0
 10
-60.049036
 20
-71.716607
 30
0.0
 11
-60.049036
 21
-79.716607
 31
0.0
  0
LINE
  8
0
 10
-59.449036
 20
-71.716607
 30
0.0
 11
-59.449036
 21
-79.716607
 31
0.0
  0
LINE
  8
0
 10
-58.049036
 20
-76.716607
 30
0.0
 11
-56.049036
 21
-76.716607
 31
0.0
  0
LINE
  8
0
 10
-58.049036
 20
-71.716607
 30
0.0
 11
-58.049036
 21
-76.716607
 31
0.0
  0
LINE
  8
0
 10
-58.777676
 20
-93.159507
 30
0.0
 11
-56.049036
 21
-93.159507
 31
0.0
  0
LINE
  8
0
 10
-58.777676
 20
-79.7813
 30
0.0
 11
-56.049036
 21
-79.7813
 31
0.0
  0
LINE
  8
0
 10
-56.049036
 20
-80.45021
 30
0.0
 11
-58.777676
 21
-81.11912
 31
0.0
  0
LINE
  8
0
 10
-58.267772
 20
-81.24412
 30
0.0
 11
-56.049036
 21
-81.788031
 31
0.0
  0
LINE
  8
0
 10
-56.049036
 20
-83.125851
 30
0.0
 11
-58.777676
 21
-83.794762
 31
0.0
  0
LINE
  8
0
 10
-58.267772
 20
-83.919762
 30
0.0
 11
-56.049036
 21
-84.463672
 31
0.0
  0
LINE
  8
0
 10
-56.049036
 20
-85.801493
 30
0.0
 11
-58.777676
 21
-86.470403
 31
0.0
  0
LINE
  8
0
 10
-58.267772
 20
-86.595403
 30
0.0
 11
-56.049036
 21
-87.139314
 31
0.0
  0
LINE
  8
0
 10
-56.049036
 20
-88.477134
 30
0.0
 11
-58.777676
 21
-89.146045
 31
0.0
  0
LINE
  8
0
 10
-58.267772
 20
-89.271045
 30
0.0
 11
-56.049036
 21
-89.814955
 31
0.0
  0
LINE
  8
0
 10
-56.049036
 20
-91.152776
 30
0.0
 11
-58.777676
 21
-91.821686
 31
0.0
  0
LINE
  8
0
 10
-58.267772
 20
-91.946686
 30
0.0
 11
-56.049036
 21
-92.490596
 31
0.0
  0
LINE
  8
0
 10
-58.777676
 20
-92.071686
 30
0.0
 11
-56.049036
 21
-92.740596
 31
0.0
  0
LINE
  8
0
 10
-56.049036
 20
-91.402776
 30
0.0
 11
-58.267772
 21
-91.946686
 31
0.0
  0
LINE
  8
0
 10
-58.777676
 20
-89.396045
 30
0.0
 11
-56.049036
 21
-90.064955
 31
0.0
  0
LINE
  8
0
 10
-56.049036
 20
-88.727134
 30
0.0
 11
-58.267772
 21
-89.271045
 31
0.0
  0
LINE
  8
0
 10
-58.777676
 20
-86.720403
 30
0.0
 11
-56.049036
 21
-87.389314
 31
0.0
  0
LINE
  8
0
 10
-56.049036
 20
-86.051493
 30
0.0
 11
-58.267772
 21
-86.595403
 31
0.0
  0
LINE
  8
0
 10
-58.777676
 20
-84.044762
 30
0.0
 11
-56.049036
 21
-84.713672
 31
0.0
  0
LINE
  8
0
 10
-56.049036
 20
-83.375851
 30
0.0
 11
-58.267772
 21
-83.919762
 31
0.0
  0
LINE
  8
0
 10
-58.777676
 20
-81.36912
 30
0.0
 11
-56.049036
 21
-82.038031
 31
0.0
  0
LINE
  8
0
 10
-56.049036
 20
-80.70021
 30
0.0
 11
-58.267772
 21
-81.24412
 31
0.0
  0
LINE
  8
0
 10
-58.777676
 20
-80.0313
 30
0.0
 11
-56.049036
 21
-80.0313
 31
0.0
  0
LINE
  8
0
 10
-58.777676
 20
-93.409507
 30
0.0
 11
-56.049036
 21
-93.409507
 31
0.0
  0
LINE
  8
0
 10
-58.777676
 20
-79.7813
 30
0.0
 11
-58.777676
 21
-80.0313
 31
0.0
  0
LINE
  8
0
 10
-58.777676
 20
-81.11912
 30
0.0
 11
-58.777676
 21
-81.36912
 31
0.0
  0
LINE
  8
0
 10
-58.777676
 20
-83.794762
 30
0.0
 11
-58.777676
 21
-84.044762
 31
0.0
  0
LINE
  8
0
 10
-58.777676
 20
-86.470403
 30
0.0
 11
-58.777676
 21
-86.720403
 31
0.0
  0
LINE
  8
0
 10
-58.777676
 20
-89.146045
 30
0.0
 11
-58.777676
 21
-89.396045
 31
0.0
  0
LINE
  8
0
 10
-58.777676
 20
-91.821686
 30
0.0
 11
-58.777676
 21
-92.071686
 31
0.0
  0
LINE
  8
0
 10
-58.777676
 20
-93.159507
 30
0.0
 11
-58.777676
 21
-93.409507
 31
0.0
  0
LINE
  8
0
 10
-60.949036
 20
-71.716607
 30
0.0
 11
-60.949036
 21
-97.716607
 31
0.0
  0
LINE
  8
0
 10
-51.149036
 20
-71.716607
 30
0.0
 11
-51.149036
 21
-99.716607
 31
0.0
  0
LINE
  8
0
 10
-62.049036
 20
-97.716607
 30
0.0
 11
-59.049036
 21
-97.716607
 31
0.0
  0
LINE
  8
0
 10
-60.949036
 20
-71.716607
 30
0.0
 11
-62.049036
 21
-72.816607
 31
0.0
  0
LINE
  8
0
 10
-62.049036
 20
-98.616607
 30
0.0
 11
-60.949036
 21
-99.716607
 31
0.0
  0
LINE
  8
0
 10
-51.149036
 20
-99.716607
 30
0.0
 11
-50.049036
 21
-98.616607
 31
0.0
  0
LINE
  8
0
 10
-50.049036
 20
-72.816607
 30
0.0
 11
-51.149036
 21
-71.716607
 31
0.0
  0
LINE
  8
0
 10
-56.049036
 20
-99.716607
 30
0.0
 11
-51.149036
 21
-99.716607
 31
0.0
  0
LINE
  8
0
 10
-50.049036
 20
-72.816607
 30
0.0
 11
-56.049036
 21
-72.816607
 31
0.0
  0
LINE
  8
0
 10
-50.049036
 20
-98.616607
 30
0.0
 11
-56.049036
 21
-98.616607
 31
0.0
  0
POLYLINE
  8
0
 66
     1
 10
0.0
 20
0.0
 30
0.0
 70
     1
  0
VERTEX
  8
0
 10
-58.049036
 20
-114.232289
 30
0.0
  0
VERTEX
  8
0
 10
-56.049036
 20
-113.077589
 30
0.0
  0
VERTEX
  8
0
 10
-54.049036
 20
-114.232289
 30
0.0
  0
VERTEX
  8
0
 10
-54.049036
 20
-116.541691
 30
0.0
  0
VERTEX
  8
0
 10
-56.049036
 20
-117.696391
 30
0.0
  0
VERTEX
  8
0
 10
-58.049036
 20
-116.541691
 30
0.0
  0
SEQEND
  8
0
  0
CIRCLE
  8
0
 10
-56.049036
 20
-115.38699
 30
0.0
 40
3.4
  0
CIRCLE
  8
0
 10
-56.049036
 20
-115.38699
 30
0.0
 40
4.0
  0
CIRCLE
  8
0
 10
-56.049036
 20
-115.38699
 30
0.0
 40
4.9
  0
CIRCLE
  8
0
 10
-56.049036
 20
-115.38699
 30
0.0
 40
6.0
  0
CIRCLE
  8
0
 10
-56.049036
 20
-55.887265
 30
0.0
 40
6.0
  0
ARC
  8
0
 10
-56.049036
 20
-55.887265
 30
0.0
 40
4.9
 50
15.992421
 51
164.007579
  0
CIRCLE
  8
0
 10
-56.049036
 20
-55.887265
 30
0.0
 40
3.0
  0
LINE
  8
0
 10
-50.202883
 20
-54.537265
 30
0.0
 11
-53.36995
 21
-54.537265
 31
0.0
  0
LINE
  8
0
 10
-50.202883
 20
-57.237265
 30
0.0
 11
-53.36995
 21
-57.237265
 31
0.0
  0
ARC
  8
0
 10
-56.049036
 20
-55.887265
 30
0.0
 40
4.9
 50
195.992421
 51
344.007579
  0
LINE
  8
0
 10
-58.728121
 20
-54.537265
 30
0.0
 11
-61.895188
 21
-54.537265
 31
0.0
  0
LINE
  8
0
 10
-58.728121
 20
-57.237265
 30
0.0
 11
-61.895188
 21
-57.237265
 31
0.0
  0
LINE
  8
0
  6
CENTER
 10
-35.168252
 20
-63.458543
 30
0.0
 11
-35.168252
 21
-108.95675
 31
0.0
  0
LINE
  8
0
 10
-43.168252
 20
-68.716607
 30
0.0
 11
-43.168252
 21
-98.716607
 31
0.0
  0
LINE
  8
0
 10
-27.168252
 20
-68.716607
 30
0.0
 11
-27.168252
 21
-98.716607
 31
0.0
  0
LINE
  8
0
 10
-42.168252
 20
-67.716607
 30
0.0
 11
-28.168252
 21
-67.716607
 31
0.0
  0
LINE
  8
0
 10
-42.168252
 20
-99.716607
 30
0.0
 11
-38.918252
 21
-99.716607
 31
0.0
  0
ARC
  8
0
 10
-35.168252
 20
-100.966607
 30
0.0
 40
3.75
 50
179.999985
 51
0.000015
  0
LINE
  8
0
 10
-31.418252
 20
-100.966607
 30
0.0
 11
-31.418252
 21
-99.716607
 31
0.0
  0
LINE
  8
0
 10
-38.918252
 20
-100.966607
 30
0.0
 11
-38.918252
 21
-96.216607
 31
0.0
  0
LINE
  8
0
 10
-39.418252
 20
-85.216607
 30
0.0
 11
-35.168252
 21
-85.216607
 31
0.0
  0
LINE
  8
0
 10
-39.518252
 20
-96.216607
 30
0.0
 11
-38.918252
 21
-96.216607
 31
0.0
  0
LINE
  8
0
 10
-39.418252
 20
-85.216607
 30
0.0
 11
-39.418252
 21
-96.216607
 31
0.0
  0
LINE
  8
0
 10
-39.518252
 20
-77.716607
 30
0.0
 11
-39.518252
 21
-96.216607
 31
0.0
  0
LINE
  8
0
 10
-35.168252
 20
-99.716607
 30
0.0
 11
-28.168252
 21
-99.716607
 31
0.0
  0
LINE
  8
0
 10
-40.168252
 20
-77.716607
 30
0.0
 11
-35.168252
 21
-77.716607
 31
0.0
  0
LINE
  8
0
 10
-40.168252
 20
-67.716607
 30
0.0
 11
-40.168252
 21
-77.716607
 31
0.0
  0
LINE
  8
0
 10
-39.418252
 20
-67.716607
 30
0.0
 11
-39.418252
 21
-77.716607
 31
0.0
  0
LINE
  8
0
 10
-38.768252
 20
-85.216607
 30
0.0
 11
-38.768252
 21
-94.716607
 31
0.0
  0
LINE
  8
0
 10
-38.768252
 20
-94.716607
 30
0.0
 11
-35.168252
 21
-94.716607
 31
0.0
  0
LINE
  8
0
 10
-38.546607
 20
-77.74562
 30
0.0
 11
-35.168252
 21
-77.74562
 31
0.0
  0
LINE
  8
0
 10
-38.546607
 20
-94.279318
 30
0.0
 11
-35.168252
 21
-94.279318
 31
0.0
  0
LINE
  8
0
 10
-35.168252
 20
-78.572305
 30
0.0
 11
-38.546607
 21
-79.39899
 31
0.0
  0
LINE
  8
0
 10
-37.933612
 20
-79.54899
 30
0.0
 11
-35.168252
 21
-80.225674
 31
0.0
  0
LINE
  8
0
 10
-35.168252
 20
-81.879044
 30
0.0
 11
-38.546607
 21
-82.705729
 31
0.0
  0
LINE
  8
0
 10
-37.933612
 20
-82.855729
 30
0.0
 11
-35.168252
 21
-83.532414
 31
0.0
  0
LINE
  8
0
 10
-35.168252
 20
-85.185784
 30
0.0
 11
-38.546607
 21
-86.012469
 31
0.0
  0
LINE
  8
0
 10
-37.933612
 20
-86.162469
 30
0.0
 11
-35.168252
 21
-86.839154
 31
0.0
  0
LINE
  8
0
 10
-35.168252
 20
-88.492523
 30
0.0
 11
-38.546607
 21
-89.319208
 31
0.0
  0
LINE
  8
0
 10
-37.933612
 20
-89.469208
 30
0.0
 11
-35.168252
 21
-90.145893
 31
0.0
  0
LINE
  8
0
 10
-35.168252
 20
-91.799263
 30
0.0
 11
-38.546607
 21
-92.625948
 31
0.0
  0
LINE
  8
0
 10
-37.933612
 20
-92.775948
 30
0.0
 11
-35.168252
 21
-93.452633
 31
0.0
  0
LINE
  8
0
 10
-38.546607
 20
-92.925948
 30
0.0
 11
-35.168252
 21
-93.752633
 31
0.0
  0
LINE
  8
0
 10
-35.168252
 20
-92.099263
 30
0.0
 11
-37.933612
 21
-92.775948
 31
0.0
  0
LINE
  8
0
 10
-38.546607
 20
-89.619208
 30
0.0
 11
-35.168252
 21
-90.445893
 31
0.0
  0
LINE
  8
0
 10
-35.168252
 20
-88.792523
 30
0.0
 11
-37.933612
 21
-89.469208
 31
0.0
  0
LINE
  8
0
 10
-38.546607
 20
-86.312469
 30
0.0
 11
-35.168252
 21
-87.139154
 31
0.0
  0
LINE
  8
0
 10
-35.168252
 20
-85.485784
 30
0.0
 11
-37.933612
 21
-86.162469
 31
0.0
  0
LINE
  8
0
 10
-38.546607
 20
-83.005729
 30
0.0
 11
-35.168252
 21
-83.832414
 31
0.0
  0
LINE
  8
0
 10
-35.168252
 20
-82.179044
 30
0.0
 11
-37.933612
 21
-82.855729
 31
0.0
  0
LINE
  8
0
 10
-38.546607
 20
-79.69899
 30
0.0
 11
-35.168252
 21
-80.525674
 31
0.0
  0
LINE
  8
0
 10
-35.168252
 20
-78.872305
 30
0.0
 11
-37.933612
 21
-79.54899
 31
0.0
  0
LINE
  8
0
 10
-38.546607
 20
-94.579318
 30
0.0
 11
-35.168252
 21
-94.579318
 31
0.0
  0
LINE
  8
0
 10
-38.546607
 20
-78.04562
 30
0.0
 11
-35.168252
 21
-78.04562
 31
0.0
  0
LINE
  8
0
 10
-38.546607
 20
-77.74562
 30
0.0
 11
-38.546607
 21
-78.04562
 31
0.0
  0
LINE
  8
0
 10
-38.546607
 20
-79.39899
 30
0.0
 11
-38.546607
 21
-79.69899
 31
0.0
  0
LINE
  8
0
 10
-38.546607
 20
-82.705729
 30
0.0
 11
-38.546607
 21
-83.005729
 31
0.0
  0
LINE
  8
0
 10
-38.546607
 20
-86.012469
 30
0.0
 11
-38.546607
 21
-86.312469
 31
0.0
  0
LINE
  8
0
 10
-38.546607
 20
-89.319208
 30
0.0
 11
-38.546607
 21
-89.619208
 31
0.0
  0
LINE
  8
0
 10
-38.546607
 20
-92.625948
 30
0.0
 11
-38.546607
 21
-92.925948
 31
0.0
  0
LINE
  8
0
 10
-38.546607
 20
-94.279318
 30
0.0
 11
-38.546607
 21
-94.579318
 31
0.0
  0
LINE
  8
0
 10
-37.668252
 20
-67.716607
 30
0.0
 11
-37.668252
 21
-72.716607
 31
0.0
  0
LINE
  8
0
 10
-37.668252
 20
-72.716607
 30
0.0
 11
-35.168252
 21
-72.716607
 31
0.0
  0
LINE
  8
0
 10
-28.168252
 20
-67.716607
 30
0.0
 11
-27.168252
 21
-68.716607
 31
0.0
  0
LINE
  8
0
 10
-27.168252
 20
-98.716607
 30
0.0
 11
-28.168252
 21
-99.716607
 31
0.0
  0
LINE
  8
0
 10
-42.168252
 20
-99.716607
 30
0.0
 11
-43.168252
 21
-98.716607
 31
0.0
  0
LINE
  8
0
 10
-43.168252
 20
-68.716607
 30
0.0
 11
-42.168252
 21
-67.716607
 31
0.0
  0
LINE
  8
0
 10
-28.168252
 20
-67.716607
 30
0.0
 11
-28.168252
 21
-99.716607
 31
0.0
  0
LINE
  8
0
 10
-27.168252
 20
-68.716607
 30
0.0
 11
-35.168252
 21
-68.716607
 31
0.0
  0
LINE
  8
0
 10
-27.168252
 20
-98.716607
 30
0.0
 11
-35.168252
 21
-98.716607
 31
0.0
  0
LINE
  8
0
 10
-43.168252
 20
-96.716607
 30
0.0
 11
-38.918252
 21
-96.716607
 31
0.0
  0
LINE
  8
0
 10
-42.168252
 20
-67.716607
 30
0.0
 11
-42.168252
 21
-96.716607
 31
0.0
  0
CIRCLE
  8
0
 10
-35.168252
 20
-119.235904
 30
0.0
 40
8.0
  0
CIRCLE
  8
0
 10
-35.168252
 20
-119.235904
 30
0.0
 40
7.0
  0
CIRCLE
  8
0
 10
-35.168252
 20
-119.235904
 30
0.0
 40
5.0
  0
CIRCLE
  8
0
 10
-35.168252
 20
-119.235904
 30
0.0
 40
4.25
  0
POLYLINE
  8
0
 66
     1
 10
0.0
 20
0.0
 30
0.0
 70
     1
  0
VERTEX
  8
0
 10
-37.668252
 20
-117.792528
 30
0.0
  0
VERTEX
  8
0
 10
-35.168252
 20
-116.349153
 30
0.0
  0
VERTEX
  8
0
 10
-32.668252
 20
-117.792528
 30
0.0
  0
VERTEX
  8
0
 10
-32.668252
 20
-120.67928
 30
0.0
  0
VERTEX
  8
0
 10
-35.168252
 20
-122.122655
 30
0.0
  0
VERTEX
  8
0
 10
-37.668252
 20
-120.67928
 30
0.0
  0
SEQEND
  8
0
  0
CIRCLE
  8
0
 10
-35.168252
 20
-47.887986
 30
0.0
 40
8.0
  0
ARC
  8
0
 10
-35.168252
 20
-47.887986
 30
0.0
 40
7.0
 50
192.792954
 51
347.207046
  0
CIRCLE
  8
0
 10
-35.168252
 20
-47.887986
 30
0.0
 40
3.75
  0
LINE
  8
0
 10
-43.01666
 20
-46.337986
 30
0.0
 11
-38.582927
 21
-46.337986
 31
0.0
  0
LINE
  8
0
 10
-43.01666
 20
-49.437986
 30
0.0
 11
-38.582927
 21
-49.437986
 31
0.0
  0
ARC
  8
0
 10
-35.168252
 20
-47.887986
 30
0.0
 40
7.0
 50
12.792954
 51
167.207046
  0
LINE
  8
0
 10
-31.753578
 20
-46.337986
 30
0.0
 11
-27.319845
 21
-46.337986
 31
0.0
  0
LINE
  8
0
 10
-31.753578
 20
-49.437986
 30
0.0
 11
-27.319845
 21
-49.437986
 31
0.0
  0
LINE
  8
0
 10
-18.252003
 20
-60.966607
 30
0.0
 11
-18.252003
 21
-98.466607
 31
0.0
  0
LINE
  8
0
 10
1.747997
 20
-60.966607
 30
0.0
 11
1.747997
 21
-98.466607
 31
0.0
  0
LINE
  8
0
 10
-17.002003
 20
-59.716607
 30
0.0
 11
0.497997
 21
-59.716607
 31
0.0
  0
LINE
  8
0
 10
-17.002003
 20
-99.716607
 30
0.0
 11
-13.252003
 21
-99.716607
 31
0.0
  0
ARC
  8
0
 10
-8.252003
 20
-101.716607
 30
0.0
 40
5.0
 50
180.0
 51
360.0
  0
LINE
  8
0
 10
-3.252003
 20
-101.716607
 30
0.0
 11
-3.252003
 21
-99.716607
 31
0.0
  0
LINE
  8
0
 10
-13.252003
 20
-101.716607
 30
0.0
 11
-13.252003
 21
-94.516607
 31
0.0
  0
LINE
  8
0
 10
-8.252003
 20
-99.716607
 30
0.0
 11
0.497997
 21
-99.716607
 31
0.0
  0
LINE
  8
0
 10
-14.252003
 20
-80.716607
 30
0.0
 11
-14.252003
 21
-94.516607
 31
0.0
  0
LINE
  8
0
 10
-14.352003
 20
-94.516607
 30
0.0
 11
-13.252003
 21
-94.516607
 31
0.0
  0
LINE
  8
0
 10
-14.352003
 20
-71.716607
 30
0.0
 11
-14.352003
 21
-94.516607
 31
0.0
  0
LINE
  8
0
 10
-18.252003
 20
-96.716607
 30
0.0
 11
-13.252003
 21
-96.716607
 31
0.0
  0
LINE
  8
0
 10
-12.752003
 20
-91.216607
 30
0.0
 11
-8.252003
 21
-91.216607
 31
0.0
  0
LINE
  8
0
 10
-12.752003
 20
-80.716607
 30
0.0
 11
-12.752003
 21
-91.216607
 31
0.0
  0
LINE
  8
0
 10
0.497997
 20
-59.716607
 30
0.0
 11
1.747997
 21
-60.966607
 31
0.0
  0
LINE
  8
0
 10
1.747997
 20
-98.466607
 30
0.0
 11
0.497997
 21
-99.716607
 31
0.0
  0
LINE
  8
0
 10
-17.002003
 20
-99.716607
 30
0.0
 11
-18.252003
 21
-98.466607
 31
0.0
  0
LINE
  8
0
 10
-18.252003
 20
-60.966607
 30
0.0
 11
-17.002003
 21
-59.716607
 31
0.0
  0
LINE
  8
0
 10
0.497997
 20
-59.716607
 30
0.0
 11
0.497997
 21
-99.716607
 31
0.0
  0
LINE
  8
0
 10
1.747997
 20
-60.966607
 30
0.0
 11
-8.252003
 21
-60.966607
 31
0.0
  0
LINE
  8
0
 10
1.747997
 20
-98.466607
 30
0.0
 11
-8.252003
 21
-98.466607
 31
0.0
  0
LINE
  8
0
 10
-17.002003
 20
-59.716607
 30
0.0
 11
-17.002003
 21
-96.716607
 31
0.0
  0
LINE
  8
0
 10
-15.252003
 20
-71.716607
 30
0.0
 11
-8.252003
 21
-71.716607
 31
0.0
  0
LINE
  8
0
 10
-15.252003
 20
-59.716607
 30
0.0
 11
-15.252003
 21
-71.716607
 31
0.0
  0
LINE
  8
0
 10
-14.252003
 20
-59.716607
 30
0.0
 11
-14.252003
 21
-71.716607
 31
0.0
  0
LINE
  8
0
 10
-11.252003
 20
-66.716607
 30
0.0
 11
-8.252003
 21
-66.716607
 31
0.0
  0
LINE
  8
0
 10
-11.252003
 20
-59.716607
 30
0.0
 11
-11.252003
 21
-66.716607
 31
0.0
  0
LINE
  8
0
 10
-14.252003
 20
-80.716607
 30
0.0
 11
-12.452003
 21
-80.716607
 31
0.0
  0
CIRCLE
  8
0
 10
-8.252003
 20
-124.15605
 30
0.0
 40
10.0
  0
CIRCLE
  8
0
 10
-8.252003
 20
-124.15605
 30
0.0
 40
8.75
  0
CIRCLE
  8
0
 10
-8.252003
 20
-124.15605
 30
0.0
 40
7.0
  0
CIRCLE
  8
0
 10
-8.252003
 20
-124.15605
 30
0.0
 40
6.0
  0
POLYLINE
  8
0
 66
     1
 10
0.0
 20
0.0
 30
0.0
 70
     1
  0
VERTEX
  8
0
 10
-11.252003
 20
-122.423999
 30
0.0
  0
VERTEX
  8
0
 10
-8.252003
 20
-120.691948
 30
0.0
  0
VERTEX
  8
0
 10
-5.252003
 20
-122.423999
 30
0.0
  0
VERTEX
  8
0
 10
-5.252003
 20
-125.888101
 30
0.0
  0
VERTEX
  8
0
 10
-8.252003
 20
-127.620151
 30
0.0
  0
VERTEX
  8
0
 10
-11.252003
 20
-125.888101
 30
0.0
  0
SEQEND
  8
0
  0
CIRCLE
  8
0
 10
-8.252003
 20
-36.516941
 30
0.0
 40
10.0
  0
ARC
  8
0
 10
-8.252003
 20
-36.516941
 30
0.0
 40
8.75
 50
191.871316
 51
348.128684
  0
CIRCLE
  8
0
 10
-8.252003
 20
-36.516941
 30
0.0
 40
5.0
  0
LINE
  8
0
 10
-18.088669
 20
-34.716941
 30
0.0
 11
-12.916765
 21
-34.716941
 31
0.0
  0
LINE
  8
0
 10
-18.088669
 20
-38.316941
 30
0.0
 11
-12.916765
 21
-38.316941
 31
0.0
  0
ARC
  8
0
 10
-8.252003
 20
-36.516941
 30
0.0
 40
8.75
 50
11.871316
 51
168.128684
  0
LINE
  8
0
 10
-3.587242
 20
-34.716941
 30
0.0
 11
1.584663
 21
-34.716941
 31
0.0
  0
LINE
  8
0
 10
-3.587242
 20
-38.316941
 30
0.0
 11
1.584663
 21
-38.316941
 31
0.0
  0
LINE
  8
0
  6
CENTER
 10
-8.252003
 20
-54.796669
 30
0.0
 11
-8.252003
 21
-110.879245
 31
0.0
  0
LINE
  8
0
 10
10.044787
 20
-49.216607
 30
0.0
 11
10.044787
 21
-98.216607
 31
0.0
  0
LINE
  8
0
 10
34.044787
 20
-49.216607
 30
0.0
 11
34.044787
 21
-98.216607
 31
0.0
  0
LINE
  8
0
 10
11.544787
 20
-47.716607
 30
0.0
 11
32.544787
 21
-47.716607
 31
0.0
  0
LINE
  8
0
 10
11.544787
 20
-99.716607
 30
0.0
 11
16.044787
 21
-99.716607
 31
0.0
  0
ARC
  8
0
 10
22.044787
 20
-103.716607
 30
0.0
 40
6.0
 50
180.0
 51
0.000004
  0
LINE
  8
0
 10
28.044787
 20
-103.716607
 30
0.0
 11
28.044787
 21
-99.716607
 31
0.0
  0
LINE
  8
0
 10
16.044787
 20
-103.716607
 30
0.0
 11
16.044787
 21
-94.516607
 31
0.0
  0
LINE
  8
0
 10
22.044787
 20
-99.716607
 30
0.0
 11
32.544787
 21
-99.716607
 31
0.0
  0
LINE
  8
0
 10
15.044787
 20
-77.516607
 30
0.0
 11
15.044787
 21
-94.516607
 31
0.0
  0
LINE
  8
0
 10
14.944787
 20
-94.516607
 30
0.0
 11
16.044787
 21
-94.516607
 31
0.0
  0
LINE
  8
0
 10
14.944787
 20
-63.716607
 30
0.0
 11
14.944787
 21
-94.516607
 31
0.0
  0
LINE
  8
0
 10
16.244787
 20
-77.516607
 30
0.0
 11
16.244787
 21
-86.016607
 31
0.0
  0
LINE
  8
0
 10
14.044787
 20
-47.716607
 30
0.0
 11
14.044787
 21
-63.716607
 31
0.0
  0
LINE
  8
0
 10
14.044787
 20
-63.716607
 30
0.0
 11
22.044787
 21
-63.716607
 31
0.0
  0
LINE
  8
0
 10
15.044787
 20
-47.716607
 30
0.0
 11
15.044787
 21
-63.716607
 31
0.0
  0
LINE
  8
0
 10
16.244787
 20
-86.016607
 30
0.0
 11
22.044787
 21
-86.016607
 31
0.0
  0
LINE
  8
0
 10
22.044787
 20
-85.854907
 30
0.0
 11
16.644787
 21
-85.854907
 31
0.0
  0
LINE
  8
0
 10
15.044787
 20
-77.516607
 30
0.0
 11
17.152787
 21
-77.516607
 31
0.0
  0
LINE
  8
0
 10
-12.452003
 20
-91.099266
 30
0.0
 11
-8.252003
 21
-91.099266
 31
0.0
  0
LINE
  8
0
 10
-8.252003
 20
-72.183948
 30
0.0
 11
-12.452003
 21
-72.183948
 31
0.0
  0
LINE
  8
0
 10
-10.742278
 20
-90.749266
 30
0.0
 11
-8.252003
 21
-90.239479
 31
0.0
  0
LINE
  8
0
 10
-8.252003
 20
-88.519904
 30
0.0
 11
-12.452003
 21
-87.660117
 31
0.0
  0
LINE
  8
0
 10
-11.597141
 20
-87.485117
 30
0.0
 11
-8.252003
 21
-86.80033
 31
0.0
  0
LINE
  8
0
 10
-8.252003
 20
-85.080756
 30
0.0
 11
-12.452003
 21
-84.220969
 31
0.0
  0
LINE
  8
0
 10
-11.597141
 20
-84.045969
 30
0.0
 11
-8.252003
 21
-83.361181
 31
0.0
  0
LINE
  8
0
 10
-8.252003
 20
-81.641607
 30
0.0
 11
-12.452003
 21
-80.78182
 31
0.0
  0
LINE
  8
0
 10
-11.597141
 20
-80.60682
 30
0.0
 11
-8.252003
 21
-79.922033
 31
0.0
  0
LINE
  8
0
 10
-8.252003
 20
-78.202458
 30
0.0
 11
-12.452003
 21
-77.342671
 31
0.0
  0
LINE
  8
0
 10
-11.597141
 20
-77.167671
 30
0.0
 11
-8.252003
 21
-76.482884
 31
0.0
  0
LINE
  8
0
 10
-8.252003
 20
-74.76331
 30
0.0
 11
-12.452003
 21
-73.903523
 31
0.0
  0
LINE
  8
0
 10
-11.597141
 20
-73.728523
 30
0.0
 11
-8.252003
 21
-73.043736
 31
0.0
  0
LINE
  8
0
 10
-12.452003
 20
-73.553523
 30
0.0
 11
-8.252003
 21
-72.693736
 31
0.0
  0
LINE
  8
0
 10
-8.252003
 20
-74.41331
 30
0.0
 11
-11.597141
 21
-73.728523
 31
0.0
  0
LINE
  8
0
 10
-12.452003
 20
-76.992671
 30
0.0
 11
-8.252003
 21
-76.132884
 31
0.0
  0
LINE
  8
0
 10
-8.252003
 20
-77.852458
 30
0.0
 11
-11.597141
 21
-77.167671
 31
0.0
  0
LINE
  8
0
 10
-12.452003
 20
-80.43182
 30
0.0
 11
-8.252003
 21
-79.572033
 31
0.0
  0
LINE
  8
0
 10
-8.252003
 20
-81.291607
 30
0.0
 11
-11.597141
 21
-80.60682
 31
0.0
  0
LINE
  8
0
 10
-12.452003
 20
-83.870969
 30
0.0
 11
-8.252003
 21
-83.011181
 31
0.0
  0
LINE
  8
0
 10
-8.252003
 20
-84.730756
 30
0.0
 11
-11.597141
 21
-84.045969
 31
0.0
  0
LINE
  8
0
 10
-12.452003
 20
-87.310117
 30
0.0
 11
-8.252003
 21
-86.45033
 31
0.0
  0
LINE
  8
0
 10
-8.252003
 20
-88.169904
 30
0.0
 11
-11.597141
 21
-87.485117
 31
0.0
  0
LINE
  8
0
 10
-12.452003
 20
-90.749266
 30
0.0
 11
-8.252003
 21
-89.889479
 31
0.0
  0
LINE
  8
0
 10
-8.252003
 20
-71.833948
 30
0.0
 11
-12.452003
 21
-71.833948
 31
0.0
  0
LINE
  8
0
 10
-10.742278
 20
-90.749266
 30
0.0
 11
-8.252003
 21
-90.749266
 31
0.0
  0
LINE
  8
0
 10
-12.452003
 20
-71.833948
 30
0.0
 11
-12.452003
 21
-72.183948
 31
0.0
  0
LINE
  8
0
 10
-12.452003
 20
-73.553523
 30
0.0
 11
-12.452003
 21
-73.903523
 31
0.0
  0
LINE
  8
0
 10
-12.452003
 20
-76.992671
 30
0.0
 11
-12.452003
 21
-77.342671
 31
0.0
  0
LINE
  8
0
 10
-12.452003
 20
-80.43182
 30
0.0
 11
-12.452003
 21
-80.78182
 31
0.0
  0
LINE
  8
0
 10
-12.452003
 20
-83.870969
 30
0.0
 11
-12.452003
 21
-84.220969
 31
0.0
  0
LINE
  8
0
 10
-12.452003
 20
-87.310117
 30
0.0
 11
-12.452003
 21
-87.660117
 31
0.0
  0
LINE
  8
0
 10
-12.452003
 20
-90.749266
 30
0.0
 11
-12.452003
 21
-91.099266
 31
0.0
  0
LINE
  8
0
 10
-11.060838
 20
-80.716607
 30
0.0
 11
-8.252003
 21
-80.716607
 31
0.0
  0
LINE
  8
0
 10
22.044787
 20
-64.278307
 30
0.0
 11
16.644787
 21
-64.278307
 31
0.0
  0
LINE
  8
0
 10
18.847173
 20
-85.454907
 30
0.0
 11
22.044787
 21
-84.874153
 31
0.0
  0
LINE
  8
0
 10
22.044787
 20
-82.912643
 30
0.0
 11
16.644787
 21
-81.931889
 31
0.0
  0
LINE
  8
0
 10
17.74598
 20
-81.731889
 30
0.0
 11
22.044787
 21
-80.951134
 31
0.0
  0
LINE
  8
0
 10
22.044787
 20
-78.989625
 30
0.0
 11
16.644787
 21
-78.008871
 31
0.0
  0
LINE
  8
0
 10
17.74598
 20
-77.808871
 30
0.0
 11
22.044787
 21
-77.028116
 31
0.0
  0
LINE
  8
0
 10
22.044787
 20
-75.066607
 30
0.0
 11
16.644787
 21
-74.085853
 31
0.0
  0
LINE
  8
0
 10
17.74598
 20
-73.885853
 30
0.0
 11
22.044787
 21
-73.105098
 31
0.0
  0
LINE
  8
0
 10
22.044787
 20
-71.143589
 30
0.0
 11
16.644787
 21
-70.162834
 31
0.0
  0
LINE
  8
0
 10
17.74598
 20
-69.962834
 30
0.0
 11
22.044787
 21
-69.18208
 31
0.0
  0
LINE
  8
0
 10
22.044787
 20
-67.220571
 30
0.0
 11
16.644787
 21
-66.239816
 31
0.0
  0
LINE
  8
0
 10
17.74598
 20
-66.039816
 30
0.0
 11
22.044787
 21
-65.259062
 31
0.0
  0
LINE
  8
0
 10
16.644787
 20
-65.839816
 30
0.0
 11
22.044787
 21
-64.859062
 31
0.0
  0
LINE
  8
0
 10
22.044787
 20
-66.820571
 30
0.0
 11
17.74598
 21
-66.039816
 31
0.0
  0
LINE
  8
0
 10
16.644787
 20
-69.762834
 30
0.0
 11
22.044787
 21
-68.78208
 31
0.0
  0
LINE
  8
0
 10
22.044787
 20
-70.743589
 30
0.0
 11
17.74598
 21
-69.962834
 31
0.0
  0
LINE
  8
0
 10
16.644787
 20
-73.685853
 30
0.0
 11
22.044787
 21
-72.705098
 31
0.0
  0
LINE
  8
0
 10
22.044787
 20
-74.666607
 30
0.0
 11
17.74598
 21
-73.885853
 31
0.0
  0
LINE
  8
0
 10
16.644787
 20
-77.608871
 30
0.0
 11
22.044787
 21
-76.628116
 31
0.0
  0
LINE
  8
0
 10
22.044787
 20
-78.589625
 30
0.0
 11
17.74598
 21
-77.808871
 31
0.0
  0
LINE
  8
0
 10
16.644787
 20
-81.531889
 30
0.0
 11
22.044787
 21
-80.551134
 31
0.0
  0
LINE
  8
0
 10
22.044787
 20
-82.512643
 30
0.0
 11
17.74598
 21
-81.731889
 31
0.0
  0
LINE
  8
0
 10
16.644787
 20
-85.454907
 30
0.0
 11
22.044787
 21
-84.474153
 31
0.0
  0
LINE
  8
0
 10
22.044787
 20
-63.878307
 30
0.0
 11
16.644787
 21
-63.878307
 31
0.0
  0
LINE
  8
0
 10
22.044787
 20
-85.454907
 30
0.0
 11
18.847173
 21
-85.454907
 31
0.0
  0
LINE
  8
0
 10
16.644787
 20
-63.878307
 30
0.0
 11
16.644787
 21
-64.278307
 31
0.0
  0
LINE
  8
0
 10
16.644787
 20
-65.839816
 30
0.0
 11
16.644787
 21
-66.239816
 31
0.0
  0
LINE
  8
0
 10
16.644787
 20
-69.762834
 30
0.0
 11
16.644787
 21
-70.162834
 31
0.0
  0
LINE
  8
0
 10
16.644787
 20
-73.685853
 30
0.0
 11
16.644787
 21
-74.085853
 31
0.0
  0
LINE
  8
0
 10
16.644787
 20
-77.608871
 30
0.0
 11
16.644787
 21
-78.008871
 31
0.0
  0
LINE
  8
0
 10
16.644787
 20
-81.531889
 30
0.0
 11
16.644787
 21
-81.931889
 31
0.0
  0
LINE
  8
0
 10
16.644787
 20
-85.454907
 30
0.0
 11
16.644787
 21
-85.854907
 31
0.0
  0
LINE
  8
0
 10
19.355173
 20
-77.516607
 30
0.0
 11
22.044787
 21
-77.516607
 31
0.0
  0
LINE
  8
0
 10
10.044787
 20
-96.516607
 30
0.0
 11
16.044787
 21
-96.516607
 31
0.0
  0
LINE
  8
0
 10
32.544787
 20
-47.716607
 30
0.0
 11
34.044787
 21
-49.216607
 31
0.0
  0
LINE
  8
0
 10
34.044787
 20
-98.216607
 30
0.0
 11
32.544787
 21
-99.716607
 31
0.0
  0
LINE
  8
0
 10
11.544787
 20
-99.716607
 30
0.0
 11
10.044787
 21
-98.216607
 31
0.0
  0
LINE
  8
0
 10
10.044787
 20
-49.216607
 30
0.0
 11
11.544787
 21
-47.716607
 31
0.0
  0
LINE
  8
0
 10
32.544787
 20
-47.716607
 30
0.0
 11
32.544787
 21
-99.716607
 31
0.0
  0
LINE
  8
0
 10
34.044787
 20
-49.216607
 30
0.0
 11
22.044787
 21
-49.216607
 31
0.0
  0
LINE
  8
0
 10
34.044787
 20
-98.216607
 30
0.0
 11
22.044787
 21
-98.216607
 31
0.0
  0
LINE
  8
0
 10
11.544787
 20
-47.716607
 30
0.0
 11
11.544787
 21
-96.516607
 31
0.0
  0
LINE
  8
0
 10
18.044787
 20
-54.516607
 30
0.0
 11
22.044787
 21
-54.516607
 31
0.0
  0
LINE
  8
0
 10
18.044787
 20
-47.716607
 30
0.0
 11
18.044787
 21
-54.516607
 31
0.0
  0
LINE
  8
0
  6
CENTER
 10
22.044787
 20
-42.262713
 30
0.0
 11
22.044787
 21
-114.877774
 31
0.0
  0
CIRCLE
  8
0
 10
22.044787
 20
-131.669155
 30
0.0
 40
12.0
  0
CIRCLE
  8
0
 10
22.044787
 20
-131.669155
 30
0.0
 40
10.5
  0
CIRCLE
  8
0
 10
22.044787
 20
-131.669155
 30
0.0
 40
8.0
  0
CIRCLE
  8
0
 10
22.044787
 20
-131.669155
 30
0.0
 40
7.0
  0
POLYLINE
  8
0
 66
     1
 10
0.0
 20
0.0
 30
0.0
 70
     1
  0
VERTEX
  8
0
 10
18.044787
 20
-129.359754
 30
0.0
  0
VERTEX
  8
0
 10
22.044787
 20
-127.050353
 30
0.0
  0
VERTEX
  8
0
 10
26.044787
 20
-129.359754
 30
0.0
  0
VERTEX
  8
0
 10
26.044787
 20
-133.978556
 30
0.0
  0
VERTEX
  8
0
 10
22.044787
 20
-136.287957
 30
0.0
  0
VERTEX
  8
0
 10
18.044787
 20
-133.978556
 30
0.0
  0
SEQEND
  8
0
  0
CIRCLE
  8
0
 10
22.044787
 20
-23.372993
 30
0.0
 40
12.0
  0
ARC
  8
0
 10
22.044787
 20
-23.372993
 30
0.0
 40
10.5
 50
189.87089
 51
350.12911
  0
CIRCLE
  8
0
 10
22.044787
 20
-23.372993
 30
0.0
 40
6.0
  0
LINE
  8
0
 10
10.044787
 20
-21.572993
 30
0.0
 11
16.321152
 21
-21.572993
 31
0.0
  0
LINE
  8
0
 10
10.044787
 20
-25.172993
 30
0.0
 11
16.321152
 21
-25.172993
 31
0.0
  0
ARC
  8
0
 10
22.044787
 20
-23.372993
 30
0.0
 40
10.5
 50
9.87089
 51
170.12911
  0
LINE
  8
0
 10
27.768422
 20
-21.572993
 30
0.0
 11
33.909019
 21
-21.572993
 31
0.0
  0
LINE
  8
0
 10
27.768422
 20
-25.172993
 30
0.0
 11
33.909019
 21
-25.172993
 31
0.0
  0
LINE
  8
0
 10
-123.152214
 20
-99.366607
 30
0.0
 11
-125.152214
 21
-99.366607
 31
0.0
  0
LINE
  8
0
 10
-123.152214
 20
-85.066607
 30
0.0
 11
-125.152214
 21
-85.066607
 31
0.0
  0
INSERT
  8
0
  2
*X0
 10
0.0
 20
0.0
 30
0.0
1001
ACAD
1000
HATCH
1002
{
1070
    16
1000
ANSI31
1040
5.0
1040
0.0
1002
}
  0
INSERT
  8
0
  2
*X1
 10
0.0
 20
0.0
 30
0.0
1001
ACAD
1000
HATCH
1002
{
1070
    16
1000
ANSI31
1040
5.0
1040
0.0
1002
}
  0
INSERT
  8
0
  2
*X2
 10
0.0
 20
0.0
 30
0.0
1001
ACAD
1000
HATCH
1002
{
1070
    16
1000
ANSI31
1040
5.0
1040
0.0
1002
}
  0
INSERT
  8
0
  2
*X3
 10
0.0
 20
0.0
 30
0.0
1001
ACAD
1000
HATCH
1002
{
1070
    16
1000
ANSI31
1040
8.0
1040
0.0
1002
}
  0
INSERT
  8
0
  2
*X4
 10
0.0
 20
0.0
 30
0.0
1001
ACAD
1000
HATCH
1002
{
1070
    16
1000
ANSI31
1040
5.0
1040
0.0
1002
}
  0
INSERT
  8
0
  2
*X5
 10
0.0
 20
0.0
 30
0.0
1001
ACAD
1000
HATCH
1002
{
1070
    16
1000
ANSI31
1040
8.0
1040
0.0
1002
}
  0
INSERT
  8
0
  2
*X6
 10
0.0
 20
0.0
 30
0.0
1001
ACAD
1000
HATCH
1002
{
1070
    16
1000
ANSI31
1040
8.0
1040
0.0
1002
}
  0
INSERT
  8
0
  2
*X7
 10
0.0
 20
0.0
 30
0.0
1001
ACAD
1000
HATCH
1002
{
1070
    16
1000
ANSI31
1040
10.0
1040
0.0
1002
}
  0
INSERT
  8
0
  2
*X8
 10
0.0
 20
0.0
 30
0.0
1001
ACAD
1000
HATCH
1002
{
1070
    16
1000
ANSI31
1040
10.0
1040
0.0
1002
}
  0
ENDSEC
  0
EOF
