  0
SECTION
  2
HEADER
  9
$ACADVER
  1
AC1009
  9
$INSBASE
 10
0.0
 20
0.0
 30
0.0
  9
$EXTMIN
 10
28.04401125077743
 20
12.55296262651455
 30
-0.0015258207003583
  9
$EXTMAX
 10
63.358976665610271
 20
49.492704145884318
 30
0.0000000349246037
  9
$LIMMIN
 10
0.0
 20
0.0
  9
$LIMMAX
 10
12.0
 20
9.0
  9
$ORTHOMODE
 70
     1
  9
$REGENMODE
 70
     1
  9
$FILLMODE
 70
     1
  9
$QTEXTMODE
 70
     0
  9
$MIRRTEXT
 70
     1
  9
$DRAGMODE
 70
     2
  9
$LTSCALE
 40
4.0
  9
$OSMODE
 70
    40
  9
$ATTMODE
 70
     1
  9
$TEXTSIZE
 40
0.2
  9
$TRACEWID
 40
0.05
  9
$TEXTSTYLE
  7
STANDARD
  9
$CLAYER
  8
0
  9
$CELTYPE
  6
BYLAYER
  9
$CECOLOR
 62
   256
  9
$DIMSCALE
 40
1.0
  9
$DIMASZ
 40
2.5
  9
$DIMEXO
 40
0.0
  9
$DIMDLI
 40
5.0
  9
$DIMRND
 40
0.0
  9
$DIMDLE
 40
0.0
  9
$DIMEXE
 40
1.0
  9
$DIMTP
 40
0.0
  9
$DIMTM
 40
0.0
  9
$DIMTXT
 40
2.5
  9
$DIMCEN
 40
0.09
  9
$DIMTSZ
 40
0.0
  9
$DIMTOL
 70
     0
  9
$DIMLIM
 70
     0
  9
$DIMTIH
 70
     0
  9
$DIMTOH
 70
     0
  9
$DIMSE1
 70
     0
  9
$DIMSE2
 70
     0
  9
$DIMTAD
 70
     1
  9
$DIMZIN
 70
     0
  9
$DIMBLK
  1

  9
$DIMASO
 70
     0
  9
$DIMSHO
 70
     0
  9
$DIMPOST
  1

  9
$DIMAPOST
  1

  9
$DIMALT
 70
     0
  9
$DIMALTD
 70
     2
  9
$DIMALTF
 40
25.399999999999999
  9
$DIMLFAC
 40
1.0
  9
$DIMTOFL
 70
     1
  9
$DIMTVP
 40
0.0
  9
$DIMTIX
 70
     0
  9
$DIMSOXD
 70
     0
  9
$DIMSAH
 70
     0
  9
$DIMBLK1
  1

  9
$DIMBLK2
  1

  9
$DIMSTYLE
  2
STANDARD
  9
$DIMCLRD
 70
     0
  9
$DIMCLRE
 70
     0
  9
$DIMCLRT
 70
     0
  9
$DIMTFAC
 40
1.0
  9
$DIMGAP
 40
0.09
  9
$LUNITS
 70
     2
  9
$LUPREC
 70
     4
  9
$SKETCHINC
 40
0.1
  9
$FILLETRAD
 40
0.4
  9
$AUNITS
 70
     0
  9
$AUPREC
 70
     0
  9
$MENU
  1
wiberger
  9
$ELEVATION
 40
0.0
  9
$PELEVATION
 40
0.0
  9
$THICKNESS
 40
0.0
  9
$LIMCHECK
 70
     0
  9
$BLIPMODE
 70
     0
  9
$CHAMFERA
 40
2.6000000000000001
  9
$CHAMFERB
 40
2.6000000000000001
  9
$SKPOLY
 70
     0
  9
$TDCREATE
 40
2450210.5371248838
  9
$TDUPDATE
 40
2452692.4054728001
  9
$TDINDWG
 40
0.0038551273
  9
$TDUSRTIMER
 40
0.0038551273
  9
$USRTIMER
 70
     1
  9
$ANGBASE
 50
0.0
  9
$ANGDIR
 70
     0
  9
$PDMODE
 70
     0
  9
$PDSIZE
 40
0.0
  9
$PLINEWID
 40
0.0
  9
$COORDS
 70
     0
  9
$SPLFRAME
 70
     0
  9
$SPLINETYPE
 70
     6
  9
$SPLINESEGS
 70
     8
  9
$ATTDIA
 70
     0
  9
$ATTREQ
 70
     1
  9
$HANDLING
 70
-16383
  9
$HANDSEED
  5
3FE
  9
$SURFTAB1
 70
     6
  9
$SURFTAB2
 70
     6
  9
$SURFTYPE
 70
     6
  9
$SURFU
 70
     6
  9
$SURFV
 70
     6
  9
$UCSNAME
  2

  9
$UCSORG
 10
0.0
 20
0.0
 30
0.0
  9
$UCSXDIR
 10
1.0
 20
0.0
 30
0.0
  9
$UCSYDIR
 10
0.0
 20
1.0
 30
0.0
  9
$PUCSNAME
  2

  9
$PUCSORG
 10
0.0
 20
0.0
 30
0.0
  9
$PUCSXDIR
 10
1.0
 20
0.0
 30
0.0
  9
$PUCSYDIR
 10
0.0
 20
1.0
 30
0.0
  9
$USERI1
 70
     0
  9
$USERI2
 70
     0
  9
$USERI3
 70
     0
  9
$USERI4
 70
     0
  9
$USERI5
 70
     0
  9
$USERR1
 40
0.0
  9
$USERR2
 40
0.0
  9
$USERR3
 40
0.0
  9
$USERR4
 40
0.0
  9
$USERR5
 40
0.0
  9
$WORLDVIEW
 70
     1
  9
$SHADEDGE
 70
     3
  9
$SHADEDIF
 70
    70
  9
$TILEMODE
 70
     1
  9
$MAXACTVP
 70
    16
  9
$PLIMCHECK
 70
     0
  9
$PEXTMIN
 10
1.0000000000000000E+020
 20
1.0000000000000000E+020
 30
1.0000000000000000E+020
  9
$PEXTMAX
 10
-1.0000000000000000E+020
 20
-1.0000000000000000E+020
 30
-1.0000000000000000E+020
  9
$PLIMMIN
 10
0.0
 20
0.0
  9
$PLIMMAX
 10
12.0
 20
9.0
  9
$UNITMODE
 70
     0
  9
$VISRETAIN
 70
     0
  9
$PLINEGEN
 70
     0
  9
$PSLTSCALE
 70
     0
  0
ENDSEC
  0
SECTION
  2
TABLES
  0
TABLE
  2
VPORT
 70
     6
  0
VPORT
  2
*ACTIVE
 70
     0
 10
0.0
 20
0.0
 11
1.0
 21
1.0
 12
45.701493958193851
 22
31.02283338619943
 13
0.0
 23
0.0
 14
1.0
 24
1.0
 15
0.0
 25
0.0
 16
0.0
 26
0.0
 36
1.0
 17
0.0
 27
0.0
 37
0.0
 40
37.216443703035452
 41
1.5262500000000001
 42
50.0
 43
0.0
 44
0.0
 50
0.0
 51
0.0
 71
     0
 72
   100
 73
     1
 74
     0
 75
     0
 76
     0
 77
     0
 78
     0
  0
ENDTAB
  0
TABLE
  2
LTYPE
 70
     2
  0
LTYPE
  2
CONTINUOUS
 70
     0
  3
Solid line
 72
    65
 73
     0
 40
0.0
  0
LTYPE
  2
CENTER
 70
     0
  3
____ _ ____ _ ____ _ ____ _ ____ _ ____ _ ____
 72
    65
 73
     4
 40
2.0
 49
1.25
 49
-0.25
 49
0.25
 49
-0.25
  0
ENDTAB
  0
TABLE
  2
LAYER
 70
     1
  0
LAYER
  2
0
 70
     0
 62
     7
  6
CONTINUOUS
  0
ENDTAB
  0
TABLE
  2
STYLE
 70
     1
  0
STYLE
  2
STANDARD
 70
     0
 40
0.0
 41
1.0
 50
0.0
 71
     0
 42
0.2
  3
txt
  4

  0
ENDTAB
  0
TABLE
  2
VIEW
 70
     0
  0
ENDTAB
  0
TABLE
  2
UCS
 70
     0
  0
ENDTAB
  0
TABLE
  2
APPID
 70
     1
  0
APPID
  2
ACAD
 70
     0
  0
ENDTAB
  0
TABLE
  2
DIMSTYLE
 70
     1
  0
DIMSTYLE
  2
STANDARD
 70
     0
  3

  4

  5

  6

  7

 40
1.0
 41
0.18
 42
0.0625
 43
0.38
 44
0.18
 45
0.0
 46
0.0
 47
0.0
 48
0.0
140
0.18
141
0.09
142
0.0
143
25.399999999999999
144
1.0
145
0.0
146
1.0
147
0.09
 71
     0
 72
     0
 73
     1
 74
     1
 75
     0
 76
     0
 77
     0
 78
     0
170
     0
171
     2
172
     0
173
     0
174
     0
175
     0
176
     0
177
     0
178
     0
  0
ENDTAB
  0
ENDSEC
  0
SECTION
  2
BLOCKS
  0
BLOCK
  8
0
  2
$MODEL_SPACE
 70
     0
 10
0.0
 20
0.0
 30
0.0
  3
$MODEL_SPACE
  1

  0
ENDBLK
  5
32
  8
0
  0
BLOCK
 67
     1
  8
0
  2
$PAPER_SPACE
 70
     0
 10
0.0
 20
0.0
 30
0.0
  3
$PAPER_SPACE
  1

  0
ENDBLK
  5
30
 67
     1
  8
0
  0
BLOCK
  8
0
  2
*X0
 70
     1
 10
0.0
 20
0.0
 30
0.0
  3
*X0
  1

  0
LINE
  5
34
  8
0
 62
     0
 10
4.5047500018859896
 20
41.097525928289819
 30
0.0
 11
5.2547500018859878
 21
41.847525928289812
 31
0.0
  0
LINE
  5
35
  8
0
 62
     0
 10
4.5047500018859896
 20
41.627856014179727
 30
0.0
 11
5.2547500018859878
 21
42.37785601417972
 31
0.0
  0
LINE
  5
36
  8
0
 62
     0
 10
4.5047500018859896
 20
42.158186100069642
 30
0.0
 11
5.2547500018859878
 21
42.908186100069642
 31
0.0
  0
LINE
  5
37
  8
0
 62
     0
 10
4.5047500018859896
 20
42.68851618595955
 30
0.0
 11
5.2547500018859878
 21
43.438516185959543
 31
0.0
  0
LINE
  5
38
  8
0
 62
     0
 10
4.5047500018859896
 20
43.218846271849458
 30
0.0
 11
5.2547500018859878
 21
43.968846271849451
 31
0.0
  0
LINE
  5
39
  8
0
 62
     0
 10
5.9793999238914646
 20
44.693496193854941
 30
0.0
 11
6.0047500018859887
 21
44.718846271849458
 31
0.0
  0
LINE
  5
3A
  8
0
 62
     0
 10
4.5047500018859896
 20
43.74917635773938
 30
0.0
 11
5.2547500018859878
 21
44.499176357739373
 31
0.0
  0
LINE
  5
3B
  8
0
 62
     0
 10
5.4490698380015541
 20
44.693496193854941
 30
0.0
 11
5.9490698380015559
 21
45.193496193854941
 31
0.0
  0
LINE
  5
3C
  8
0
 62
     0
 10
4.5047500018859896
 20
44.279506443629288
 30
0.0
 11
5.8047500018860001
 21
45.579506443629299
 31
0.0
  0
LINE
  5
3D
  8
0
 62
     0
 10
4.5047500018859896
 20
44.809836529519202
 30
0.0
 11
5.388409666221734
 21
45.693496193854934
 31
0.0
  0
LINE
  5
3E
  8
0
 62
     0
 10
4.5047500018859896
 20
45.34016661540911
 30
0.0
 11
4.8580795803318226
 21
45.693496193854934
 31
0.0
  0
LINE
  5
3F
  8
0
 62
     0
 10
4.5047500018859887
 20
40.567195842399911
 30
0.0
 11
5.2547500018859878
 21
41.317195842399897
 31
0.0
  0
LINE
  5
40
  8
0
 62
     0
 10
4.5047500018859887
 20
40.036865756509997
 30
0.0
 11
5.2547500018859878
 21
40.786865756509997
 31
0.0
  0
LINE
  5
41
  8
0
 62
     0
 10
4.573230263503417
 20
39.575015932237513
 30
0.0
 11
5.2547500018859878
 21
40.256535670620089
 31
0.0
  0
LINE
  5
42
  8
0
 62
     0
 10
4.8383953064483771
 20
39.309850889292562
 30
0.0
 11
5.2547500018859878
 21
39.726205584730167
 31
0.0
  0
LINE
  5
43
  8
0
 62
     0
 10
4.9547500018860058
 20
38.895875498840283
 30
0.0
 11
5.2547500018859878
 21
39.195875498840259
 31
0.0
  0
LINE
  5
44
  8
0
 62
     0
 10
5.2827007827905703
 20
38.693496193854941
 30
0.0
 11
5.2938123648397042
 21
38.704607775904073
 31
0.0
  0
ENDBLK
  5
45
  8
0
  0
BLOCK
  8
0
  2
*X1
 70
     1
 10
0.0
 20
0.0
 30
0.0
  3
*X1
  1

  0
LINE
  5
47
  8
0
 62
     0
 10
28.050871883225639
 20
38.657473601023852
 30
0.0
 11
29.300871883225639
 21
39.907473601023852
 31
0.0
  0
LINE
  5
48
  8
0
 62
     0
 10
28.050871883225639
 20
39.54135707750703
 30
0.0
 11
29.300871883225639
 21
40.791357077507037
 31
0.0
  0
LINE
  5
49
  8
0
 62
     0
 10
28.050871883225639
 20
40.425240553990221
 30
0.0
 11
29.300871883225639
 21
41.675240553990228
 31
0.0
  0
LINE
  5
4A
  8
0
 62
     0
 10
28.050871883225639
 20
41.309124030473399
 30
0.0
 11
29.300871883225639
 21
42.559124030473413
 31
0.0
  0
LINE
  5
4B
  8
0
 62
     0
 10
28.050871883225639
 20
42.19300750695659
 30
0.0
 11
29.300871883225639
 21
43.44300750695659
 31
0.0
  0
LINE
  5
4C
  8
0
 62
     0
 10
28.050871883225639
 20
43.076890983439768
 30
0.0
 11
29.300871883225639
 21
44.326890983439782
 31
0.0
  0
LINE
  5
4D
  8
0
 62
     0
 10
30.970375911877401
 20
45.996395012091533
 30
0.0
 11
31.050871883225639
 21
46.076890983439768
 31
0.0
  0
LINE
  5
4E
  8
0
 62
     0
 10
28.050871883225639
 20
43.960774459922959
 30
0.0
 11
29.300871883225639
 21
45.210774459922959
 31
0.0
  0
LINE
  5
4F
  8
0
 62
     0
 10
30.08649243539422
 20
45.99639501209154
 30
0.0
 11
30.586492435394231
 21
46.49639501209154
 31
0.0
  0
LINE
  5
50
  8
0
 62
     0
 10
28.050871883225639
 20
44.844657936406151
 30
0.0
 11
30.500871883225638
 21
47.294657936406132
 31
0.0
  0
LINE
  5
51
  8
0
 62
     0
 10
28.050871883225639
 20
45.728541412889328
 30
0.0
 11
29.818725482427851
 21
47.49639501209154
 31
0.0
  0
LINE
  5
52
  8
0
 62
     0
 10
28.050871883225639
 20
46.612424889372519
 30
0.0
 11
28.93484200594466
 21
47.496395012091533
 31
0.0
  0
LINE
  5
53
  8
0
 62
     0
 10
28.050871883225639
 20
37.773590124540661
 30
0.0
 11
29.300871883225639
 21
39.023590124540668
 31
0.0
  0
LINE
  5
54
  8
0
 62
     0
 10
28.050871883225639
 20
36.889706648057476
 30
0.0
 11
29.300871883225639
 21
38.139706648057491
 31
0.0
  0
LINE
  5
55
  8
0
 62
     0
 10
28.050871883225639
 20
36.005823171574299
 30
0.0
 11
29.300871883225639
 21
37.255823171574299
 31
0.0
  0
LINE
  5
56
  8
0
 62
     0
 10
28.138099541725861
 20
35.209167353591333
 30
0.0
 11
29.300871883225639
 21
36.371939695091122
 31
0.0
  0
LINE
  5
57
  8
0
 62
     0
 10
28.58004127996745
 20
34.767225615349737
 30
0.0
 11
29.300871883225639
 21
35.48805621860793
 31
0.0
  0
LINE
  5
58
  8
0
 62
     0
 10
28.750871883225649
 20
34.054172742124763
 30
0.0
 11
29.300871883225639
 21
34.604172742124753
 31
0.0
  0
LINE
  5
59
  8
0
 62
     0
 10
29.076977629675621
 20
33.49639501209154
 30
0.0
 11
29.363391998217871
 21
33.782809380633793
 31
0.0
  0
ENDBLK
  5
5A
  8
0
  0
BLOCK
  8
0
  2
*X2
 70
     1
 10
0.0
 20
0.0
 30
0.0
  3
*X2
  1

  0
LINE
  5
5C
  8
0
 62
     0
 10
38.59612372755506
 20
38.59612372755506
 30
0.0
 11
40.096123727555067
 21
40.096123727555067
 31
0.0
  0
LINE
  5
5D
  8
0
 62
     0
 10
38.59612372755506
 20
39.480007204038237
 30
0.0
 11
40.096123727555067
 21
40.980007204038252
 31
0.0
  0
LINE
  5
5E
  8
0
 62
     0
 10
38.59612372755506
 20
40.363890680521429
 30
0.0
 11
40.096123727555067
 21
41.863890680521429
 31
0.0
  0
LINE
  5
5F
  8
0
 62
     0
 10
38.59612372755506
 20
41.247774157004613
 30
0.0
 11
40.096123727555067
 21
42.747774157004613
 31
0.0
  0
LINE
  5
60
  8
0
 62
     0
 10
38.59612372755506
 20
42.131657633487791
 30
0.0
 11
40.096123727555067
 21
43.631657633487812
 31
0.0
  0
LINE
  5
61
  8
0
 62
     0
 10
41.79018462182416
 20
45.325718527756891
 30
0.0
 11
42.290184621824153
 21
45.825718527756877
 31
0.0
  0
LINE
  5
62
  8
0
 62
     0
 10
38.59612372755506
 20
43.015541109970982
 30
0.0
 11
40.096123727555067
 21
44.515541109970989
 31
0.0
  0
LINE
  5
63
  8
0
 62
     0
 10
40.906301145340969
 20
45.325718527756891
 30
0.0
 11
41.946123727555062
 21
46.365541109970977
 31
0.0
  0
LINE
  5
64
  8
0
 62
     0
 10
38.59612372755506
 20
43.899424586454167
 30
0.0
 11
41.946123727555062
 21
47.249424586454182
 31
0.0
  0
LINE
  5
65
  8
0
 62
     0
 10
38.59612372755506
 20
44.783308062937351
 30
0.0
 11
41.638534192374607
 21
47.825718527756891
 31
0.0
  0
LINE
  5
66
  8
0
 62
     0
 10
38.59612372755506
 20
45.667191539420529
 30
0.0
 11
40.754650715891422
 21
47.825718527756891
 31
0.0
  0
LINE
  5
67
  8
0
 62
     0
 10
38.59612372755506
 20
46.55107501590372
 30
0.0
 11
39.870767239408231
 21
47.825718527756891
 31
0.0
  0
LINE
  5
68
  8
0
 62
     0
 10
38.59612372755506
 20
37.712240251071869
 30
0.0
 11
40.096123727555067
 21
39.212240251071883
 31
0.0
  0
LINE
  5
69
  8
0
 62
     0
 10
38.59612372755506
 20
36.828356774588691
 30
0.0
 11
40.096123727555067
 21
38.328356774588698
 31
0.0
  0
LINE
  5
6A
  8
0
 62
     0
 10
38.59612372755506
 20
35.944473298105507
 30
0.0
 11
40.096123727555067
 21
37.444473298105507
 31
0.0
  0
LINE
  5
6B
  8
0
 62
     0
 10
38.59612372755506
 20
35.060589821622322
 30
0.0
 11
40.096123727555067
 21
36.56058982162233
 31
0.0
  0
LINE
  5
6C
  8
0
 62
     0
 10
38.59612372755506
 20
34.176706345139138
 30
0.0
 11
40.096123727555067
 21
35.676706345139138
 31
0.0
  0
LINE
  5
6D
  8
0
 62
     0
 10
38.962571557105541
 20
33.659270698206427
 30
0.0
 11
40.096123727555067
 21
34.792822868655961
 31
0.0
  0
LINE
  5
6E
  8
0
 62
     0
 10
39.40451329534713
 20
33.217328959964838
 30
0.0
 11
40.096123727555067
 21
33.908939392172769
 31
0.0
  0
LINE
  5
6F
  8
0
 62
     0
 10
39.49612372755508
 20
32.425055915689597
 30
0.0
 11
40.096123727555067
 21
33.025055915689592
 31
0.0
  0
LINE
  5
70
  8
0
 62
     0
 10
39.838396771830311
 20
31.883445483481651
 30
0.0
 11
40.171481555395758
 21
32.216530267047098
 31
0.0
  0
ENDBLK
  5
71
  8
0
  0
BLOCK
  8
0
  2
*X3
 70
     1
 10
0.0
 20
0.0
 30
0.0
  3
*X3
  1

  0
LINE
  5
73
  8
0
 62
     0
 10
53.356123727555051
 20
37.446221150857731
 30
0.0
 11
55.356123727555072
 21
39.446221150857752
 31
0.0
  0
LINE
  5
74
  8
0
 62
     0
 10
53.356123727555051
 20
38.330104627340923
 30
0.0
 11
55.356123727555072
 21
40.33010462734093
 31
0.0
  0
LINE
  5
75
  8
0
 62
     0
 10
53.356123727555051
 20
39.2139881038241
 30
0.0
 11
55.356123727555072
 21
41.213988103824107
 31
0.0
  0
LINE
  5
76
  8
0
 62
     0
 10
53.356123727555051
 20
40.097871580307292
 30
0.0
 11
55.356123727555058
 21
42.097871580307313
 31
0.0
  0
LINE
  5
77
  8
0
 62
     0
 10
53.356123727555051
 20
40.981755056790469
 30
0.0
 11
55.356123727555058
 21
42.981755056790483
 31
0.0
  0
LINE
  5
78
  8
0
 62
     0
 10
53.356123727555051
 20
41.86563853327366
 30
0.0
 11
55.356123727555058
 21
43.86563853327366
 31
0.0
  0
LINE
  5
79
  8
0
 62
     0
 10
57.89662204184134
 20
46.406136847559949
 30
0.0
 11
58.356123727555051
 21
46.86563853327366
 31
0.0
  0
LINE
  5
7A
  8
0
 62
     0
 10
53.356123727555051
 20
42.749522009756838
 30
0.0
 11
55.356123727555058
 21
44.749522009756852
 31
0.0
  0
LINE
  5
7B
  8
0
 62
     0
 10
57.012738565358163
 20
46.406136847559949
 30
0.0
 11
57.606123727555058
 21
46.999522009756838
 31
0.0
  0
LINE
  5
7C
  8
0
 62
     0
 10
53.356123727555051
 20
43.633405486240029
 30
0.0
 11
55.356123727555058
 21
45.633405486240036
 31
0.0
  0
LINE
  5
7D
  8
0
 62
     0
 10
56.128855088874971
 20
46.406136847559949
 30
0.0
 11
57.606123727555058
 21
47.883405486240022
 31
0.0
  0
LINE
  5
7E
  8
0
 62
     0
 10
53.356123727555051
 20
44.517288962723207
 30
0.0
 11
57.606123727555058
 21
48.767288962723221
 31
0.0
  0
LINE
  5
7F
  8
0
 62
     0
 10
53.356123727555051
 20
45.401172439206391
 30
0.0
 11
56.861088135908602
 21
48.906136847559949
 31
0.0
  0
LINE
  5
80
  8
0
 62
     0
 10
53.356123727555051
 20
46.285055915689583
 30
0.0
 11
55.977204659425418
 21
48.906136847559949
 31
0.0
  0
LINE
  5
81
  8
0
 62
     0
 10
53.356123727555051
 20
47.168939392172767
 30
0.0
 11
55.093321182942233
 21
48.906136847559949
 31
0.0
  0
LINE
  5
82
  8
0
 62
     0
 10
53.356123727555051
 20
36.562337674374547
 30
0.0
 11
55.356123727555072
 21
38.562337674374568
 31
0.0
  0
LINE
  5
83
  8
0
 62
     0
 10
53.356123727555051
 20
35.678454197891362
 30
0.0
 11
55.356123727555072
 21
37.678454197891377
 31
0.0
  0
LINE
  5
84
  8
0
 62
     0
 10
53.356123727555051
 20
34.794570721408178
 30
0.0
 11
55.356123727555072
 21
36.794570721408199
 31
0.0
  0
LINE
  5
85
  8
0
 62
     0
 10
53.356123727555051
 20
33.910687244925001
 30
0.0
 11
55.356123727555072
 21
35.910687244925008
 31
0.0
  0
LINE
  5
86
  8
0
 62
     0
 10
53.356123727555051
 20
33.026803768441809
 30
0.0
 11
55.356123727555072
 21
35.02680376844183
 31
0.0
  0
LINE
  5
87
  8
0
 62
     0
 10
53.61273200535571
 20
32.399528569759291
 30
0.0
 11
55.356123727555072
 21
34.142920291958639
 31
0.0
  0
LINE
  5
88
  8
0
 62
     0
 10
54.054673743597299
 20
31.957586831517691
 30
0.0
 11
55.356123727555079
 21
33.259036815475469
 31
0.0
  0
LINE
  5
89
  8
0
 62
     0
 10
54.496615481838901
 20
31.515645093276099
 30
0.0
 11
55.356123727555079
 21
32.375153338992277
 31
0.0
  0
LINE
  5
8A
  8
0
 62
     0
 10
54.806123727555061
 20
30.941269862509081
 30
0.0
 11
55.356123727555079
 21
31.4912698625091
 31
0.0
  0
LINE
  5
8B
  8
0
 62
     0
 10
54.930498958322083
 20
30.181761616792919
 30
0.0
 11
55.369707794164988
 21
30.620970452635831
 31
0.0
  0
ENDBLK
  5
8C
  8
0
  0
BLOCK
  8
0
  2
*X4
 70
     1
 10
0.0
 20
0.0
 30
0.0
  3
*X4
  1

  0
LINE
  5
8E
  8
0
 62
     0
 10
69.470311720426693
 20
36.943399785845521
 30
0.0
 11
71.470311720426693
 21
38.943399785845521
 31
0.0
  0
LINE
  5
8F
  8
0
 62
     0
 10
69.470311720426693
 20
38.357613348218621
 30
0.0
 11
71.470311720426693
 21
40.357613348218621
 31
0.0
  0
LINE
  5
90
  8
0
 62
     0
 10
69.470311720426693
 20
39.771826910591713
 30
0.0
 11
71.470311720426693
 21
41.771826910591713
 31
0.0
  0
LINE
  5
91
  8
0
 62
     0
 10
69.470311720426693
 20
41.186040472964812
 30
0.0
 11
71.470311720426693
 21
43.186040472964812
 31
0.0
  0
LINE
  5
92
  8
0
 62
     0
 10
69.470311720426693
 20
42.600254035337898
 30
0.0
 11
71.470311720426693
 21
44.600254035337898
 31
0.0
  0
LINE
  5
93
  8
0
 62
     0
 10
74.158417320012504
 20
47.288359634923708
 30
0.0
 11
75.158417320012504
 21
48.288359634923701
 31
0.0
  0
LINE
  5
94
  8
0
 62
     0
 10
69.470311720426693
 20
44.014467597710997
 30
0.0
 11
71.470311720426693
 21
46.01446759771099
 31
0.0
  0
LINE
  5
95
  8
0
 62
     0
 10
72.744203757639411
 20
47.288359634923708
 30
0.0
 11
74.370311720426699
 21
48.914467597710988
 31
0.0
  0
LINE
  5
96
  8
0
 62
     0
 10
69.470311720426693
 20
45.428681160084089
 30
0.0
 11
74.370311720426699
 21
50.328681160084088
 31
0.0
  0
LINE
  5
97
  8
0
 62
     0
 10
69.470311720426693
 20
46.842894722457181
 30
0.0
 11
73.11577663289323
 21
50.488359634923711
 31
0.0
  0
LINE
  5
98
  8
0
 62
     0
 10
69.470311720426693
 20
48.257108284830281
 30
0.0
 11
71.701563070520137
 21
50.488359634923711
 31
0.0
  0
LINE
  5
99
  8
0
 62
     0
 10
69.470311720426693
 20
35.529186223472429
 30
0.0
 11
71.470311720426693
 21
37.529186223472429
 31
0.0
  0
LINE
  5
9A
  8
0
 62
     0
 10
69.470311720426693
 20
34.11497266109933
 30
0.0
 11
71.470311720426693
 21
36.114972661099337
 31
0.0
  0
LINE
  5
9B
  8
0
 62
     0
 10
69.470311720426693
 20
32.70075909872623
 30
0.0
 11
71.470311720426693
 21
34.70075909872623
 31
0.0
  0
LINE
  5
9C
  8
0
 62
     0
 10
69.470311720426693
 20
31.286545536353142
 30
0.0
 11
71.470311720426693
 21
33.286545536353138
 31
0.0
  0
LINE
  5
9D
  8
0
 62
     0
 10
70.103325550898546
 20
30.505345804451881
 30
0.0
 11
71.470311720426693
 21
31.872331973980049
 31
0.0
  0
LINE
  5
9E
  8
0
 62
     0
 10
70.810432332085085
 20
29.798239023265339
 30
0.0
 11
71.470311720426693
 21
30.45811841160695
 31
0.0
  0
LINE
  5
9F
  8
0
 62
     0
 10
71.167539113271644
 20
28.741132242078791
 30
0.0
 11
71.562221726697587
 21
29.135814855504741
 31
0.0
  0
ENDBLK
  5
A0
  8
0
  0
BLOCK
  8
0
  2
*X5
 70
     1
 10
0.0
 20
0.0
 30
0.0
  3
*X5
  1

  0
LINE
  5
A2
  8
0
 62
     0
 10
90.902073038887465
 20
37.16195766870986
 30
0.0
 11
93.902073038887451
 21
40.161957668709853
 31
0.0
  0
LINE
  5
A3
  8
0
 62
     0
 10
90.902073038887465
 20
38.576171231082952
 30
0.0
 11
93.902073038887451
 21
41.576171231082938
 31
0.0
  0
LINE
  5
A4
  8
0
 62
     0
 10
90.902073038887465
 20
39.990384793456037
 30
0.0
 11
93.902073038887451
 21
42.99038479345603
 31
0.0
  0
LINE
  5
A5
  8
0
 62
     0
 10
90.902073038887465
 20
41.40459835582913
 30
0.0
 11
93.902073038887451
 21
44.404598355829123
 31
0.0
  0
LINE
  5
A6
  8
0
 62
     0
 10
98.323611016339314
 20
48.826136333280992
 30
0.0
 11
98.902073038887465
 21
49.404598355829151
 31
0.0
  0
LINE
  5
A7
  8
0
 62
     0
 10
90.902073038887465
 20
42.818811918202229
 30
0.0
 11
93.902073038887451
 21
45.818811918202222
 31
0.0
  0
LINE
  5
A8
  8
0
 62
     0
 10
96.909397453966207
 20
48.826136333280978
 30
0.0
 11
97.952073038887463
 21
49.86881191820224
 31
0.0
  0
LINE
  5
A9
  8
0
 62
     0
 10
90.902073038887437
 20
44.233025480575328
 30
0.0
 11
93.902073038887451
 21
47.233025480575321
 31
0.0
  0
LINE
  5
AA
  8
0
 62
     0
 10
95.495183891593101
 20
48.826136333280971
 30
0.0
 11
97.952073038887463
 21
51.283025480575333
 31
0.0
  0
LINE
  5
AB
  8
0
 62
     0
 10
90.902073038887437
 20
45.647239042948421
 30
0.0
 11
93.902073038887451
 21
48.647239042948407
 31
0.0
  0
LINE
  5
AC
  8
0
 62
     0
 10
94.080970329219994
 20
48.826136333280957
 30
0.0
 11
97.952073038887463
 21
52.697239042948418
 31
0.0
  0
LINE
  5
AD
  8
0
 62
     0
 10
90.902073038887437
 20
47.061452605321513
 30
0.0
 11
96.66675676684693
 21
52.826136333280992
 31
0.0
  0
LINE
  5
AE
  8
0
 62
     0
 10
90.902073038887437
 20
48.475666167694591
 30
0.0
 11
95.252543204473838
 21
52.826136333280992
 31
0.0
  0
LINE
  5
AF
  8
0
 62
     0
 10
90.902073038887437
 20
49.88987973006769
 30
0.0
 11
93.838329642100746
 21
52.826136333280978
 31
0.0
  0
LINE
  5
B0
  8
0
 62
     0
 10
90.902073038887465
 20
35.747744106336761
 30
0.0
 11
93.902073038887451
 21
38.747744106336746
 31
0.0
  0
LINE
  5
B1
  8
0
 62
     0
 10
90.902073038887465
 20
34.333530543963668
 30
0.0
 11
93.902073038887451
 21
37.333530543963661
 31
0.0
  0
LINE
  5
B2
  8
0
 62
     0
 10
90.90207303888748
 20
32.919316981590583
 30
0.0
 11
93.902073038887465
 21
35.919316981590562
 31
0.0
  0
LINE
  5
B3
  8
0
 62
     0
 10
91.062589495919227
 20
31.665619876249242
 30
0.0
 11
93.902073038887465
 21
34.50510341921747
 31
0.0
  0
LINE
  5
B4
  8
0
 62
     0
 10
91.76969627710578
 20
30.958513095062688
 30
0.0
 11
93.902073038887465
 21
33.090889856844377
 31
0.0
  0
LINE
  5
B5
  8
0
 62
     0
 10
92.476803058292319
 20
30.251406313876139
 30
0.0
 11
93.902073038887465
 21
31.676676294471282
 31
0.0
  0
LINE
  5
B6
  8
0
 62
     0
 10
92.902073038887465
 20
29.262462732098189
 30
0.0
 11
93.902473405142516
 21
30.26286309835324
 31
0.0
  0
LINE
  5
B7
  8
0
 62
     0
 10
93.879960202443357
 20
28.826136333280981
 30
0.0
 11
94.075289905539066
 21
29.02146603637669
 31
0.0
  0
ENDBLK
  5
B8
  8
0
  0
BLOCK
  8
0
  2
*X6
 70
     1
 10
0.0
 20
0.0
 30
0.0
  3
*X6
  1

  0
LINE
  5
BA
  8
0
 62
     0
 10
116.0757495529823
 20
34.758469716529412
 30
0.0
 11
120.0757495529823
 21
38.75846971652939
 31
0.0
  0
LINE
  5
BB
  8
0
 62
     0
 10
116.0757495529823
 20
36.526236669495781
 30
0.0
 11
120.0757495529823
 21
40.526236669495759
 31
0.0
  0
LINE
  5
BC
  8
0
 62
     0
 10
116.0757495529823
 20
38.294003622462142
 30
0.0
 11
120.0757495529823
 21
42.294003622462121
 31
0.0
  0
LINE
  5
BD
  8
0
 62
     0
 10
125.8808364306543
 20
48.09909050013416
 30
0.0
 11
126.0757495529823
 21
48.294003622462142
 31
0.0
  0
LINE
  5
BE
  8
0
 62
     0
 10
116.0757495529823
 20
40.061770575428518
 30
0.0
 11
120.0757495529823
 21
44.061770575428497
 31
0.0
  0
LINE
  5
BF
  8
0
 62
     0
 10
124.113069477688
 20
48.09909050013416
 30
0.0
 11
125.613069477688
 21
49.59909050013416
 31
0.0
  0
LINE
  5
C0
  8
0
 62
     0
 10
116.0757495529823
 20
41.829537528394887
 30
0.0
 11
120.0757495529823
 21
45.829537528394859
 31
0.0
  0
LINE
  5
C1
  8
0
 62
     0
 10
122.3453025247216
 20
48.09909050013416
 30
0.0
 11
124.8257495529823
 21
50.579537528394859
 31
0.0
  0
LINE
  5
C2
  8
0
 62
     0
 10
116.0757495529823
 20
43.597304481361263
 30
0.0
 11
120.0757495529823
 21
47.597304481361242
 31
0.0
  0
LINE
  5
C3
  8
0
 62
     0
 10
120.57753557175521
 20
48.099090500134153
 30
0.0
 11
124.8257495529823
 21
52.347304481361228
 31
0.0
  0
LINE
  5
C4
  8
0
 62
     0
 10
116.0757495529823
 20
45.365071434327632
 30
0.0
 11
124.0097686187889
 21
53.29909050013417
 31
0.0
  0
LINE
  5
C5
  8
0
 62
     0
 10
116.0757495529823
 20
47.132838387294001
 30
0.0
 11
122.2420016658225
 21
53.29909050013417
 31
0.0
  0
LINE
  5
C6
  8
0
 62
     0
 10
116.0757495529823
 20
48.90060534026037
 30
0.0
 11
120.4742347128561
 21
53.299090500134177
 31
0.0
  0
LINE
  5
C7
  8
0
 62
     0
 10
116.0757495529823
 20
32.990702763563043
 30
0.0
 11
120.0757495529823
 21
36.990702763563021
 31
0.0
  0
LINE
  5
C8
  8
0
 62
     0
 10
116.0757495529823
 20
31.22293581059667
 30
0.0
 11
120.0757495529823
 21
35.222935810596653
 31
0.0
  0
LINE
  5
C9
  8
0
 62
     0
 10
116.0757495529823
 20
29.455168857630301
 30
0.0
 11
120.0757495529823
 21
33.455168857630291
 31
0.0
  0
LINE
  5
CA
  8
0
 62
     0
 10
116.0757495529823
 20
27.687401904663929
 30
0.0
 11
120.0757495529823
 21
31.687401904663918
 31
0.0
  0
LINE
  5
CB
  8
0
 62
     0
 10
116.91547732720061
 20
26.759362725915881
 30
0.0
 11
120.0757495529823
 21
29.91963495169756
 31
0.0
  0
LINE
  5
CC
  8
0
 62
     0
 10
117.7993608036838
 20
25.87547924943269
 30
0.0
 11
120.0757495529823
 21
28.151867998731191
 31
0.0
  0
LINE
  5
CD
  8
0
 62
     0
 10
118.5757495529823
 20
24.88410104576483
 30
0.0
 11
120.0757495529823
 21
26.384101045764819
 31
0.0
  0
LINE
  5
CE
  8
0
 62
     0
 10
119.06712775665019
 20
23.60771229646631
 30
0.0
 11
120.078451786934
 21
24.61903632675018
 31
0.0
  0
ENDBLK
  5
CF
  8
0
  0
BLOCK
  8
0
  2
*X7
 70
     1
 10
0.0
 20
0.0
 30
0.0
  3
*X7
  1

  0
LINE
  5
D1
  8
0
 62
     0
 10
144.25893010318461
 20
34.65737901926974
 30
0.0
 11
148.7589301031845
 21
39.15737901926974
 31
0.0
  0
LINE
  5
D2
  8
0
 62
     0
 10
144.25893010318461
 20
36.425145972236109
 30
0.0
 11
148.7589301031845
 21
40.925145972236109
 31
0.0
  0
LINE
  5
D3
  8
0
 62
     0
 10
144.25893010318461
 20
38.192912925202478
 30
0.0
 11
148.75893010318461
 21
42.692912925202478
 31
0.0
  0
LINE
  5
D4
  8
0
 62
     0
 10
155.7174948011367
 20
49.651477623154641
 30
0.0
 11
156.2589301031845
 21
50.192912925202457
 31
0.0
  0
LINE
  5
D5
  8
0
 62
     0
 10
144.25893010318461
 20
39.960679878168847
 30
0.0
 11
148.75893010318461
 21
44.460679878168847
 31
0.0
  0
LINE
  5
D6
  8
0
 62
     0
 10
153.94972784817031
 20
49.651477623154641
 30
0.0
 11
155.44972784817031
 21
51.151477623154641
 31
0.0
  0
LINE
  5
D7
  8
0
 62
     0
 10
144.25893010318461
 20
41.728446831135209
 30
0.0
 11
148.75893010318461
 21
46.228446831135223
 31
0.0
  0
LINE
  5
D8
  8
0
 62
     0
 10
152.18196089520401
 20
49.651477623154641
 30
0.0
 11
154.7589301031845
 21
52.228446831135209
 31
0.0
  0
LINE
  5
D9
  8
0
 62
     0
 10
144.25893010318461
 20
43.496213784101577
 30
0.0
 11
148.75893010318461
 21
47.996213784101599
 31
0.0
  0
LINE
  5
DA
  8
0
 62
     0
 10
150.4141939422376
 20
49.651477623154641
 30
0.0
 11
154.7589301031845
 21
53.996213784101577
 31
0.0
  0
LINE
  5
DB
  8
0
 62
     0
 10
144.25893010318461
 20
45.263980737067953
 30
0.0
 11
154.7589301031845
 21
55.763980737067953
 31
0.0
  0
LINE
  5
DC
  8
0
 62
     0
 10
144.2589301031845
 20
47.031747690034322
 30
0.0
 11
153.37866003630489
 21
56.151477623154641
 31
0.0
  0
LINE
  5
DD
  8
0
 62
     0
 10
144.2589301031845
 20
48.799514643000677
 30
0.0
 11
151.61089308333851
 21
56.151477623154641
 31
0.0
  0
LINE
  5
DE
  8
0
 62
     0
 10
144.2589301031845
 20
50.567281595967053
 30
0.0
 11
149.8431261303721
 21
56.151477623154641
 31
0.0
  0
LINE
  5
DF
  8
0
 62
     0
 10
144.2589301031845
 20
52.335048548933422
 30
0.0
 11
148.0753591774058
 21
56.151477623154641
 31
0.0
  0
LINE
  5
E0
  8
0
 62
     0
 10
144.25893010318461
 20
32.889612066303378
 30
0.0
 11
148.7589301031845
 21
37.389612066303371
 31
0.0
  0
LINE
  5
E1
  8
0
 62
     0
 10
144.25893010318461
 20
31.12184511333701
 30
0.0
 11
148.7589301031845
 21
35.621845113337002
 31
0.0
  0
LINE
  5
E2
  8
0
 62
     0
 10
144.25893010318461
 20
29.354078160370651
 30
0.0
 11
148.7589301031845
 21
33.854078160370626
 31
0.0
  0
LINE
  5
E3
  8
0
 62
     0
 10
144.25893010318461
 20
27.586311207404279
 30
0.0
 11
148.7589301031845
 21
32.086311207404258
 31
0.0
  0
LINE
  5
E4
  8
0
 62
     0
 10
144.97539678754291
 20
26.535010938796258
 30
0.0
 11
148.7589301031845
 21
30.318544254437889
 31
0.0
  0
LINE
  5
E5
  8
0
 62
     0
 10
145.8592802640261
 20
25.651127462313081
 30
0.0
 11
148.7589301031845
 21
28.55077730147152
 31
0.0
  0
LINE
  5
E6
  8
0
 62
     0
 10
146.74316374050929
 20
24.7672439858299
 30
0.0
 11
148.7589301031845
 21
26.783010348505151
 31
0.0
  0
LINE
  5
E7
  8
0
 62
     0
 10
147.3589301031846
 20
23.61524339553878
 30
0.0
 11
148.7589301031845
 21
25.015243395538779
 31
0.0
  0
LINE
  5
E8
  8
0
 62
     0
 10
147.91093069347571
 20
22.39947703286353
 30
0.0
 11
148.80783547502
 21
23.29638181440788
 31
0.0
  0
ENDBLK
  5
E9
  8
0
  0
BLOCK
  8
0
  2
*X8
 70
     1
 10
0.0
 20
0.0
 30
0.0
  3
*X8
  1

  0
LINE
  5
EB
  8
0
 62
     0
 10
9.9413755718845032
 20
40.170190467609409
 30
0.0
 11
10.6913755718845
 21
40.920190467609409
 31
0.0
  0
LINE
  5
EC
  8
0
 62
     0
 10
9.9413755718845032
 20
40.700520553499317
 30
0.0
 11
10.6913755718845
 21
41.45052055349931
 31
0.0
  0
LINE
  5
ED
  8
0
 62
     0
 10
9.9413755718845032
 20
41.230850639389232
 30
0.0
 11
10.6913755718845
 21
41.980850639389232
 31
0.0
  0
LINE
  5
EE
  8
0
 62
     0
 10
9.9413755718845032
 20
41.761180725279139
 30
0.0
 11
10.6913755718845
 21
42.511180725279139
 31
0.0
  0
LINE
  5
EF
  8
0
 62
     0
 10
9.9413755718845032
 20
42.291510811169047
 30
0.0
 11
10.6913755718845
 21
43.041510811169047
 31
0.0
  0
LINE
  5
F0
  8
0
 62
     0
 10
9.9413755718845014
 20
42.821840897058962
 30
0.0
 11
10.6913755718845
 21
43.571840897058962
 31
0.0
  0
LINE
  5
F1
  8
0
 62
     0
 10
9.9413755718845014
 20
43.352170982948863
 30
0.0
 11
10.6913755718845
 21
44.10217098294887
 31
0.0
  0
LINE
  5
F2
  8
0
 62
     0
 10
11.541351803495781
 20
44.952147214560149
 30
0.0
 11
11.94135180349579
 21
45.352147214560162
 31
0.0
  0
LINE
  5
F3
  8
0
 62
     0
 10
9.9413755718845014
 20
43.882501068838778
 30
0.0
 11
10.6913755718845
 21
44.632501068838778
 31
0.0
  0
LINE
  5
F4
  8
0
 62
     0
 10
11.011021717605869
 20
44.952147214560149
 30
0.0
 11
11.641375571884501
 21
45.582501068838774
 31
0.0
  0
LINE
  5
F5
  8
0
 62
     0
 10
9.9413755718845014
 20
44.412831154728693
 30
0.0
 11
11.48069163171596
 21
45.952147214560163
 31
0.0
  0
LINE
  5
F6
  8
0
 62
     0
 10
9.9413755718845014
 20
44.943161240618593
 30
0.0
 11
10.95036154582605
 21
45.952147214560163
 31
0.0
  0
LINE
  5
F7
  8
0
 62
     0
 10
9.9413755718845032
 20
39.639860381719501
 30
0.0
 11
10.6913755718845
 21
40.389860381719487
 31
0.0
  0
LINE
  5
F8
  8
0
 62
     0
 10
9.9413755718845032
 20
39.109530295829593
 30
0.0
 11
10.6913755718845
 21
39.859530295829579
 31
0.0
  0
LINE
  5
F9
  8
0
 62
     0
 10
9.9413755718845032
 20
38.579200209939671
 30
0.0
 11
10.6913755718845
 21
39.329200209939678
 31
0.0
  0
LINE
  5
FA
  8
0
 62
     0
 10
9.9680141171396972
 20
38.075508669304959
 30
0.0
 11
10.6913755718845
 21
38.798870124049763
 31
0.0
  0
LINE
  5
FB
  8
0
 62
     0
 10
10.233179160084649
 20
37.810343626360002
 30
0.0
 11
10.6913755718845
 21
38.268540038159848
 31
0.0
  0
LINE
  5
FC
  8
0
 62
     0
 10
10.391375571884501
 20
37.438209952269951
 30
0.0
 11
10.6913755718845
 21
37.738209952269941
 31
0.0
  0
LINE
  5
FD
  8
0
 62
     0
 10
10.513509245974561
 20
37.030013540470087
 30
0.0
 11
10.704561333945509
 21
37.221065628441039
 31
0.0
  0
ENDBLK
  5
FE
  8
0
  0
BLOCK
  8
0
  2
*X9
 70
     1
 10
0.0
 20
0.0
 30
0.0
  3
*X9
  1

  0
LINE
  5
100
  8
0
 62
     0
 10
17.993883300684161
 20
39.207086736280587
 30
0.0
 11
18.99388330068415
 21
40.20708673628058
 31
0.0
  0
LINE
  5
101
  8
0
 62
     0
 10
17.99388330068415
 20
40.090970212763757
 30
0.0
 11
18.99388330068415
 21
41.09097021276375
 31
0.0
  0
LINE
  5
102
  8
0
 62
     0
 10
17.99388330068415
 20
40.974853689246949
 30
0.0
 11
18.99388330068415
 21
41.974853689246942
 31
0.0
  0
LINE
  5
103
  8
0
 62
     0
 10
17.99388330068415
 20
41.858737165730133
 30
0.0
 11
18.99388330068415
 21
42.858737165730119
 31
0.0
  0
LINE
  5
104
  8
0
 62
     0
 10
17.99388330068415
 20
42.742620642213311
 30
0.0
 11
18.99388330068415
 21
43.742620642213311
 31
0.0
  0
LINE
  5
105
  8
0
 62
     0
 10
17.99388330068415
 20
43.626504118696488
 30
0.0
 11
18.993883300684139
 21
44.626504118696488
 31
0.0
  0
LINE
  5
106
  8
0
 62
     0
 10
20.170671039795909
 20
45.803291857808262
 30
0.0
 11
20.49388330068415
 21
46.126504118696502
 31
0.0
  0
LINE
  5
107
  8
0
 62
     0
 10
17.99388330068415
 20
44.510387595179679
 30
0.0
 11
18.993883300684139
 21
45.510387595179672
 31
0.0
  0
LINE
  5
108
  8
0
 62
     0
 10
19.286787563312728
 20
45.803291857808269
 30
0.0
 11
20.093883300684151
 21
46.610387595179681
 31
0.0
  0
LINE
  5
109
  8
0
 62
     0
 10
17.99388330068415
 20
45.394271071662857
 30
0.0
 11
19.602904086829529
 21
47.00329185780825
 31
0.0
  0
LINE
  5
10A
  8
0
 62
     0
 10
17.99388330068415
 20
46.278154548146041
 30
0.0
 11
18.719020610346352
 21
47.00329185780825
 31
0.0
  0
LINE
  5
10B
  8
0
 62
     0
 10
17.993883300684161
 20
38.323203259797403
 30
0.0
 11
18.99388330068415
 21
39.323203259797388
 31
0.0
  0
LINE
  5
10C
  8
0
 62
     0
 10
17.993883300684161
 20
37.439319783314211
 30
0.0
 11
18.99388330068415
 21
38.439319783314211
 31
0.0
  0
LINE
  5
10D
  8
0
 62
     0
 10
18.06781107617277
 20
36.629364082319633
 30
0.0
 11
18.99388330068415
 21
37.55543630683102
 31
0.0
  0
LINE
  5
10E
  8
0
 62
     0
 10
18.509752814414359
 20
36.187422344078051
 30
0.0
 11
18.99388330068415
 21
36.671552830347842
 31
0.0
  0
LINE
  5
10F
  8
0
 62
     0
 10
18.693883300684149
 20
35.487669353864661
 30
0.0
 11
18.99388330068415
 21
35.787669353864651
 31
0.0
  0
LINE
  5
110
  8
0
 62
     0
 10
19.09338928111093
 20
35.003291857808257
 30
0.0
 11
19.142473450928161
 21
35.052376027625478
 31
0.0
  0
ENDBLK
  5
111
  8
0
  0
ENDSEC
  0
SECTION
  2
ENTITIES
  0
LINE
  5
172
  8
0
  6
CENTER
 10
31.050871883225639
 20
48.288395012091549
 30
0.0
 11
31.05087188322565
 21
31.899344410858561
 31
0.0
  0
LINE
  5
173
  8
0
 10
28.050871883225639
 20
46.79639501209153
 30
0.0
 11
28.050871883225639
 21
35.296395012091551
 31
0.0
  0
LINE
  5
174
  8
0
 10
34.050871883225639
 20
46.79639501209153
 30
0.0
 11
34.050871883225639
 21
35.296395012091551
 31
0.0
  0
LINE
  5
175
  8
0
 10
28.750871883225649
 20
47.496395012091533
 30
0.0
 11
30.500871883225649
 21
47.496395012091547
 31
0.0
  0
LINE
  5
176
  8
0
 10
29.05087188322565
 20
33.49639501209154
 30
0.0
 11
29.469733053141521
 21
33.49639501209154
 31
0.0
  0
ARC
  5
177
  8
0
 10
31.05087188322565
 20
34.246395012091547
 30
0.0
 40
1.75
 50
114.7449029050846
 51
334.62306647484712
  0
LINE
  5
178
  8
0
 10
28.750871883225649
 20
34.596395012091548
 30
0.0
 11
28.750871883225649
 21
33.796395012091537
 31
0.0
  0
LINE
  5
179
  8
0
 10
33.350871883225643
 20
34.596395012091548
 30
0.0
 11
33.350871883225643
 21
33.796395012091551
 31
0.0
  0
LINE
  5
17A
  8
0
 10
31.050871883225639
 20
34.596395012091548
 30
0.0
 11
33.350871883225643
 21
34.596395012091548
 31
0.0
  0
LINE
  5
17B
  8
0
 10
28.750871883225649
 20
34.596395012091548
 30
0.0
 11
28.050871883225629
 21
35.296395012091551
 31
0.0
  0
LINE
  5
17C
  8
0
 10
33.350871883225629
 20
34.596395012091548
 30
0.0
 11
34.050871883225639
 21
35.296395012091537
 31
0.0
  0
LINE
  5
17D
  8
0
 10
28.750871883225649
 20
33.796395012091537
 30
0.0
 11
29.05087188322565
 21
33.49639501209154
 31
0.0
  0
LINE
  5
17E
  8
0
 10
33.350871883225643
 20
33.796395012091551
 30
0.0
 11
33.050871883225639
 21
33.496395012091547
 31
0.0
  0
LINE
  5
17F
  8
0
 10
33.350871883225643
 20
33.796395012091558
 30
0.0
 11
31.050871883225639
 21
33.796395012091558
 31
0.0
  0
LINE
  5
180
  8
0
 10
29.300871883225639
 20
34.246395012091547
 30
0.0
 11
29.300871883225639
 21
45.99639501209154
 31
0.0
  0
LINE
  5
181
  8
0
 10
30.500871883225638
 20
47.496395012091547
 30
0.0
 11
30.500871883225649
 21
46.496395012091533
 31
0.0
  0
LINE
  5
182
  8
0
 10
31.60087188322564
 20
47.496395012091533
 30
0.0
 11
31.60087188322564
 21
46.496395012091533
 31
0.0
  0
LINE
  5
183
  8
0
 10
30.500871883225649
 20
46.49639501209154
 30
0.0
 11
31.60087188322564
 21
46.49639501209154
 31
0.0
  0
LINE
  5
184
  8
0
 10
29.300871883225639
 20
45.99639501209154
 30
0.0
 11
31.050871883225639
 21
45.99639501209154
 31
0.0
  0
LINE
  5
185
  8
0
 10
31.60087188322564
 20
47.496395012091547
 30
0.0
 11
33.350871883225643
 21
47.496395012091533
 31
0.0
  0
LINE
  5
186
  8
0
 10
28.550871883225639
 20
47.296395012091523
 30
0.0
 11
28.550871883225639
 21
34.796395012091551
 31
0.0
  0
LINE
  5
187
  8
0
 10
33.550871883225639
 20
47.296395012091523
 30
0.0
 11
33.550871883225639
 21
34.796395012091551
 31
0.0
  0
LINE
  5
188
  8
0
 10
28.750871883225649
 20
47.496395012091533
 30
0.0
 11
28.050871883225639
 21
46.79639501209153
 31
0.0
  0
LINE
  5
189
  8
0
 10
33.350871883225643
 20
47.496395012091533
 30
0.0
 11
34.050871883225639
 21
46.79639501209153
 31
0.0
  0
LINE
  5
18A
  8
0
 10
31.60087188322564
 20
46.79639501209153
 30
0.0
 11
34.050871883225639
 21
46.796395012091537
 31
0.0
  0
LINE
  5
18B
  8
0
 10
34.050871883225639
 20
35.29639501209153
 30
0.0
 11
31.050871883225639
 21
35.29639501209153
 31
0.0
  0
LINE
  5
18C
  8
0
 10
31.050871883225639
 20
33.496395012091547
 30
0.0
 11
33.050871883225639
 21
33.496395012091547
 31
0.0
  0
LINE
  5
18D
  8
0
 10
29.46254329396222
 20
45.968897577759222
 30
0.0
 11
31.050871883225639
 21
45.968897577759222
 31
0.0
  0
LINE
  5
18E
  8
0
 10
31.050871883225639
 20
45.33837471415405
 30
0.0
 11
29.479432848685491
 21
44.745545566528051
 31
0.0
  0
LINE
  5
18F
  8
0
 10
31.050871883225639
 20
44.078017565461231
 30
0.0
 11
29.690003920559882
 21
44.65609756148217
 31
0.0
  0
LINE
  5
190
  8
0
 10
31.050871883225639
 20
41.488516049814173
 30
0.0
 11
29.690003920559921
 21
42.075837373075473
 31
0.0
  0
LINE
  5
191
  8
0
 10
31.050871883225639
 20
42.748873198506971
 30
0.0
 11
29.479432848685491
 21
42.166715315658237
 31
0.0
  0
LINE
  5
192
  8
0
 10
31.050871883225639
 20
38.893339647521749
 30
0.0
 11
29.690003920559882
 21
39.485281634403272
 31
0.0
  0
LINE
  5
193
  8
0
 10
31.050871883225639
 20
40.153696796214561
 30
0.0
 11
29.479432848685491
 21
39.576874545754471
 31
0.0
  0
LINE
  5
194
  8
0
 10
31.050871883225639
 20
37.575545053858143
 30
0.0
 11
29.479432848685491
 21
37.020065332952569
 31
0.0
  0
LINE
  5
195
  8
0
 10
29.730901156694891
 20
36.940069095470811
 30
0.0
 11
31.050871883225639
 21
36.52016452560914
 31
0.0
  0
LINE
  5
196
  8
0
 10
31.050871883225639
 20
36.004597185075738
 30
0.0
 11
30.239462811232301
 21
36.004597185075738
 31
0.0
  0
LINE
  5
197
  8
0
 10
31.050871883225639
 20
35.835710737742133
 30
0.0
 11
30.239462811232301
 21
35.83571073774214
 31
0.0
  0
LINE
  5
198
  8
0
 10
29.479432848685491
 20
36.851178885618957
 30
0.0
 11
31.050871883225639
 21
36.351278078275541
 31
0.0
  0
LINE
  5
199
  8
0
 10
31.050871883225639
 20
37.40665860652453
 30
0.0
 11
29.730901156694891
 21
36.940069095470811
 31
0.0
  0
LINE
  5
19A
  8
0
 10
31.050871883225639
 20
39.984810348880963
 30
0.0
 11
29.690003920559882
 21
39.485281634403272
 31
0.0
  0
LINE
  5
19B
  8
0
 10
31.050871883225639
 20
38.724453200188151
 30
0.0
 11
29.479432848685491
 21
39.407988098420851
 31
0.0
  0
LINE
  5
19C
  8
0
 10
31.050871883225639
 20
42.579986751173351
 30
0.0
 11
29.690003920559921
 21
42.075837373075473
 31
0.0
  0
LINE
  5
19D
  8
0
 10
31.050871883225639
 20
41.319629602480553
 30
0.0
 11
29.479432848685491
 21
41.997828868324618
 31
0.0
  0
LINE
  5
19E
  8
0
 10
31.050871883225639
 20
43.909131118127632
 30
0.0
 11
29.479432848685491
 21
44.576659119194439
 31
0.0
  0
LINE
  5
19F
  8
0
 10
31.050871883225639
 20
45.16948826682043
 30
0.0
 11
29.690003920559882
 21
44.65609756148217
 31
0.0
  0
LINE
  5
1A0
  8
0
 10
29.46254329396222
 20
45.800011130425609
 30
0.0
 11
31.050871883225639
 21
45.800011130425609
 31
0.0
  0
LINE
  5
1A1
  8
0
 10
29.46254329396222
 20
45.968897577759222
 30
0.0
 11
29.46254329396222
 21
45.800011130425609
 31
0.0
  0
LINE
  5
1A2
  8
0
 10
29.479432848685491
 20
44.745545566528037
 30
0.0
 11
29.479432848685491
 21
44.576659119194453
 31
0.0
  0
LINE
  5
1A3
  8
0
 10
29.479432848685491
 20
42.166715315658237
 30
0.0
 11
29.479432848685491
 21
41.997828868324618
 31
0.0
  0
LINE
  5
1A4
  8
0
 10
29.479432848685491
 20
39.576874545754471
 30
0.0
 11
29.479432848685491
 21
39.407988098420859
 31
0.0
  0
LINE
  5
1A5
  8
0
 10
29.479432848685491
 20
37.020065332952569
 30
0.0
 11
29.479432848685491
 21
36.851178885618957
 31
0.0
  0
LINE
  5
1A6
  8
0
 10
30.239462811232301
 20
36.004597185075738
 30
0.0
 11
30.239462811232301
 21
35.83571073774214
 31
0.0
  0
LINE
  5
1A7
  8
0
 10
46.921828109347949
 20
47.025718527756887
 30
0.0
 11
46.921828109347949
 21
34.025718527756879
 31
0.0
  0
LINE
  5
1A8
  8
0
 10
38.921828109347942
 20
47.025718527756887
 30
0.0
 11
38.921828109347942
 21
34.025718527756887
 31
0.0
  0
LINE
  5
1A9
  8
0
 10
39.721828109347939
 20
47.825718527756891
 30
0.0
 11
42.27182810934795
 21
47.825718527756891
 31
0.0
  0
LINE
  5
1AA
  8
0
 10
40.22182810934796
 20
31.825718527756891
 30
0.0
 11
40.630540261870117
 21
31.825718527756891
 31
0.0
  0
ARC
  5
1AB
  8
0
 10
42.921828109347963
 20
32.825718527756891
 30
0.0
 40
2.5
 50
125.17031691581739
 51
336.42182152179743
  0
LINE
  5
1AC
  8
0
 10
40.421828109347963
 20
32.825718527756891
 30
0.0
 11
40.421828109347963
 21
45.325718527756891
 31
0.0
  0
LINE
  5
1AD
  8
0
 10
43.571828109347948
 20
47.825718527756891
 30
0.0
 11
43.571828109347948
 21
45.825718527756891
 31
0.0
  0
LINE
  5
1AE
  8
0
 10
42.27182810934795
 20
47.825718527756891
 30
0.0
 11
42.27182810934795
 21
45.825718527756891
 31
0.0
  0
LINE
  5
1AF
  8
0
 10
42.27182810934795
 20
45.825718527756891
 30
0.0
 11
43.571828109347948
 21
45.825718527756891
 31
0.0
  0
LINE
  5
1B0
  8
0
 10
43.571828109347948
 20
47.825718527756891
 30
0.0
 11
46.121828109347959
 21
47.825718527756891
 31
0.0
  0
LINE
  5
1B1
  8
0
 10
40.421828109347963
 20
45.325718527756891
 30
0.0
 11
42.921828109347963
 21
45.325718527756891
 31
0.0
  0
LINE
  5
1B2
  8
0
 10
39.821828109347962
 20
33.125718527756881
 30
0.0
 11
39.821828109347962
 21
32.225718527756889
 31
0.0
  0
LINE
  5
1B3
  8
0
 10
46.021828109347958
 20
33.125718527756888
 30
0.0
 11
46.021828109347958
 21
32.225718527756889
 31
0.0
  0
LINE
  5
1B4
  8
0
 10
42.921828109347963
 20
33.125718527756881
 30
0.0
 11
46.021828109347958
 21
33.125718527756881
 31
0.0
  0
LINE
  5
1B5
  8
0
 10
39.821828109347962
 20
33.125718527756881
 30
0.0
 11
38.921828109347942
 21
34.025718527756887
 31
0.0
  0
LINE
  5
1B6
  8
0
 10
46.021828109347958
 20
33.125718527756881
 30
0.0
 11
46.921828109347949
 21
34.025718527756879
 31
0.0
  0
LINE
  5
1B7
  8
0
 10
42.921828109347963
 20
31.82571852775688
 30
0.0
 11
45.621828109347959
 21
31.825718527756891
 31
0.0
  0
LINE
  5
1B8
  8
0
 10
45.621828109347959
 20
31.825718527756891
 30
0.0
 11
46.021828109347958
 21
32.225718527756889
 31
0.0
  0
LINE
  5
1B9
  8
0
 10
46.021828109347958
 20
32.225718527756882
 30
0.0
 11
42.921828109347963
 21
32.225718527756882
 31
0.0
  0
LINE
  5
1BA
  8
0
 10
40.22182810934796
 20
31.825718527756891
 30
0.0
 11
39.821828109347962
 21
32.225718527756889
 31
0.0
  0
LINE
  5
1BB
  8
0
 10
46.921828109347949
 20
34.025718527756879
 30
0.0
 11
42.921828109347963
 21
34.025718527756879
 31
0.0
  0
LINE
  5
1BC
  8
0
  6
CENTER
 10
42.921828109347963
 20
48.521999917613833
 30
0.0
 11
42.921828109347963
 21
29.62199991761382
 31
0.0
  0
LINE
  5
1BD
  8
0
 10
39.52182810934795
 20
47.625718527756881
 30
0.0
 11
39.52182810934795
 21
33.425718527756892
 31
0.0
  0
LINE
  5
1BE
  8
0
 10
46.321828109347962
 20
47.625718527756909
 30
0.0
 11
46.321828109347962
 21
33.425718527756871
 31
0.0
  0
LINE
  5
1BF
  8
0
 10
46.921828109347949
 20
47.025718527756887
 30
0.0
 11
46.121828109347959
 21
47.825718527756891
 31
0.0
  0
LINE
  5
1C0
  8
0
 10
39.721828109347939
 20
47.825718527756891
 30
0.0
 11
38.921828109347942
 21
47.025718527756887
 31
0.0
  0
LINE
  5
1C1
  8
0
 10
53.356123727555051
 20
47.906136847559949
 30
0.0
 11
53.356123727555051
 21
32.656136847559942
 31
0.0
  0
LINE
  5
1C2
  8
0
 10
63.356123727555051
 20
47.906136847559949
 30
0.0
 11
63.356123727555051
 21
32.656136847559956
 31
0.0
  0
LINE
  5
1C3
  8
0
 10
54.356123727555058
 20
48.906136847559949
 30
0.0
 11
57.606123727555058
 21
48.906136847559949
 31
0.0
  0
LINE
  5
1C4
  8
0
 10
55.206123727555067
 20
29.906136847559932
 30
0.0
 11
55.527696602808859
 21
29.906136847559932
 31
0.0
  0
ARC
  5
1C5
  8
0
 10
58.356123727555072
 20
30.906136847559932
 30
0.0
 40
3.0
 50
120.1929804174933
 51
340.52877936550942
  0
LINE
  5
1C6
  8
0
 10
55.356123727555072
 20
30.906136847559932
 30
0.0
 11
55.356123727555051
 21
46.406136847559949
 31
0.0
  0
LINE
  5
1C7
  8
0
 10
57.606123727555058
 20
48.906136847559949
 30
0.0
 11
57.606123727555058
 21
46.906136847559942
 31
0.0
  0
LINE
  5
1C8
  8
0
 10
59.106123727555051
 20
48.906136847559949
 30
0.0
 11
59.106123727555051
 21
46.906136847559942
 31
0.0
  0
LINE
  5
1C9
  8
0
 10
57.606123727555058
 20
46.906136847559942
 30
0.0
 11
59.106123727555051
 21
46.906136847559942
 31
0.0
  0
LINE
  5
1CA
  8
0
 10
59.106123727555051
 20
48.906136847559949
 30
0.0
 11
62.356123727555058
 21
48.906136847559949
 31
0.0
  0
LINE
  5
1CB
  8
0
 10
54.806123727555061
 20
31.206136847559929
 30
0.0
 11
54.806123727555061
 21
30.30613684755993
 31
0.0
  0
LINE
  5
1CC
  8
0
 10
61.90612372755507
 20
31.206136847559929
 30
0.0
 11
61.90612372755507
 21
30.30613684755993
 31
0.0
  0
LINE
  5
1CD
  8
0
 10
58.356123727555072
 20
31.206136847559929
 30
0.0
 11
61.906123727555062
 21
31.206136847559929
 31
0.0
  0
LINE
  5
1CE
  8
0
 10
54.806123727555061
 20
31.206136847559929
 30
0.0
 11
53.356123727555051
 21
32.656136847559942
 31
0.0
  0
LINE
  5
1CF
  8
0
 10
61.90612372755507
 20
31.206136847559929
 30
0.0
 11
63.356123727555051
 21
32.656136847559942
 31
0.0
  0
LINE
  5
1D0
  8
0
 10
54.806123727555061
 20
30.30613684755993
 30
0.0
 11
55.206123727555067
 21
29.906136847559932
 31
0.0
  0
LINE
  5
1D1
  8
0
 10
61.506123727555071
 20
29.906136847559932
 30
0.0
 11
61.90612372755507
 21
30.30613684755993
 31
0.0
  0
LINE
  5
1D2
  8
0
 10
61.90612372755507
 20
30.30613684755993
 30
0.0
 11
58.356123727555051
 21
30.30613684755993
 31
0.0
  0
LINE
  5
1D3
  8
0
 10
58.356123727555051
 20
29.906136847559932
 30
0.0
 11
61.506123727555071
 21
29.906136847559932
 31
0.0
  0
LINE
  5
1D4
  8
0
 10
54.106123727555051
 20
48.656136847559949
 30
0.0
 11
54.106123727555072
 21
31.906136847559939
 31
0.0
  0
LINE
  5
1D5
  8
0
 10
62.606123727555058
 20
48.656136847559949
 30
0.0
 11
62.606123727555058
 21
31.906136847559939
 31
0.0
  0
LINE
  5
1D6
  8
0
 10
54.356123727555058
 20
48.906136847559949
 30
0.0
 11
53.356123727555051
 21
47.906136847559949
 31
0.0
  0
LINE
  5
1D7
  8
0
 10
62.356123727555058
 20
48.906136847559949
 30
0.0
 11
63.356123727555051
 21
47.906136847559949
 31
0.0
  0
LINE
  5
1D8
  8
0
 10
55.356123727555051
 20
46.406136847559949
 30
0.0
 11
58.356123727555051
 21
46.406136847559949
 31
0.0
  0
LINE
  5
1D9
  8
0
 10
46.921828109347963
 20
47.025718527756887
 30
0.0
 11
43.571828109347948
 21
47.025718527756887
 31
0.0
  0
LINE
  5
1DA
  8
0
 10
55.646307664300792
 20
46.318088260610047
 30
0.0
 11
58.356123727555051
 21
46.318088260610047
 31
0.0
  0
LINE
  5
1DB
  8
0
 10
55.646307664300792
 20
45.972052735980867
 30
0.0
 11
58.356123727555051
 21
45.972052735980853
 31
0.0
  0
LINE
  5
1DC
  8
0
 10
55.646307664300792
 20
46.318088260610047
 30
0.0
 11
55.646307664300792
 21
45.972052735980867
 31
0.0
  0
LINE
  5
1DD
  8
0
 10
40.692850997404548
 20
45.280299495833553
 30
0.0
 11
42.921828109347963
 21
45.28029949583356
 31
0.0
  0
LINE
  5
1DE
  8
0
 10
40.692850997404548
 20
45.030299495833553
 30
0.0
 11
42.921828109347963
 21
45.030299495833553
 31
0.0
  0
LINE
  5
1DF
  8
0
 10
40.692850997404548
 20
45.280299495833553
 30
0.0
 11
40.692850997404548
 21
45.030299495833553
 31
0.0
  0
LINE
  5
1E0
  8
0
 10
42.921828109347963
 20
29.62199991761382
 30
0.0
 11
42.921828109347963
 21
29.555333250947161
 31
0.0
  0
LINE
  5
1E1
  8
0
 10
42.921828109347963
 20
44.685898568112158
 30
0.0
 11
40.740393929502687
 21
44.027401415713364
 31
0.0
  0
LINE
  5
1E2
  8
0
 10
42.921828109347963
 20
43.368904263314562
 30
0.0
 11
41.154487250160699
 21
43.902401415713364
 31
0.0
  0
LINE
  5
1E3
  8
0
 10
42.921828109347963
 20
42.23607563370058
 30
0.0
 11
40.740393929502687
 21
41.577578481301792
 31
0.0
  0
LINE
  5
1E4
  8
0
 10
42.921828109347963
 20
40.919081328903012
 30
0.0
 11
41.154487250160699
 21
41.452578481301792
 31
0.0
  0
LINE
  5
1E5
  8
0
 10
42.921828109347963
 20
39.692963989574302
 30
0.0
 11
40.740393929502687
 21
39.034466837175508
 31
0.0
  0
LINE
  5
1E6
  8
0
 10
42.921828109347963
 20
38.37596968477672
 30
0.0
 11
41.154487250160699
 21
38.909466837175508
 31
0.0
  0
LINE
  5
1E7
  8
0
 10
42.921828109347963
 20
37.523007184306813
 30
0.0
 11
40.740393929502687
 21
36.864510031908019
 31
0.0
  0
LINE
  5
1E8
  8
0
 10
42.921828109347963
 20
36.206012879509238
 30
0.0
 11
41.154487250160699
 21
36.739510031908019
 31
0.0
  0
LINE
  5
1E9
  8
0
 10
42.921828109347963
 20
35.956012879509231
 30
0.0
 11
40.740393929502687
 21
36.614510031908019
 31
0.0
  0
LINE
  5
1EA
  8
0
 10
42.921828109347963
 20
37.273007184306799
 30
0.0
 11
41.154487250160699
 21
36.739510031908019
 31
0.0
  0
LINE
  5
1EB
  8
0
 10
42.921828109347963
 20
38.12596968477672
 30
0.0
 11
40.740393929502687
 21
38.784466837175508
 31
0.0
  0
LINE
  5
1EC
  8
0
 10
42.921828109347963
 20
39.442963989574281
 30
0.0
 11
41.154487250160699
 21
38.909466837175508
 31
0.0
  0
LINE
  5
1ED
  8
0
 10
42.921828109347963
 20
40.669081328902998
 30
0.0
 11
40.740393929502687
 21
41.327578481301792
 31
0.0
  0
LINE
  5
1EE
  8
0
 10
42.921828109347963
 20
41.986075633700572
 30
0.0
 11
41.154487250160699
 21
41.452578481301792
 31
0.0
  0
LINE
  5
1EF
  8
0
 10
42.921828109347963
 20
43.118904263314569
 30
0.0
 11
40.740393929502687
 21
43.777401415713364
 31
0.0
  0
LINE
  5
1F0
  8
0
 10
42.921828109347963
 20
44.435898568112137
 30
0.0
 11
41.154487250160699
 21
43.902401415713364
 31
0.0
  0
LINE
  5
1F1
  8
0
 10
40.740393929502687
 20
44.027401415713364
 30
0.0
 11
40.740393929502673
 21
43.777401415713364
 31
0.0
  0
LINE
  5
1F2
  8
0
 10
40.740393929502687
 20
41.577578481301792
 30
0.0
 11
40.74039392950268
 21
41.327578481301792
 31
0.0
  0
LINE
  5
1F3
  8
0
 10
40.740393929502687
 20
39.034466837175508
 30
0.0
 11
40.74039392950268
 21
38.784466837175508
 31
0.0
  0
LINE
  5
1F4
  8
0
 10
40.740393929502687
 20
36.864510031908019
 30
0.0
 11
40.74039392950268
 21
36.614510031908019
 31
0.0
  0
LINE
  5
1F5
  8
0
 10
42.921828109347963
 20
35.287867871411159
 30
0.0
 11
41.481805852905786
 21
35.090323664634738
 31
0.0
  0
LINE
  5
1F6
  8
0
 10
42.921828109347963
 20
35.037867871411159
 30
0.0
 11
41.481805852905779
 21
34.840323664634738
 31
0.0
  0
LINE
  5
1F7
  8
0
 10
41.481805852905786
 20
35.090323664634738
 30
0.0
 11
41.481805852905779
 21
34.840323664634738
 31
0.0
  0
LINE
  5
1F8
  8
0
 10
58.356123727555051
 20
45.529489412610261
 30
0.0
 11
55.607616377377887
 21
44.743167485300297
 31
0.0
  0
LINE
  5
1F9
  8
0
 10
58.356123727555051
 20
43.956845557990349
 30
0.0
 11
56.212382154493781
 21
44.570149722985697
 31
0.0
  0
LINE
  5
1FA
  8
0
 10
58.356123727555051
 20
40.80700400737085
 30
0.0
 11
56.212382154493802
 21
41.420308172366198
 31
0.0
  0
LINE
  5
1FB
  8
0
 10
58.356123727555051
 20
42.379647861990762
 30
0.0
 11
55.607616377377887
 21
41.593325934680799
 31
0.0
  0
LINE
  5
1FC
  8
0
 10
58.356123727555051
 20
37.65716245675133
 30
0.0
 11
56.212382154493781
 21
38.270466621746692
 31
0.0
  0
LINE
  5
1FD
  8
0
 10
58.356123727555051
 20
39.229806311371249
 30
0.0
 11
55.607616377377887
 21
38.4434843840613
 31
0.0
  0
LINE
  5
1FE
  8
0
 10
58.356123727555051
 20
34.507320906131838
 30
0.0
 11
56.212382154493802
 21
35.120625071127201
 31
0.0
  0
LINE
  5
1FF
  8
0
 10
58.356123727555051
 20
36.07996476075175
 30
0.0
 11
55.607616377377887
 21
35.293642833441801
 31
0.0
  0
LINE
  5
200
  8
0
 10
58.356123727555051
 20
33.891124745550762
 30
0.0
 11
56.847381558422128
 21
33.784528831427238
 31
0.0
  0
LINE
  5
201
  8
0
 10
58.356123727555051
 20
33.545089220921568
 30
0.0
 11
56.847381558422128
 21
33.438493306798051
 31
0.0
  0
LINE
  5
202
  8
0
 10
58.356123727555051
 20
35.733929236122563
 30
0.0
 11
56.212382154493802
 21
35.120625071127201
 31
0.0
  0
LINE
  5
203
  8
0
 10
58.356123727555051
 20
34.161285381502658
 30
0.0
 11
55.607616377377887
 21
34.947607308812607
 31
0.0
  0
LINE
  5
204
  8
0
 10
58.356123727555051
 20
38.883770786742062
 30
0.0
 11
56.212382154493781
 21
38.270466621746692
 31
0.0
  0
LINE
  5
205
  8
0
 10
58.356123727555051
 20
37.311126932122157
 30
0.0
 11
55.607616377377887
 21
38.097448859432113
 31
0.0
  0
LINE
  5
206
  8
0
 10
58.356123727555051
 20
42.033612337361546
 30
0.0
 11
56.212382154493802
 21
41.420308172366198
 31
0.0
  0
LINE
  5
207
  8
0
 10
58.356123727555051
 20
40.460968482741649
 30
0.0
 11
55.607616377377887
 21
41.247290410051598
 31
0.0
  0
LINE
  5
208
  8
0
 10
58.356123727555051
 20
43.61081003336114
 30
0.0
 11
55.607616377377887
 21
44.397131960671103
 31
0.0
  0
LINE
  5
209
  8
0
 10
58.356123727555051
 20
45.183453887981052
 30
0.0
 11
56.212382154493781
 21
44.570149722985697
 31
0.0
  0
LINE
  5
20A
  8
0
 10
56.847381558422128
 20
33.784528831427238
 30
0.0
 11
56.847381558422128
 21
33.438493306798051
 31
0.0
  0
LINE
  5
20B
  8
0
 10
55.607616377377887
 20
44.743167485300297
 30
0.0
 11
55.607616377377887
 21
44.397131960671103
 31
0.0
  0
LINE
  5
20C
  8
0
 10
55.607616377377887
 20
41.593325934680799
 30
0.0
 11
55.607616377377887
 21
41.247290410051598
 31
0.0
  0
LINE
  5
20D
  8
0
 10
55.607616377377887
 20
38.443484384061293
 30
0.0
 11
55.607616377377887
 21
38.097448859432099
 31
0.0
  0
LINE
  5
20E
  8
0
 10
55.607616377377887
 20
35.293642833441801
 30
0.0
 11
55.607616377377887
 21
34.9476073088126
 31
0.0
  0
LINE
  5
20F
  8
0
  6
CENTER
 10
58.356123727555051
 20
49.49128433601787
 30
0.0
 11
58.356123727555051
 21
27.327140039728231
 31
0.0
  0
LINE
  5
210
  8
0
 10
63.356123727555051
 20
47.906136847559949
 30
0.0
 11
59.106123727555051
 21
47.906136847559949
 31
0.0
  0
LINE
  5
211
  8
0
 10
63.356123727555051
 20
32.656136847559942
 30
0.0
 11
58.356123727555051
 21
32.656136847559942
 31
0.0
  0
CIRCLE
  5
32D
  8
0
 10
31.05087188322565
 20
25.78308442725324
 30
0.0
 40
3.0
  0
ARC
  5
32E
  8
0
 10
31.05087188322565
 20
25.78308442725324
 30
0.0
 40
2.5
 50
282.70903299439578
 51
77.290967005604202
  0
LINE
  5
32F
  8
0
 10
30.500871883225621
 20
22.83393200664143
 30
0.0
 11
30.50087188322566
 21
28.73223684786505
 31
0.0
  0
LINE
  5
330
  8
0
 10
31.60087188322564
 20
22.833932006641579
 30
0.0
 11
31.60087188322564
 21
28.7322368478649
 31
0.0
  0
ARC
  5
331
  8
0
 10
31.05087188322565
 20
25.78308442725324
 30
0.0
 40
2.5
 50
102.7090329943946
 51
257.29096700560439
  0
CIRCLE
  5
332
  8
0
 10
42.92182810934797
 20
21.54997841488867
 30
0.0
 40
4.0000000000000098
  0
ARC
  5
333
  8
0
 10
42.92182810934797
 20
21.54997841488867
 30
0.0
 40
3.4000000000000021
 50
281.0214496355166
 51
78.978550364483212
  0
LINE
  5
334
  8
0
 10
42.271828109347943
 20
17.603144240515419
 30
0.0
 11
42.27182810934795
 21
25.496812589261911
 31
0.0
  0
LINE
  5
335
  8
0
 10
43.57182810934794
 20
17.603144240515419
 30
0.0
 11
43.571828109347962
 21
25.496812589261911
 31
0.0
  0
ARC
  5
336
  8
0
 10
42.92182810934797
 20
21.54997841488867
 30
0.0
 40
3.4000000000000021
 50
101.0214496355168
 51
258.97855036448289
  0
CIRCLE
  5
337
  8
0
 10
58.356123727555051
 20
17.55684115744776
 30
0.0
 40
5.0000000000000009
  0
ARC
  5
338
  8
0
 10
58.356123727555051
 20
17.55684115744776
 30
0.0
 40
4.2500000000000009
 50
280.16424862172352
 51
79.835751378276484
  0
LINE
  5
339
  8
0
 10
57.606123727555058
 20
12.61341117412648
 30
0.0
 11
57.606123727555058
 21
22.500271140769051
 31
0.0
  0
LINE
  5
33A
  8
0
 10
59.106123727555051
 20
12.61341117412648
 30
0.0
 11
59.106123727555051
 21
22.500271140769051
 31
0.0
  0
ARC
  5
33B
  8
0
 10
58.356123727555051
 20
17.55684115744776
 30
0.0
 40
4.2500000000000009
 50
100.1642486217235
 51
259.83575137827643
  0
INSERT
  5
351
  8
0
  2
*X1
 10
0.0
 20
0.0
 30
0.0
1001
ACAD
1000
HATCH
1002
{
1070
    16
1000
ANSI31
1040
5.0
1040
0.0
1002
}
  0
INSERT
  5
352
  8
0
  2
*X2
 10
0.3257043817928888
 20
0.0
 30
0.0
1001
ACAD
1000
HATCH
1002
{
1070
    16
1000
ANSI31
1040
5.0
1040
0.0
1002
}
  0
INSERT
  5
353
  8
0
  2
*X3
 10
0.0
 20
0.0
 30
0.0
1001
ACAD
1000
HATCH
1002
{
1070
    16
1000
ANSI31
1040
5.0
1040
0.0
1002
}
  0
ENDSEC
  0
EOF
