  0
SECTION
  2
HEADER
  9
$ACADVER
  1
AC1009
  9
$INSBASE
 10
0.0
 20
0.0
 30
0.0
  9
$EXTMIN
 10
4.50475
 20
-17.869811
 30
0.0
  9
$EXTMAX
 10
168.25893
 20
59.685304
 30
0.0
  9
$LIMMIN
 10
0.0
 20
0.0
  9
$LIMMAX
 10
12.0
 20
9.0
  9
$ORTHOMODE
 70
     1
  9
$REGENMODE
 70
     1
  9
$FILLMODE
 70
     1
  9
$QTEXTMODE
 70
     0
  9
$MIRRTEXT
 70
     1
  9
$DRAGMODE
 70
     2
  9
$LTSCALE
 40
4.0
  9
$OSMODE
 70
     0
  9
$ATTMODE
 70
     1
  9
$TEXTSIZE
 40
0.2
  9
$TRACEWID
 40
0.05
  9
$TEXTSTYLE
  7
STANDARD
  9
$CLAYER
  8
0
  9
$CELTYPE
  6
BYLAYER
  9
$CECOLOR
 62
   256
  9
$DIMSCALE
 40
1.0
  9
$DIMASZ
 40
2.5
  9
$DIMEXO
 40
0.0
  9
$DIMDLI
 40
5.0
  9
$DIMRND
 40
0.0
  9
$DIMDLE
 40
0.0
  9
$DIMEXE
 40
1.0
  9
$DIMTP
 40
0.0
  9
$DIMTM
 40
0.0
  9
$DIMTXT
 40
2.5
  9
$DIMCEN
 40
0.09
  9
$DIMTSZ
 40
0.0
  9
$DIMTOL
 70
     0
  9
$DIMLIM
 70
     0
  9
$DIMTIH
 70
     0
  9
$DIMTOH
 70
     0
  9
$DIMSE1
 70
     0
  9
$DIMSE2
 70
     0
  9
$DIMTAD
 70
     1
  9
$DIMZIN
 70
     0
  9
$DIMBLK
  1

  9
$DIMASO
 70
     0
  9
$DIMSHO
 70
     0
  9
$DIMPOST
  1

  9
$DIMAPOST
  1

  9
$DIMALT
 70
     0
  9
$DIMALTD
 70
     2
  9
$DIMALTF
 40
25.4
  9
$DIMLFAC
 40
1.0
  9
$DIMTOFL
 70
     1
  9
$DIMTVP
 40
0.0
  9
$DIMTIX
 70
     0
  9
$DIMSOXD
 70
     0
  9
$DIMSAH
 70
     0
  9
$DIMBLK1
  1

  9
$DIMBLK2
  1

  9
$DIMSTYLE
  2
*UNNAMED
  9
$DIMCLRD
 70
     0
  9
$DIMCLRE
 70
     0
  9
$DIMCLRT
 70
     0
  9
$DIMTFAC
 40
1.0
  9
$DIMGAP
 40
0.09
  9
$LUNITS
 70
     2
  9
$LUPREC
 70
     4
  9
$SKETCHINC
 40
0.1
  9
$FILLETRAD
 40
0.4
  9
$AUNITS
 70
     0
  9
$AUPREC
 70
     0
  9
$MENU
  1
wiberger
  9
$ELEVATION
 40
0.0
  9
$PELEVATION
 40
0.0
  9
$THICKNESS
 40
0.0
  9
$LIMCHECK
 70
     0
  9
$BLIPMODE
 70
     1
  9
$CHAMFERA
 40
2.6
  9
$CHAMFERB
 40
2.6
  9
$SKPOLY
 70
     0
  9
$TDCREATE
 40
2450210.537124884
  9
$TDUPDATE
 40
2450210.611146527
  9
$TDINDWG
 40
0.0008505787
  9
$TDUSRTIMER
 40
0.0008505787
  9
$USRTIMER
 70
     1
  9
$ANGBASE
 50
0.0
  9
$ANGDIR
 70
     0
  9
$PDMODE
 70
     0
  9
$PDSIZE
 40
0.0
  9
$PLINEWID
 40
0.0
  9
$COORDS
 70
     0
  9
$SPLFRAME
 70
     0
  9
$SPLINETYPE
 70
     6
  9
$SPLINESEGS
 70
     8
  9
$ATTDIA
 70
     0
  9
$ATTREQ
 70
     1
  9
$HANDLING
 70
     0
  9
$HANDSEED
  5
0
  9
$SURFTAB1
 70
     6
  9
$SURFTAB2
 70
     6
  9
$SURFTYPE
 70
     6
  9
$SURFU
 70
     6
  9
$SURFV
 70
     6
  9
$UCSNAME
  2

  9
$UCSORG
 10
0.0
 20
0.0
 30
0.0
  9
$UCSXDIR
 10
1.0
 20
0.0
 30
0.0
  9
$UCSYDIR
 10
0.0
 20
1.0
 30
0.0
  9
$PUCSNAME
  2

  9
$PUCSORG
 10
0.0
 20
0.0
 30
0.0
  9
$PUCSXDIR
 10
1.0
 20
0.0
 30
0.0
  9
$PUCSYDIR
 10
0.0
 20
1.0
 30
0.0
  9
$USERI1
 70
     0
  9
$USERI2
 70
     0
  9
$USERI3
 70
     0
  9
$USERI4
 70
     0
  9
$USERI5
 70
     0
  9
$USERR1
 40
0.0
  9
$USERR2
 40
0.0
  9
$USERR3
 40
0.0
  9
$USERR4
 40
0.0
  9
$USERR5
 40
0.0
  9
$WORLDVIEW
 70
     1
  9
$SHADEDGE
 70
     3
  9
$SHADEDIF
 70
    70
  9
$TILEMODE
 70
     1
  9
$MAXACTVP
 70
    16
  9
$PINSBASE
 10
0.0
 20
0.0
 30
0.0
  9
$PLIMCHECK
 70
     0
  9
$PEXTMIN
 10
1.000000E+20
 20
1.000000E+20
 30
1.000000E+20
  9
$PEXTMAX
 10
-1.000000E+20
 20
-1.000000E+20
 30
-1.000000E+20
  9
$PLIMMIN
 10
0.0
 20
0.0
  9
$PLIMMAX
 10
12.0
 20
9.0
  9
$UNITMODE
 70
     0
  9
$VISRETAIN
 70
     0
  9
$PLINEGEN
 70
     0
  9
$PSLTSCALE
 70
     0
  9
$TREEDEPTH
 70
  3020
  9
$DWGCODEPAGE
  3
undefined
  0
ENDSEC
  0
SECTION
  2
TABLES
  0
TABLE
  2
VPORT
 70
     2
  0
VPORT
  2
*ACTIVE
 70
     0
 10
0.0
 20
0.0
 11
1.0
 21
1.0
 12
116.904187
 22
30.399583
 13
0.0
 23
0.0
 14
1.0
 24
1.0
 15
0.0
 25
0.0
 16
0.0
 26
0.0
 36
1.0
 17
0.0
 27
0.0
 37
0.0
 40
134.750704
 41
1.767507
 42
50.0
 43
0.0
 44
0.0
 50
0.0
 51
0.0
 71
     0
 72
   100
 73
     1
 74
     0
 75
     0
 76
     0
 77
     0
 78
     0
  0
ENDTAB
  0
TABLE
  2
LTYPE
 70
     2
  0
LTYPE
  2
CONTINUOUS
 70
    64
  3
Solid line
 72
    65
 73
     0
 40
0.0
  0
LTYPE
  2
CENTER
 70
    64
  3
____ _ ____ _ ____ _ ____ _ ____ _ ____ _ ____
 72
    65
 73
     4
 40
2.0
 49
1.25
 49
-0.25
 49
0.25
 49
-0.25
  0
ENDTAB
  0
TABLE
  2
LAYER
 70
     1
  0
LAYER
  2
0
 70
    64
 62
     7
  6
CONTINUOUS
  0
ENDTAB
  0
TABLE
  2
STYLE
 70
     1
  0
STYLE
  2
STANDARD
 70
     0
 40
0.0
 41
1.0
 50
0.0
 71
     0
 42
0.2
  3
txt
  4

  0
ENDTAB
  0
TABLE
  2
VIEW
 70
     0
  0
ENDTAB
  0
TABLE
  2
UCS
 70
     0
  0
ENDTAB
  0
TABLE
  2
APPID
 70
     1
  0
APPID
  2
ACAD
 70
    64
  0
ENDTAB
  0
TABLE
  2
DIMSTYLE
 70
     0
  0
ENDTAB
  0
ENDSEC
  0
SECTION
  2
BLOCKS
  0
BLOCK
  8
0
  2
*X0
 70
    65
 10
0.0
 20
0.0
 30
0.0
  3
*X
  0
LINE
  8
0
 62
     0
 10
4.50475
 20
41.097526
 30
0.0
 11
5.25475
 21
41.847526
 31
0.0
  0
LINE
  8
0
 62
     0
 10
4.50475
 20
41.627856
 30
0.0
 11
5.25475
 21
42.377856
 31
0.0
  0
LINE
  8
0
 62
     0
 10
4.50475
 20
42.158186
 30
0.0
 11
5.25475
 21
42.908186
 31
0.0
  0
LINE
  8
0
 62
     0
 10
4.50475
 20
42.688516
 30
0.0
 11
5.25475
 21
43.438516
 31
0.0
  0
LINE
  8
0
 62
     0
 10
4.50475
 20
43.218846
 30
0.0
 11
5.25475
 21
43.968846
 31
0.0
  0
LINE
  8
0
 62
     0
 10
5.9794
 20
44.693496
 30
0.0
 11
6.00475
 21
44.718846
 31
0.0
  0
LINE
  8
0
 62
     0
 10
4.50475
 20
43.749176
 30
0.0
 11
5.25475
 21
44.499176
 31
0.0
  0
LINE
  8
0
 62
     0
 10
5.44907
 20
44.693496
 30
0.0
 11
5.94907
 21
45.193496
 31
0.0
  0
LINE
  8
0
 62
     0
 10
4.50475
 20
44.279506
 30
0.0
 11
5.80475
 21
45.579506
 31
0.0
  0
LINE
  8
0
 62
     0
 10
4.50475
 20
44.809837
 30
0.0
 11
5.38841
 21
45.693496
 31
0.0
  0
LINE
  8
0
 62
     0
 10
4.50475
 20
45.340167
 30
0.0
 11
4.85808
 21
45.693496
 31
0.0
  0
LINE
  8
0
 62
     0
 10
4.50475
 20
40.567196
 30
0.0
 11
5.25475
 21
41.317196
 31
0.0
  0
LINE
  8
0
 62
     0
 10
4.50475
 20
40.036866
 30
0.0
 11
5.25475
 21
40.786866
 31
0.0
  0
LINE
  8
0
 62
     0
 10
4.57323
 20
39.575016
 30
0.0
 11
5.25475
 21
40.256536
 31
0.0
  0
LINE
  8
0
 62
     0
 10
4.838395
 20
39.309851
 30
0.0
 11
5.25475
 21
39.726206
 31
0.0
  0
LINE
  8
0
 62
     0
 10
4.95475
 20
38.895875
 30
0.0
 11
5.25475
 21
39.195875
 31
0.0
  0
LINE
  8
0
 62
     0
 10
5.282701
 20
38.693496
 30
0.0
 11
5.293812
 21
38.704608
 31
0.0
  0
ENDBLK
  8
0
  0
BLOCK
  8
0
  2
*X1
 70
    65
 10
0.0
 20
0.0
 30
0.0
  3
*X
  0
LINE
  8
0
 62
     0
 10
28.050872
 20
38.657474
 30
0.0
 11
29.300872
 21
39.907474
 31
0.0
  0
LINE
  8
0
 62
     0
 10
28.050872
 20
39.541357
 30
0.0
 11
29.300872
 21
40.791357
 31
0.0
  0
LINE
  8
0
 62
     0
 10
28.050872
 20
40.425241
 30
0.0
 11
29.300872
 21
41.675241
 31
0.0
  0
LINE
  8
0
 62
     0
 10
28.050872
 20
41.309124
 30
0.0
 11
29.300872
 21
42.559124
 31
0.0
  0
LINE
  8
0
 62
     0
 10
28.050872
 20
42.193008
 30
0.0
 11
29.300872
 21
43.443008
 31
0.0
  0
LINE
  8
0
 62
     0
 10
28.050872
 20
43.076891
 30
0.0
 11
29.300872
 21
44.326891
 31
0.0
  0
LINE
  8
0
 62
     0
 10
30.970376
 20
45.996395
 30
0.0
 11
31.050872
 21
46.076891
 31
0.0
  0
LINE
  8
0
 62
     0
 10
28.050872
 20
43.960774
 30
0.0
 11
29.300872
 21
45.210774
 31
0.0
  0
LINE
  8
0
 62
     0
 10
30.086492
 20
45.996395
 30
0.0
 11
30.586492
 21
46.496395
 31
0.0
  0
LINE
  8
0
 62
     0
 10
28.050872
 20
44.844658
 30
0.0
 11
30.500872
 21
47.294658
 31
0.0
  0
LINE
  8
0
 62
     0
 10
28.050872
 20
45.728541
 30
0.0
 11
29.818725
 21
47.496395
 31
0.0
  0
LINE
  8
0
 62
     0
 10
28.050872
 20
46.612425
 30
0.0
 11
28.934842
 21
47.496395
 31
0.0
  0
LINE
  8
0
 62
     0
 10
28.050872
 20
37.77359
 30
0.0
 11
29.300872
 21
39.02359
 31
0.0
  0
LINE
  8
0
 62
     0
 10
28.050872
 20
36.889707
 30
0.0
 11
29.300872
 21
38.139707
 31
0.0
  0
LINE
  8
0
 62
     0
 10
28.050872
 20
36.005823
 30
0.0
 11
29.300872
 21
37.255823
 31
0.0
  0
LINE
  8
0
 62
     0
 10
28.1381
 20
35.209167
 30
0.0
 11
29.300872
 21
36.37194
 31
0.0
  0
LINE
  8
0
 62
     0
 10
28.580041
 20
34.767226
 30
0.0
 11
29.300872
 21
35.488056
 31
0.0
  0
LINE
  8
0
 62
     0
 10
28.750872
 20
34.054173
 30
0.0
 11
29.300872
 21
34.604173
 31
0.0
  0
LINE
  8
0
 62
     0
 10
29.076978
 20
33.496395
 30
0.0
 11
29.363392
 21
33.782809
 31
0.0
  0
ENDBLK
  8
0
  0
BLOCK
  8
0
  2
*X2
 70
    65
 10
0.0
 20
0.0
 30
0.0
  3
*X
  0
LINE
  8
0
 62
     0
 10
38.596124
 20
38.596124
 30
0.0
 11
40.096124
 21
40.096124
 31
0.0
  0
LINE
  8
0
 62
     0
 10
38.596124
 20
39.480007
 30
0.0
 11
40.096124
 21
40.980007
 31
0.0
  0
LINE
  8
0
 62
     0
 10
38.596124
 20
40.363891
 30
0.0
 11
40.096124
 21
41.863891
 31
0.0
  0
LINE
  8
0
 62
     0
 10
38.596124
 20
41.247774
 30
0.0
 11
40.096124
 21
42.747774
 31
0.0
  0
LINE
  8
0
 62
     0
 10
38.596124
 20
42.131658
 30
0.0
 11
40.096124
 21
43.631658
 31
0.0
  0
LINE
  8
0
 62
     0
 10
41.790185
 20
45.325719
 30
0.0
 11
42.290185
 21
45.825719
 31
0.0
  0
LINE
  8
0
 62
     0
 10
38.596124
 20
43.015541
 30
0.0
 11
40.096124
 21
44.515541
 31
0.0
  0
LINE
  8
0
 62
     0
 10
40.906301
 20
45.325719
 30
0.0
 11
41.946124
 21
46.365541
 31
0.0
  0
LINE
  8
0
 62
     0
 10
38.596124
 20
43.899425
 30
0.0
 11
41.946124
 21
47.249425
 31
0.0
  0
LINE
  8
0
 62
     0
 10
38.596124
 20
44.783308
 30
0.0
 11
41.638534
 21
47.825719
 31
0.0
  0
LINE
  8
0
 62
     0
 10
38.596124
 20
45.667192
 30
0.0
 11
40.754651
 21
47.825719
 31
0.0
  0
LINE
  8
0
 62
     0
 10
38.596124
 20
46.551075
 30
0.0
 11
39.870767
 21
47.825719
 31
0.0
  0
LINE
  8
0
 62
     0
 10
38.596124
 20
37.71224
 30
0.0
 11
40.096124
 21
39.21224
 31
0.0
  0
LINE
  8
0
 62
     0
 10
38.596124
 20
36.828357
 30
0.0
 11
40.096124
 21
38.328357
 31
0.0
  0
LINE
  8
0
 62
     0
 10
38.596124
 20
35.944473
 30
0.0
 11
40.096124
 21
37.444473
 31
0.0
  0
LINE
  8
0
 62
     0
 10
38.596124
 20
35.06059
 30
0.0
 11
40.096124
 21
36.56059
 31
0.0
  0
LINE
  8
0
 62
     0
 10
38.596124
 20
34.176706
 30
0.0
 11
40.096124
 21
35.676706
 31
0.0
  0
LINE
  8
0
 62
     0
 10
38.962572
 20
33.659271
 30
0.0
 11
40.096124
 21
34.792823
 31
0.0
  0
LINE
  8
0
 62
     0
 10
39.404513
 20
33.217329
 30
0.0
 11
40.096124
 21
33.908939
 31
0.0
  0
LINE
  8
0
 62
     0
 10
39.496124
 20
32.425056
 30
0.0
 11
40.096124
 21
33.025056
 31
0.0
  0
LINE
  8
0
 62
     0
 10
39.838397
 20
31.883445
 30
0.0
 11
40.171482
 21
32.21653
 31
0.0
  0
ENDBLK
  8
0
  0
BLOCK
  8
0
  2
*X3
 70
    65
 10
0.0
 20
0.0
 30
0.0
  3
*X
  0
LINE
  8
0
 62
     0
 10
53.356124
 20
37.446221
 30
0.0
 11
55.356124
 21
39.446221
 31
0.0
  0
LINE
  8
0
 62
     0
 10
53.356124
 20
38.330105
 30
0.0
 11
55.356124
 21
40.330105
 31
0.0
  0
LINE
  8
0
 62
     0
 10
53.356124
 20
39.213988
 30
0.0
 11
55.356124
 21
41.213988
 31
0.0
  0
LINE
  8
0
 62
     0
 10
53.356124
 20
40.097872
 30
0.0
 11
55.356124
 21
42.097872
 31
0.0
  0
LINE
  8
0
 62
     0
 10
53.356124
 20
40.981755
 30
0.0
 11
55.356124
 21
42.981755
 31
0.0
  0
LINE
  8
0
 62
     0
 10
53.356124
 20
41.865639
 30
0.0
 11
55.356124
 21
43.865639
 31
0.0
  0
LINE
  8
0
 62
     0
 10
57.896622
 20
46.406137
 30
0.0
 11
58.356124
 21
46.865639
 31
0.0
  0
LINE
  8
0
 62
     0
 10
53.356124
 20
42.749522
 30
0.0
 11
55.356124
 21
44.749522
 31
0.0
  0
LINE
  8
0
 62
     0
 10
57.012739
 20
46.406137
 30
0.0
 11
57.606124
 21
46.999522
 31
0.0
  0
LINE
  8
0
 62
     0
 10
53.356124
 20
43.633405
 30
0.0
 11
55.356124
 21
45.633405
 31
0.0
  0
LINE
  8
0
 62
     0
 10
56.128855
 20
46.406137
 30
0.0
 11
57.606124
 21
47.883405
 31
0.0
  0
LINE
  8
0
 62
     0
 10
53.356124
 20
44.517289
 30
0.0
 11
57.606124
 21
48.767289
 31
0.0
  0
LINE
  8
0
 62
     0
 10
53.356124
 20
45.401172
 30
0.0
 11
56.861088
 21
48.906137
 31
0.0
  0
LINE
  8
0
 62
     0
 10
53.356124
 20
46.285056
 30
0.0
 11
55.977205
 21
48.906137
 31
0.0
  0
LINE
  8
0
 62
     0
 10
53.356124
 20
47.168939
 30
0.0
 11
55.093321
 21
48.906137
 31
0.0
  0
LINE
  8
0
 62
     0
 10
53.356124
 20
36.562338
 30
0.0
 11
55.356124
 21
38.562338
 31
0.0
  0
LINE
  8
0
 62
     0
 10
53.356124
 20
35.678454
 30
0.0
 11
55.356124
 21
37.678454
 31
0.0
  0
LINE
  8
0
 62
     0
 10
53.356124
 20
34.794571
 30
0.0
 11
55.356124
 21
36.794571
 31
0.0
  0
LINE
  8
0
 62
     0
 10
53.356124
 20
33.910687
 30
0.0
 11
55.356124
 21
35.910687
 31
0.0
  0
LINE
  8
0
 62
     0
 10
53.356124
 20
33.026804
 30
0.0
 11
55.356124
 21
35.026804
 31
0.0
  0
LINE
  8
0
 62
     0
 10
53.612732
 20
32.399529
 30
0.0
 11
55.356124
 21
34.14292
 31
0.0
  0
LINE
  8
0
 62
     0
 10
54.054674
 20
31.957587
 30
0.0
 11
55.356124
 21
33.259037
 31
0.0
  0
LINE
  8
0
 62
     0
 10
54.496615
 20
31.515645
 30
0.0
 11
55.356124
 21
32.375153
 31
0.0
  0
LINE
  8
0
 62
     0
 10
54.806124
 20
30.94127
 30
0.0
 11
55.356124
 21
31.49127
 31
0.0
  0
LINE
  8
0
 62
     0
 10
54.930499
 20
30.181762
 30
0.0
 11
55.369708
 21
30.62097
 31
0.0
  0
ENDBLK
  8
0
  0
BLOCK
  8
0
  2
*X4
 70
    65
 10
0.0
 20
0.0
 30
0.0
  3
*X
  0
LINE
  8
0
 62
     0
 10
69.470312
 20
36.9434
 30
0.0
 11
71.470312
 21
38.9434
 31
0.0
  0
LINE
  8
0
 62
     0
 10
69.470312
 20
38.357613
 30
0.0
 11
71.470312
 21
40.357613
 31
0.0
  0
LINE
  8
0
 62
     0
 10
69.470312
 20
39.771827
 30
0.0
 11
71.470312
 21
41.771827
 31
0.0
  0
LINE
  8
0
 62
     0
 10
69.470312
 20
41.18604
 30
0.0
 11
71.470312
 21
43.18604
 31
0.0
  0
LINE
  8
0
 62
     0
 10
69.470312
 20
42.600254
 30
0.0
 11
71.470312
 21
44.600254
 31
0.0
  0
LINE
  8
0
 62
     0
 10
74.158417
 20
47.28836
 30
0.0
 11
75.158417
 21
48.28836
 31
0.0
  0
LINE
  8
0
 62
     0
 10
69.470312
 20
44.014468
 30
0.0
 11
71.470312
 21
46.014468
 31
0.0
  0
LINE
  8
0
 62
     0
 10
72.744204
 20
47.28836
 30
0.0
 11
74.370312
 21
48.914468
 31
0.0
  0
LINE
  8
0
 62
     0
 10
69.470312
 20
45.428681
 30
0.0
 11
74.370312
 21
50.328681
 31
0.0
  0
LINE
  8
0
 62
     0
 10
69.470312
 20
46.842895
 30
0.0
 11
73.115777
 21
50.48836
 31
0.0
  0
LINE
  8
0
 62
     0
 10
69.470312
 20
48.257108
 30
0.0
 11
71.701563
 21
50.48836
 31
0.0
  0
LINE
  8
0
 62
     0
 10
69.470312
 20
35.529186
 30
0.0
 11
71.470312
 21
37.529186
 31
0.0
  0
LINE
  8
0
 62
     0
 10
69.470312
 20
34.114973
 30
0.0
 11
71.470312
 21
36.114973
 31
0.0
  0
LINE
  8
0
 62
     0
 10
69.470312
 20
32.700759
 30
0.0
 11
71.470312
 21
34.700759
 31
0.0
  0
LINE
  8
0
 62
     0
 10
69.470312
 20
31.286546
 30
0.0
 11
71.470312
 21
33.286546
 31
0.0
  0
LINE
  8
0
 62
     0
 10
70.103326
 20
30.505346
 30
0.0
 11
71.470312
 21
31.872332
 31
0.0
  0
LINE
  8
0
 62
     0
 10
70.810432
 20
29.798239
 30
0.0
 11
71.470312
 21
30.458118
 31
0.0
  0
LINE
  8
0
 62
     0
 10
71.167539
 20
28.741132
 30
0.0
 11
71.562222
 21
29.135815
 31
0.0
  0
ENDBLK
  8
0
  0
BLOCK
  8
0
  2
*X5
 70
    65
 10
0.0
 20
0.0
 30
0.0
  3
*X
  0
LINE
  8
0
 62
     0
 10
90.902073
 20
37.161958
 30
0.0
 11
93.902073
 21
40.161958
 31
0.0
  0
LINE
  8
0
 62
     0
 10
90.902073
 20
38.576171
 30
0.0
 11
93.902073
 21
41.576171
 31
0.0
  0
LINE
  8
0
 62
     0
 10
90.902073
 20
39.990385
 30
0.0
 11
93.902073
 21
42.990385
 31
0.0
  0
LINE
  8
0
 62
     0
 10
90.902073
 20
41.404598
 30
0.0
 11
93.902073
 21
44.404598
 31
0.0
  0
LINE
  8
0
 62
     0
 10
98.323611
 20
48.826136
 30
0.0
 11
98.902073
 21
49.404598
 31
0.0
  0
LINE
  8
0
 62
     0
 10
90.902073
 20
42.818812
 30
0.0
 11
93.902073
 21
45.818812
 31
0.0
  0
LINE
  8
0
 62
     0
 10
96.909397
 20
48.826136
 30
0.0
 11
97.952073
 21
49.868812
 31
0.0
  0
LINE
  8
0
 62
     0
 10
90.902073
 20
44.233025
 30
0.0
 11
93.902073
 21
47.233025
 31
0.0
  0
LINE
  8
0
 62
     0
 10
95.495184
 20
48.826136
 30
0.0
 11
97.952073
 21
51.283025
 31
0.0
  0
LINE
  8
0
 62
     0
 10
90.902073
 20
45.647239
 30
0.0
 11
93.902073
 21
48.647239
 31
0.0
  0
LINE
  8
0
 62
     0
 10
94.08097
 20
48.826136
 30
0.0
 11
97.952073
 21
52.697239
 31
0.0
  0
LINE
  8
0
 62
     0
 10
90.902073
 20
47.061453
 30
0.0
 11
96.666757
 21
52.826136
 31
0.0
  0
LINE
  8
0
 62
     0
 10
90.902073
 20
48.475666
 30
0.0
 11
95.252543
 21
52.826136
 31
0.0
  0
LINE
  8
0
 62
     0
 10
90.902073
 20
49.88988
 30
0.0
 11
93.83833
 21
52.826136
 31
0.0
  0
LINE
  8
0
 62
     0
 10
90.902073
 20
35.747744
 30
0.0
 11
93.902073
 21
38.747744
 31
0.0
  0
LINE
  8
0
 62
     0
 10
90.902073
 20
34.333531
 30
0.0
 11
93.902073
 21
37.333531
 31
0.0
  0
LINE
  8
0
 62
     0
 10
90.902073
 20
32.919317
 30
0.0
 11
93.902073
 21
35.919317
 31
0.0
  0
LINE
  8
0
 62
     0
 10
91.062589
 20
31.66562
 30
0.0
 11
93.902073
 21
34.505103
 31
0.0
  0
LINE
  8
0
 62
     0
 10
91.769696
 20
30.958513
 30
0.0
 11
93.902073
 21
33.09089
 31
0.0
  0
LINE
  8
0
 62
     0
 10
92.476803
 20
30.251406
 30
0.0
 11
93.902073
 21
31.676676
 31
0.0
  0
LINE
  8
0
 62
     0
 10
92.902073
 20
29.262463
 30
0.0
 11
93.902473
 21
30.262863
 31
0.0
  0
LINE
  8
0
 62
     0
 10
93.87996
 20
28.826136
 30
0.0
 11
94.07529
 21
29.021466
 31
0.0
  0
ENDBLK
  8
0
  0
BLOCK
  8
0
  2
*X6
 70
    65
 10
0.0
 20
0.0
 30
0.0
  3
*X
  0
LINE
  8
0
 62
     0
 10
116.07575
 20
34.75847
 30
0.0
 11
120.07575
 21
38.75847
 31
0.0
  0
LINE
  8
0
 62
     0
 10
116.07575
 20
36.526237
 30
0.0
 11
120.07575
 21
40.526237
 31
0.0
  0
LINE
  8
0
 62
     0
 10
116.07575
 20
38.294004
 30
0.0
 11
120.07575
 21
42.294004
 31
0.0
  0
LINE
  8
0
 62
     0
 10
125.880836
 20
48.099091
 30
0.0
 11
126.07575
 21
48.294004
 31
0.0
  0
LINE
  8
0
 62
     0
 10
116.07575
 20
40.061771
 30
0.0
 11
120.07575
 21
44.061771
 31
0.0
  0
LINE
  8
0
 62
     0
 10
124.113069
 20
48.099091
 30
0.0
 11
125.613069
 21
49.599091
 31
0.0
  0
LINE
  8
0
 62
     0
 10
116.07575
 20
41.829538
 30
0.0
 11
120.07575
 21
45.829538
 31
0.0
  0
LINE
  8
0
 62
     0
 10
122.345303
 20
48.099091
 30
0.0
 11
124.82575
 21
50.579538
 31
0.0
  0
LINE
  8
0
 62
     0
 10
116.07575
 20
43.597304
 30
0.0
 11
120.07575
 21
47.597304
 31
0.0
  0
LINE
  8
0
 62
     0
 10
120.577536
 20
48.099091
 30
0.0
 11
124.82575
 21
52.347304
 31
0.0
  0
LINE
  8
0
 62
     0
 10
116.07575
 20
45.365071
 30
0.0
 11
124.009769
 21
53.299091
 31
0.0
  0
LINE
  8
0
 62
     0
 10
116.07575
 20
47.132838
 30
0.0
 11
122.242002
 21
53.299091
 31
0.0
  0
LINE
  8
0
 62
     0
 10
116.07575
 20
48.900605
 30
0.0
 11
120.474235
 21
53.299091
 31
0.0
  0
LINE
  8
0
 62
     0
 10
116.07575
 20
32.990703
 30
0.0
 11
120.07575
 21
36.990703
 31
0.0
  0
LINE
  8
0
 62
     0
 10
116.07575
 20
31.222936
 30
0.0
 11
120.07575
 21
35.222936
 31
0.0
  0
LINE
  8
0
 62
     0
 10
116.07575
 20
29.455169
 30
0.0
 11
120.07575
 21
33.455169
 31
0.0
  0
LINE
  8
0
 62
     0
 10
116.07575
 20
27.687402
 30
0.0
 11
120.07575
 21
31.687402
 31
0.0
  0
LINE
  8
0
 62
     0
 10
116.915477
 20
26.759363
 30
0.0
 11
120.07575
 21
29.919635
 31
0.0
  0
LINE
  8
0
 62
     0
 10
117.799361
 20
25.875479
 30
0.0
 11
120.07575
 21
28.151868
 31
0.0
  0
LINE
  8
0
 62
     0
 10
118.57575
 20
24.884101
 30
0.0
 11
120.07575
 21
26.384101
 31
0.0
  0
LINE
  8
0
 62
     0
 10
119.067128
 20
23.607712
 30
0.0
 11
120.078452
 21
24.619036
 31
0.0
  0
ENDBLK
  8
0
  0
BLOCK
  8
0
  2
*X7
 70
    65
 10
0.0
 20
0.0
 30
0.0
  3
*X
  0
LINE
  8
0
 62
     0
 10
144.25893
 20
34.657379
 30
0.0
 11
148.75893
 21
39.157379
 31
0.0
  0
LINE
  8
0
 62
     0
 10
144.25893
 20
36.425146
 30
0.0
 11
148.75893
 21
40.925146
 31
0.0
  0
LINE
  8
0
 62
     0
 10
144.25893
 20
38.192913
 30
0.0
 11
148.75893
 21
42.692913
 31
0.0
  0
LINE
  8
0
 62
     0
 10
155.717495
 20
49.651478
 30
0.0
 11
156.25893
 21
50.192913
 31
0.0
  0
LINE
  8
0
 62
     0
 10
144.25893
 20
39.96068
 30
0.0
 11
148.75893
 21
44.46068
 31
0.0
  0
LINE
  8
0
 62
     0
 10
153.949728
 20
49.651478
 30
0.0
 11
155.449728
 21
51.151478
 31
0.0
  0
LINE
  8
0
 62
     0
 10
144.25893
 20
41.728447
 30
0.0
 11
148.75893
 21
46.228447
 31
0.0
  0
LINE
  8
0
 62
     0
 10
152.181961
 20
49.651478
 30
0.0
 11
154.75893
 21
52.228447
 31
0.0
  0
LINE
  8
0
 62
     0
 10
144.25893
 20
43.496214
 30
0.0
 11
148.75893
 21
47.996214
 31
0.0
  0
LINE
  8
0
 62
     0
 10
150.414194
 20
49.651478
 30
0.0
 11
154.75893
 21
53.996214
 31
0.0
  0
LINE
  8
0
 62
     0
 10
144.25893
 20
45.263981
 30
0.0
 11
154.75893
 21
55.763981
 31
0.0
  0
LINE
  8
0
 62
     0
 10
144.25893
 20
47.031748
 30
0.0
 11
153.37866
 21
56.151478
 31
0.0
  0
LINE
  8
0
 62
     0
 10
144.25893
 20
48.799515
 30
0.0
 11
151.610893
 21
56.151478
 31
0.0
  0
LINE
  8
0
 62
     0
 10
144.25893
 20
50.567282
 30
0.0
 11
149.843126
 21
56.151478
 31
0.0
  0
LINE
  8
0
 62
     0
 10
144.25893
 20
52.335049
 30
0.0
 11
148.075359
 21
56.151478
 31
0.0
  0
LINE
  8
0
 62
     0
 10
144.25893
 20
32.889612
 30
0.0
 11
148.75893
 21
37.389612
 31
0.0
  0
LINE
  8
0
 62
     0
 10
144.25893
 20
31.121845
 30
0.0
 11
148.75893
 21
35.621845
 31
0.0
  0
LINE
  8
0
 62
     0
 10
144.25893
 20
29.354078
 30
0.0
 11
148.75893
 21
33.854078
 31
0.0
  0
LINE
  8
0
 62
     0
 10
144.25893
 20
27.586311
 30
0.0
 11
148.75893
 21
32.086311
 31
0.0
  0
LINE
  8
0
 62
     0
 10
144.975397
 20
26.535011
 30
0.0
 11
148.75893
 21
30.318544
 31
0.0
  0
LINE
  8
0
 62
     0
 10
145.85928
 20
25.651127
 30
0.0
 11
148.75893
 21
28.550777
 31
0.0
  0
LINE
  8
0
 62
     0
 10
146.743164
 20
24.767244
 30
0.0
 11
148.75893
 21
26.78301
 31
0.0
  0
LINE
  8
0
 62
     0
 10
147.35893
 20
23.615243
 30
0.0
 11
148.75893
 21
25.015243
 31
0.0
  0
LINE
  8
0
 62
     0
 10
147.910931
 20
22.399477
 30
0.0
 11
148.807835
 21
23.296382
 31
0.0
  0
ENDBLK
  8
0
  0
BLOCK
  8
0
  2
*X8
 70
    65
 10
0.0
 20
0.0
 30
0.0
  3
*X
  0
LINE
  8
0
 62
     0
 10
9.941376
 20
40.17019
 30
0.0
 11
10.691376
 21
40.92019
 31
0.0
  0
LINE
  8
0
 62
     0
 10
9.941376
 20
40.700521
 30
0.0
 11
10.691376
 21
41.450521
 31
0.0
  0
LINE
  8
0
 62
     0
 10
9.941376
 20
41.230851
 30
0.0
 11
10.691376
 21
41.980851
 31
0.0
  0
LINE
  8
0
 62
     0
 10
9.941376
 20
41.761181
 30
0.0
 11
10.691376
 21
42.511181
 31
0.0
  0
LINE
  8
0
 62
     0
 10
9.941376
 20
42.291511
 30
0.0
 11
10.691376
 21
43.041511
 31
0.0
  0
LINE
  8
0
 62
     0
 10
9.941376
 20
42.821841
 30
0.0
 11
10.691376
 21
43.571841
 31
0.0
  0
LINE
  8
0
 62
     0
 10
9.941376
 20
43.352171
 30
0.0
 11
10.691376
 21
44.102171
 31
0.0
  0
LINE
  8
0
 62
     0
 10
11.541352
 20
44.952147
 30
0.0
 11
11.941352
 21
45.352147
 31
0.0
  0
LINE
  8
0
 62
     0
 10
9.941376
 20
43.882501
 30
0.0
 11
10.691376
 21
44.632501
 31
0.0
  0
LINE
  8
0
 62
     0
 10
11.011022
 20
44.952147
 30
0.0
 11
11.641376
 21
45.582501
 31
0.0
  0
LINE
  8
0
 62
     0
 10
9.941376
 20
44.412831
 30
0.0
 11
11.480692
 21
45.952147
 31
0.0
  0
LINE
  8
0
 62
     0
 10
9.941376
 20
44.943161
 30
0.0
 11
10.950362
 21
45.952147
 31
0.0
  0
LINE
  8
0
 62
     0
 10
9.941376
 20
39.63986
 30
0.0
 11
10.691376
 21
40.38986
 31
0.0
  0
LINE
  8
0
 62
     0
 10
9.941376
 20
39.10953
 30
0.0
 11
10.691376
 21
39.85953
 31
0.0
  0
LINE
  8
0
 62
     0
 10
9.941376
 20
38.5792
 30
0.0
 11
10.691376
 21
39.3292
 31
0.0
  0
LINE
  8
0
 62
     0
 10
9.968014
 20
38.075509
 30
0.0
 11
10.691376
 21
38.79887
 31
0.0
  0
LINE
  8
0
 62
     0
 10
10.233179
 20
37.810344
 30
0.0
 11
10.691376
 21
38.26854
 31
0.0
  0
LINE
  8
0
 62
     0
 10
10.391376
 20
37.43821
 30
0.0
 11
10.691376
 21
37.73821
 31
0.0
  0
LINE
  8
0
 62
     0
 10
10.513509
 20
37.030014
 30
0.0
 11
10.704561
 21
37.221066
 31
0.0
  0
ENDBLK
  8
0
  0
BLOCK
  8
0
  2
*X9
 70
    65
 10
0.0
 20
0.0
 30
0.0
  3
*X
  0
LINE
  8
0
 62
     0
 10
17.993883
 20
39.207087
 30
0.0
 11
18.993883
 21
40.207087
 31
0.0
  0
LINE
  8
0
 62
     0
 10
17.993883
 20
40.09097
 30
0.0
 11
18.993883
 21
41.09097
 31
0.0
  0
LINE
  8
0
 62
     0
 10
17.993883
 20
40.974854
 30
0.0
 11
18.993883
 21
41.974854
 31
0.0
  0
LINE
  8
0
 62
     0
 10
17.993883
 20
41.858737
 30
0.0
 11
18.993883
 21
42.858737
 31
0.0
  0
LINE
  8
0
 62
     0
 10
17.993883
 20
42.742621
 30
0.0
 11
18.993883
 21
43.742621
 31
0.0
  0
LINE
  8
0
 62
     0
 10
17.993883
 20
43.626504
 30
0.0
 11
18.993883
 21
44.626504
 31
0.0
  0
LINE
  8
0
 62
     0
 10
20.170671
 20
45.803292
 30
0.0
 11
20.493883
 21
46.126504
 31
0.0
  0
LINE
  8
0
 62
     0
 10
17.993883
 20
44.510388
 30
0.0
 11
18.993883
 21
45.510388
 31
0.0
  0
LINE
  8
0
 62
     0
 10
19.286788
 20
45.803292
 30
0.0
 11
20.093883
 21
46.610388
 31
0.0
  0
LINE
  8
0
 62
     0
 10
17.993883
 20
45.394271
 30
0.0
 11
19.602904
 21
47.003292
 31
0.0
  0
LINE
  8
0
 62
     0
 10
17.993883
 20
46.278155
 30
0.0
 11
18.719021
 21
47.003292
 31
0.0
  0
LINE
  8
0
 62
     0
 10
17.993883
 20
38.323203
 30
0.0
 11
18.993883
 21
39.323203
 31
0.0
  0
LINE
  8
0
 62
     0
 10
17.993883
 20
37.43932
 30
0.0
 11
18.993883
 21
38.43932
 31
0.0
  0
LINE
  8
0
 62
     0
 10
18.067811
 20
36.629364
 30
0.0
 11
18.993883
 21
37.555436
 31
0.0
  0
LINE
  8
0
 62
     0
 10
18.509753
 20
36.187422
 30
0.0
 11
18.993883
 21
36.671553
 31
0.0
  0
LINE
  8
0
 62
     0
 10
18.693883
 20
35.487669
 30
0.0
 11
18.993883
 21
35.787669
 31
0.0
  0
LINE
  8
0
 62
     0
 10
19.093389
 20
35.003292
 30
0.0
 11
19.142473
 21
35.052376
 31
0.0
  0
ENDBLK
  8
0
  0
ENDSEC
  0
SECTION
  2
ENTITIES
  0
LINE
  8
0
  6
CENTER
 10
11.941376
 20
46.635121
 30
0.0
 11
11.941376
 21
35.551421
 31
0.0
  0
LINE
  8
0
 10
9.941376
 20
45.452147
 30
0.0
 11
9.941376
 21
38.102147
 31
0.0
  0
LINE
  8
0
 10
13.941376
 20
45.452147
 30
0.0
 11
13.941376
 21
38.102147
 31
0.0
  0
LINE
  8
0
 10
10.441376
 20
45.952147
 30
0.0
 11
11.641376
 21
45.952147
 31
0.0
  0
LINE
  8
0
 10
10.591376
 20
36.952147
 30
0.0
 11
10.775185
 21
36.952147
 31
0.0
  0
ARC
  8
0
 10
11.941376
 20
37.402147
 30
0.0
 40
1.25
 50
116.576756
 51
338.899804
  0
LINE
  8
0
 10
10.291376
 20
45.802147
 30
0.0
 11
10.291376
 21
37.752147
 31
0.0
  0
LINE
  8
0
 10
13.591376
 20
45.802147
 30
0.0
 11
13.591376
 21
37.752147
 31
0.0
  0
LINE
  8
0
 10
10.441376
 20
45.952147
 30
0.0
 11
9.941376
 21
45.452147
 31
0.0
  0
LINE
  8
0
 10
13.441376
 20
45.952147
 30
0.0
 11
13.941376
 21
45.452147
 31
0.0
  0
LINE
  8
0
 10
12.241376
 20
45.452147
 30
0.0
 11
13.941376
 21
45.452147
 31
0.0
  0
LINE
  8
0
 10
10.391376
 20
37.652147
 30
0.0
 11
10.391376
 21
37.152147
 31
0.0
  0
LINE
  8
0
 10
13.491376
 20
37.652147
 30
0.0
 11
13.491376
 21
37.152147
 31
0.0
  0
LINE
  8
0
 10
11.941376
 20
37.652147
 30
0.0
 11
13.491376
 21
37.652147
 31
0.0
  0
LINE
  8
0
 10
10.391376
 20
37.652147
 30
0.0
 11
9.941376
 21
38.102147
 31
0.0
  0
LINE
  8
0
 10
13.491376
 20
37.652147
 30
0.0
 11
13.941376
 21
38.102147
 31
0.0
  0
LINE
  8
0
 10
10.691376
 20
37.402147
 30
0.0
 11
10.691376
 21
44.952147
 31
0.0
  0
LINE
  8
0
 10
11.641376
 20
45.952147
 30
0.0
 11
11.641376
 21
45.352147
 31
0.0
  0
LINE
  8
0
 10
12.241376
 20
45.952147
 30
0.0
 11
12.241376
 21
45.352147
 31
0.0
  0
LINE
  8
0
 10
11.641376
 20
45.352147
 30
0.0
 11
12.241376
 21
45.352147
 31
0.0
  0
LINE
  8
0
 10
12.241376
 20
45.952147
 30
0.0
 11
13.441376
 21
45.952147
 31
0.0
  0
LINE
  8
0
 10
10.691376
 20
44.952147
 30
0.0
 11
11.941376
 21
44.952147
 31
0.0
  0
LINE
  8
0
 10
10.82422
 20
44.946056
 30
0.0
 11
11.941376
 21
44.946056
 31
0.0
  0
LINE
  8
0
 10
11.941376
 20
44.355222
 30
0.0
 11
10.813907
 21
43.849642
 31
0.0
  0
LINE
  8
0
 10
11.941376
 20
43.344061
 30
0.0
 11
10.940392
 21
43.792923
 31
0.0
  0
LINE
  8
0
 10
11.941376
 20
41.281567
 30
0.0
 11
10.940392
 21
41.730428
 31
0.0
  0
LINE
  8
0
 10
11.941376
 20
42.292727
 30
0.0
 11
10.813907
 21
41.787147
 31
0.0
  0
LINE
  8
0
 10
11.941376
 20
40.230232
 30
0.0
 11
10.813907
 21
39.724652
 31
0.0
  0
LINE
  8
0
 10
11.941376
 20
39.219072
 30
0.0
 11
10.940392
 21
39.667934
 31
0.0
  0
LINE
  8
0
 10
11.941376
 20
39.105635
 30
0.0
 11
10.813907
 21
39.611215
 31
0.0
  0
LINE
  8
0
 10
11.941376
 20
40.116795
 30
0.0
 11
10.940392
 21
39.667934
 31
0.0
  0
LINE
  8
0
 10
11.941376
 20
42.17929
 30
0.0
 11
10.940392
 21
41.730428
 31
0.0
  0
LINE
  8
0
 10
11.941376
 20
41.168129
 30
0.0
 11
10.813907
 21
41.67371
 31
0.0
  0
LINE
  8
0
 10
11.941376
 20
43.230624
 30
0.0
 11
10.813907
 21
43.736205
 31
0.0
  0
LINE
  8
0
 10
11.941376
 20
44.241785
 30
0.0
 11
10.940392
 21
43.792923
 31
0.0
  0
LINE
  8
0
 10
10.82422
 20
44.832619
 30
0.0
 11
11.941376
 21
44.832619
 31
0.0
  0
LINE
  8
0
 10
10.813907
 20
43.849642
 30
0.0
 11
10.813907
 21
43.736205
 31
0.0
  0
LINE
  8
0
 10
10.813907
 20
41.787147
 30
0.0
 11
10.813907
 21
41.67371
 31
0.0
  0
LINE
  8
0
 10
10.813907
 20
39.724652
 30
0.0
 11
10.813907
 21
39.611215
 31
0.0
  0
LINE
  8
0
 10
10.82422
 20
44.946056
 30
0.0
 11
10.82422
 21
44.832619
 31
0.0
  0
LINE
  8
0
 10
11.941376
 20
38.539414
 30
0.0
 11
11.294416
 21
38.517033
 31
0.0
  0
LINE
  8
0
 10
11.941376
 20
38.652329
 30
0.0
 11
11.294416
 21
38.63047
 31
0.0
  0
LINE
  8
0
 10
11.294416
 20
38.63047
 30
0.0
 11
11.294416
 21
38.517033
 31
0.0
  0
LINE
  8
0
 10
10.391376
 20
37.152147
 30
0.0
 11
10.591376
 21
36.952147
 31
0.0
  0
LINE
  8
0
 10
13.291376
 20
36.952147
 30
0.0
 11
13.491376
 21
37.152147
 31
0.0
  0
LINE
  8
0
 10
13.491376
 20
37.152147
 30
0.0
 11
11.941376
 21
37.152147
 31
0.0
  0
LINE
  8
0
 10
11.941376
 20
36.952147
 30
0.0
 11
13.291376
 21
36.952147
 31
0.0
  0
LINE
  8
0
  6
CENTER
 10
20.493883
 20
47.991742
 30
0.0
 11
20.493883
 21
33.42579
 31
0.0
  0
LINE
  8
0
 10
17.993883
 20
46.503292
 30
0.0
 11
17.993883
 21
36.703292
 31
0.0
  0
LINE
  8
0
 10
22.993883
 20
46.503292
 30
0.0
 11
22.993883
 21
36.703292
 31
0.0
  0
LINE
  8
0
 10
18.493883
 20
47.003292
 30
0.0
 11
20.093883
 21
47.003292
 31
0.0
  0
LINE
  8
0
 10
18.893883
 20
35.003292
 30
0.0
 11
19.167233
 21
35.003292
 31
0.0
  0
LINE
  8
0
 10
18.393883
 20
46.903292
 30
0.0
 11
18.393883
 21
36.303292
 31
0.0
  0
LINE
  8
0
 10
22.593883
 20
46.903292
 30
0.0
 11
22.593883
 21
36.303292
 31
0.0
  0
LINE
  8
0
 10
18.493883
 20
47.003292
 30
0.0
 11
17.993883
 21
46.503292
 31
0.0
  0
LINE
  8
0
 10
22.493883
 20
47.003292
 30
0.0
 11
22.993883
 21
46.503292
 31
0.0
  0
LINE
  8
0
 10
20.893883
 20
46.503292
 30
0.0
 11
22.993883
 21
46.503292
 31
0.0
  0
ARC
  8
0
 10
20.493883
 20
35.703292
 30
0.0
 40
1.5
 50
121.085679
 51
332.181861
  0
LINE
  8
0
 10
18.693883
 20
36.003292
 30
0.0
 11
18.693883
 21
35.203292
 31
0.0
  0
LINE
  8
0
 10
22.293883
 20
36.003292
 30
0.0
 11
22.293883
 21
35.203292
 31
0.0
  0
LINE
  8
0
 10
20.493883
 20
36.003292
 30
0.0
 11
22.293883
 21
36.003292
 31
0.0
  0
LINE
  8
0
 10
18.693883
 20
36.003292
 30
0.0
 11
17.993883
 21
36.703292
 31
0.0
  0
LINE
  8
0
 10
22.293883
 20
36.003292
 30
0.0
 11
22.993883
 21
36.703292
 31
0.0
  0
LINE
  8
0
 10
18.693883
 20
35.203292
 30
0.0
 11
18.893883
 21
35.003292
 31
0.0
  0
LINE
  8
0
 10
22.093883
 20
35.003292
 30
0.0
 11
22.293883
 21
35.203292
 31
0.0
  0
LINE
  8
0
 10
22.293883
 20
35.203292
 30
0.0
 11
20.493883
 21
35.203292
 31
0.0
  0
LINE
  8
0
 10
20.093883
 20
47.003292
 30
0.0
 11
20.093883
 21
46.203292
 31
0.0
  0
LINE
  8
0
 10
20.893883
 20
47.003292
 30
0.0
 11
20.893883
 21
46.203292
 31
0.0
  0
LINE
  8
0
 10
20.093883
 20
46.203292
 30
0.0
 11
20.893883
 21
46.203292
 31
0.0
  0
LINE
  8
0
 10
20.893883
 20
47.003292
 30
0.0
 11
22.493883
 21
47.003292
 31
0.0
  0
LINE
  8
0
 10
20.493883
 20
35.003292
 30
0.0
 11
22.093883
 21
35.003292
 31
0.0
  0
LINE
  8
0
 10
18.993883
 20
35.703292
 30
0.0
 11
18.993883
 21
45.803292
 31
0.0
  0
LINE
  8
0
 10
18.993883
 20
45.803292
 30
0.0
 11
20.493883
 21
45.803292
 31
0.0
  0
LINE
  8
0
 10
19.138853
 20
45.747248
 30
0.0
 11
20.493883
 21
45.747248
 31
0.0
  0
LINE
  8
0
 10
20.493883
 20
45.10689
 30
0.0
 11
19.127312
 21
44.543463
 31
0.0
  0
LINE
  8
0
 10
20.493883
 20
43.980035
 30
0.0
 11
19.326186
 21
44.461468
 31
0.0
  0
LINE
  8
0
 10
20.493883
 20
42.305411
 30
0.0
 11
19.154643
 21
41.753252
 31
0.0
  0
LINE
  8
0
 10
20.493883
 20
41.201093
 30
0.0
 11
19.353517
 21
41.671258
 31
0.0
  0
LINE
  8
0
 10
20.493883
 20
38.285494
 30
0.0
 11
19.380848
 21
38.74439
 31
0.0
  0
LINE
  8
0
 10
20.493883
 20
39.367275
 30
0.0
 11
19.181974
 21
38.826384
 31
0.0
  0
LINE
  8
0
 10
20.493883
 20
39.203286
 30
0.0
 11
19.380848
 21
38.74439
 31
0.0
  0
LINE
  8
0
 10
20.493883
 20
38.121505
 30
0.0
 11
19.181974
 21
38.662395
 31
0.0
  0
LINE
  8
0
 10
20.493883
 20
41.037104
 30
0.0
 11
19.154643
 21
41.589263
 31
0.0
  0
LINE
  8
0
 10
20.493883
 20
42.141422
 30
0.0
 11
19.353517
 21
41.671258
 31
0.0
  0
LINE
  8
0
 10
20.493883
 20
43.816047
 30
0.0
 11
19.127312
 21
44.379474
 31
0.0
  0
LINE
  8
0
 10
20.493883
 20
44.942902
 30
0.0
 11
19.326186
 21
44.461468
 31
0.0
  0
LINE
  8
0
 10
19.138853
 20
45.58326
 30
0.0
 11
20.493883
 21
45.58326
 31
0.0
  0
LINE
  8
0
 10
20.493883
 20
37.237861
 30
0.0
 11
19.560634
 21
37.134247
 31
0.0
  0
LINE
  8
0
 10
20.493883
 20
37.073872
 30
0.0
 11
19.560634
 21
36.970259
 31
0.0
  0
LINE
  8
0
 10
19.560634
 20
36.970259
 30
0.0
 11
19.560634
 21
37.134247
 31
0.0
  0
LINE
  8
0
 10
19.181974
 20
38.662395
 30
0.0
 11
19.181974
 21
38.826384
 31
0.0
  0
LINE
  8
0
 10
19.138853
 20
45.747248
 30
0.0
 11
19.138853
 21
45.58326
 31
0.0
  0
LINE
  8
0
 10
19.127312
 20
44.543463
 30
0.0
 11
19.127312
 21
44.379474
 31
0.0
  0
LINE
  8
0
 10
19.154643
 20
41.753252
 30
0.0
 11
19.154643
 21
41.589263
 31
0.0
  0
LINE
  8
0
 10
22.993883
 20
36.703292
 30
0.0
 11
20.493883
 21
36.703292
 31
0.0
  0
LINE
  8
0
 10
13.941376
 20
38.102147
 30
0.0
 11
11.941376
 21
38.102147
 31
0.0
  0
LINE
  8
0
  6
CENTER
 10
31.050872
 20
48.288395
 30
0.0
 11
31.050872
 21
31.899344
 31
0.0
  0
LINE
  8
0
 10
28.050872
 20
46.796395
 30
0.0
 11
28.050872
 21
35.296395
 31
0.0
  0
LINE
  8
0
 10
34.050872
 20
46.796395
 30
0.0
 11
34.050872
 21
35.296395
 31
0.0
  0
LINE
  8
0
 10
28.750872
 20
47.496395
 30
0.0
 11
30.500872
 21
47.496395
 31
0.0
  0
LINE
  8
0
 10
29.050872
 20
33.496395
 30
0.0
 11
29.469733
 21
33.496395
 31
0.0
  0
ARC
  8
0
 10
31.050872
 20
34.246395
 30
0.0
 40
1.75
 50
114.744903
 51
334.623066
  0
LINE
  8
0
 10
28.750872
 20
34.596395
 30
0.0
 11
28.750872
 21
33.796395
 31
0.0
  0
LINE
  8
0
 10
33.350872
 20
34.596395
 30
0.0
 11
33.350872
 21
33.796395
 31
0.0
  0
LINE
  8
0
 10
31.050872
 20
34.596395
 30
0.0
 11
33.350872
 21
34.596395
 31
0.0
  0
LINE
  8
0
 10
28.750872
 20
34.596395
 30
0.0
 11
28.050872
 21
35.296395
 31
0.0
  0
LINE
  8
0
 10
33.350872
 20
34.596395
 30
0.0
 11
34.050872
 21
35.296395
 31
0.0
  0
LINE
  8
0
 10
28.750872
 20
33.796395
 30
0.0
 11
29.050872
 21
33.496395
 31
0.0
  0
LINE
  8
0
 10
33.350872
 20
33.796395
 30
0.0
 11
33.050872
 21
33.496395
 31
0.0
  0
LINE
  8
0
 10
33.350872
 20
33.796395
 30
0.0
 11
31.050872
 21
33.796395
 31
0.0
  0
LINE
  8
0
 10
29.300872
 20
34.246395
 30
0.0
 11
29.300872
 21
45.996395
 31
0.0
  0
LINE
  8
0
 10
30.500872
 20
47.496395
 30
0.0
 11
30.500872
 21
46.496395
 31
0.0
  0
LINE
  8
0
 10
31.600872
 20
47.496395
 30
0.0
 11
31.600872
 21
46.496395
 31
0.0
  0
LINE
  8
0
 10
30.500872
 20
46.496395
 30
0.0
 11
31.600872
 21
46.496395
 31
0.0
  0
LINE
  8
0
 10
29.300872
 20
45.996395
 30
0.0
 11
31.050872
 21
45.996395
 31
0.0
  0
LINE
  8
0
 10
31.600872
 20
47.496395
 30
0.0
 11
33.350872
 21
47.496395
 31
0.0
  0
LINE
  8
0
 10
28.550872
 20
47.296395
 30
0.0
 11
28.550872
 21
34.796395
 31
0.0
  0
LINE
  8
0
 10
33.550872
 20
47.296395
 30
0.0
 11
33.550872
 21
34.796395
 31
0.0
  0
LINE
  8
0
 10
28.750872
 20
47.496395
 30
0.0
 11
28.050872
 21
46.796395
 31
0.0
  0
LINE
  8
0
 10
33.350872
 20
47.496395
 30
0.0
 11
34.050872
 21
46.796395
 31
0.0
  0
LINE
  8
0
 10
31.600872
 20
46.796395
 30
0.0
 11
34.050872
 21
46.796395
 31
0.0
  0
LINE
  8
0
 10
34.050872
 20
35.296395
 30
0.0
 11
31.050872
 21
35.296395
 31
0.0
  0
LINE
  8
0
 10
31.050872
 20
33.496395
 30
0.0
 11
33.050872
 21
33.496395
 31
0.0
  0
LINE
  8
0
 10
29.462543
 20
45.968898
 30
0.0
 11
31.050872
 21
45.968898
 31
0.0
  0
LINE
  8
0
 10
31.050872
 20
45.338375
 30
0.0
 11
29.479433
 21
44.745546
 31
0.0
  0
LINE
  8
0
 10
31.050872
 20
44.078018
 30
0.0
 11
29.690004
 21
44.656098
 31
0.0
  0
LINE
  8
0
 10
31.050872
 20
41.488516
 30
0.0
 11
29.690004
 21
42.075837
 31
0.0
  0
LINE
  8
0
 10
31.050872
 20
42.748873
 30
0.0
 11
29.479433
 21
42.166715
 31
0.0
  0
LINE
  8
0
 10
31.050872
 20
38.89334
 30
0.0
 11
29.690004
 21
39.485282
 31
0.0
  0
LINE
  8
0
 10
31.050872
 20
40.153697
 30
0.0
 11
29.479433
 21
39.576875
 31
0.0
  0
LINE
  8
0
 10
31.050872
 20
37.575545
 30
0.0
 11
29.479433
 21
37.020065
 31
0.0
  0
LINE
  8
0
 10
29.730901
 20
36.940069
 30
0.0
 11
31.050872
 21
36.520165
 31
0.0
  0
LINE
  8
0
 10
31.050872
 20
36.004597
 30
0.0
 11
30.239463
 21
36.004597
 31
0.0
  0
LINE
  8
0
 10
31.050872
 20
35.835711
 30
0.0
 11
30.239463
 21
35.835711
 31
0.0
  0
LINE
  8
0
 10
29.479433
 20
36.851179
 30
0.0
 11
31.050872
 21
36.351278
 31
0.0
  0
LINE
  8
0
 10
31.050872
 20
37.406659
 30
0.0
 11
29.730901
 21
36.940069
 31
0.0
  0
LINE
  8
0
 10
31.050872
 20
39.98481
 30
0.0
 11
29.690004
 21
39.485282
 31
0.0
  0
LINE
  8
0
 10
31.050872
 20
38.724453
 30
0.0
 11
29.479433
 21
39.407988
 31
0.0
  0
LINE
  8
0
 10
31.050872
 20
42.579987
 30
0.0
 11
29.690004
 21
42.075837
 31
0.0
  0
LINE
  8
0
 10
31.050872
 20
41.31963
 30
0.0
 11
29.479433
 21
41.997829
 31
0.0
  0
LINE
  8
0
 10
31.050872
 20
43.909131
 30
0.0
 11
29.479433
 21
44.576659
 31
0.0
  0
LINE
  8
0
 10
31.050872
 20
45.169488
 30
0.0
 11
29.690004
 21
44.656098
 31
0.0
  0
LINE
  8
0
 10
29.462543
 20
45.800011
 30
0.0
 11
31.050872
 21
45.800011
 31
0.0
  0
LINE
  8
0
 10
29.462543
 20
45.968898
 30
0.0
 11
29.462543
 21
45.800011
 31
0.0
  0
LINE
  8
0
 10
29.479433
 20
44.745546
 30
0.0
 11
29.479433
 21
44.576659
 31
0.0
  0
LINE
  8
0
 10
29.479433
 20
42.166715
 30
0.0
 11
29.479433
 21
41.997829
 31
0.0
  0
LINE
  8
0
 10
29.479433
 20
39.576875
 30
0.0
 11
29.479433
 21
39.407988
 31
0.0
  0
LINE
  8
0
 10
29.479433
 20
37.020065
 30
0.0
 11
29.479433
 21
36.851179
 31
0.0
  0
LINE
  8
0
 10
30.239463
 20
36.004597
 30
0.0
 11
30.239463
 21
35.835711
 31
0.0
  0
LINE
  8
0
 10
46.921828
 20
47.025719
 30
0.0
 11
46.921828
 21
34.025719
 31
0.0
  0
LINE
  8
0
 10
38.921828
 20
47.025719
 30
0.0
 11
38.921828
 21
34.025719
 31
0.0
  0
LINE
  8
0
 10
39.721828
 20
47.825719
 30
0.0
 11
42.271828
 21
47.825719
 31
0.0
  0
LINE
  8
0
 10
40.221828
 20
31.825719
 30
0.0
 11
40.63054
 21
31.825719
 31
0.0
  0
ARC
  8
0
 10
42.921828
 20
32.825719
 30
0.0
 40
2.5
 50
125.170317
 51
336.421822
  0
LINE
  8
0
 10
40.421828
 20
32.825719
 30
0.0
 11
40.421828
 21
45.325719
 31
0.0
  0
LINE
  8
0
 10
43.571828
 20
47.825719
 30
0.0
 11
43.571828
 21
45.825719
 31
0.0
  0
LINE
  8
0
 10
42.271828
 20
47.825719
 30
0.0
 11
42.271828
 21
45.825719
 31
0.0
  0
LINE
  8
0
 10
42.271828
 20
45.825719
 30
0.0
 11
43.571828
 21
45.825719
 31
0.0
  0
LINE
  8
0
 10
43.571828
 20
47.825719
 30
0.0
 11
46.121828
 21
47.825719
 31
0.0
  0
LINE
  8
0
 10
40.421828
 20
45.325719
 30
0.0
 11
42.921828
 21
45.325719
 31
0.0
  0
LINE
  8
0
 10
39.821828
 20
33.125719
 30
0.0
 11
39.821828
 21
32.225719
 31
0.0
  0
LINE
  8
0
 10
46.021828
 20
33.125719
 30
0.0
 11
46.021828
 21
32.225719
 31
0.0
  0
LINE
  8
0
 10
42.921828
 20
33.125719
 30
0.0
 11
46.021828
 21
33.125719
 31
0.0
  0
LINE
  8
0
 10
39.821828
 20
33.125719
 30
0.0
 11
38.921828
 21
34.025719
 31
0.0
  0
LINE
  8
0
 10
46.021828
 20
33.125719
 30
0.0
 11
46.921828
 21
34.025719
 31
0.0
  0
LINE
  8
0
 10
42.921828
 20
31.825719
 30
0.0
 11
45.621828
 21
31.825719
 31
0.0
  0
LINE
  8
0
 10
45.621828
 20
31.825719
 30
0.0
 11
46.021828
 21
32.225719
 31
0.0
  0
LINE
  8
0
 10
46.021828
 20
32.225719
 30
0.0
 11
42.921828
 21
32.225719
 31
0.0
  0
LINE
  8
0
 10
40.221828
 20
31.825719
 30
0.0
 11
39.821828
 21
32.225719
 31
0.0
  0
LINE
  8
0
 10
46.921828
 20
34.025719
 30
0.0
 11
42.921828
 21
34.025719
 31
0.0
  0
LINE
  8
0
  6
CENTER
 10
42.921828
 20
48.522
 30
0.0
 11
42.921828
 21
29.622
 31
0.0
  0
LINE
  8
0
 10
39.521828
 20
47.625719
 30
0.0
 11
39.521828
 21
33.425719
 31
0.0
  0
LINE
  8
0
 10
46.321828
 20
47.625719
 30
0.0
 11
46.321828
 21
33.425719
 31
0.0
  0
LINE
  8
0
 10
46.921828
 20
47.025719
 30
0.0
 11
46.121828
 21
47.825719
 31
0.0
  0
LINE
  8
0
 10
39.721828
 20
47.825719
 30
0.0
 11
38.921828
 21
47.025719
 31
0.0
  0
LINE
  8
0
 10
53.356124
 20
47.906137
 30
0.0
 11
53.356124
 21
32.656137
 31
0.0
  0
LINE
  8
0
 10
63.356124
 20
47.906137
 30
0.0
 11
63.356124
 21
32.656137
 31
0.0
  0
LINE
  8
0
 10
54.356124
 20
48.906137
 30
0.0
 11
57.606124
 21
48.906137
 31
0.0
  0
LINE
  8
0
 10
55.206124
 20
29.906137
 30
0.0
 11
55.527697
 21
29.906137
 31
0.0
  0
ARC
  8
0
 10
58.356124
 20
30.906137
 30
0.0
 40
3.0
 50
120.19298
 51
340.528779
  0
LINE
  8
0
 10
55.356124
 20
30.906137
 30
0.0
 11
55.356124
 21
46.406137
 31
0.0
  0
LINE
  8
0
 10
57.606124
 20
48.906137
 30
0.0
 11
57.606124
 21
46.906137
 31
0.0
  0
LINE
  8
0
 10
59.106124
 20
48.906137
 30
0.0
 11
59.106124
 21
46.906137
 31
0.0
  0
LINE
  8
0
 10
57.606124
 20
46.906137
 30
0.0
 11
59.106124
 21
46.906137
 31
0.0
  0
LINE
  8
0
 10
59.106124
 20
48.906137
 30
0.0
 11
62.356124
 21
48.906137
 31
0.0
  0
LINE
  8
0
 10
54.806124
 20
31.206137
 30
0.0
 11
54.806124
 21
30.306137
 31
0.0
  0
LINE
  8
0
 10
61.906124
 20
31.206137
 30
0.0
 11
61.906124
 21
30.306137
 31
0.0
  0
LINE
  8
0
 10
58.356124
 20
31.206137
 30
0.0
 11
61.906124
 21
31.206137
 31
0.0
  0
LINE
  8
0
 10
54.806124
 20
31.206137
 30
0.0
 11
53.356124
 21
32.656137
 31
0.0
  0
LINE
  8
0
 10
61.906124
 20
31.206137
 30
0.0
 11
63.356124
 21
32.656137
 31
0.0
  0
LINE
  8
0
 10
54.806124
 20
30.306137
 30
0.0
 11
55.206124
 21
29.906137
 31
0.0
  0
LINE
  8
0
 10
61.506124
 20
29.906137
 30
0.0
 11
61.906124
 21
30.306137
 31
0.0
  0
LINE
  8
0
 10
61.906124
 20
30.306137
 30
0.0
 11
58.356124
 21
30.306137
 31
0.0
  0
LINE
  8
0
 10
58.356124
 20
29.906137
 30
0.0
 11
61.506124
 21
29.906137
 31
0.0
  0
LINE
  8
0
 10
54.106124
 20
48.656137
 30
0.0
 11
54.106124
 21
31.906137
 31
0.0
  0
LINE
  8
0
 10
62.606124
 20
48.656137
 30
0.0
 11
62.606124
 21
31.906137
 31
0.0
  0
LINE
  8
0
 10
54.356124
 20
48.906137
 30
0.0
 11
53.356124
 21
47.906137
 31
0.0
  0
LINE
  8
0
 10
62.356124
 20
48.906137
 30
0.0
 11
63.356124
 21
47.906137
 31
0.0
  0
LINE
  8
0
 10
55.356124
 20
46.406137
 30
0.0
 11
58.356124
 21
46.406137
 31
0.0
  0
LINE
  8
0
 10
46.921828
 20
47.025719
 30
0.0
 11
43.571828
 21
47.025719
 31
0.0
  0
LINE
  8
0
 10
55.646308
 20
46.318088
 30
0.0
 11
58.356124
 21
46.318088
 31
0.0
  0
LINE
  8
0
 10
55.646308
 20
45.972053
 30
0.0
 11
58.356124
 21
45.972053
 31
0.0
  0
LINE
  8
0
 10
55.646308
 20
46.318088
 30
0.0
 11
55.646308
 21
45.972053
 31
0.0
  0
LINE
  8
0
 10
40.692851
 20
45.280299
 30
0.0
 11
42.921828
 21
45.280299
 31
0.0
  0
LINE
  8
0
 10
40.692851
 20
45.030299
 30
0.0
 11
42.921828
 21
45.030299
 31
0.0
  0
LINE
  8
0
 10
40.692851
 20
45.280299
 30
0.0
 11
40.692851
 21
45.030299
 31
0.0
  0
LINE
  8
0
 10
42.921828
 20
29.622
 30
0.0
 11
42.921828
 21
29.555333
 31
0.0
  0
LINE
  8
0
 10
42.921828
 20
44.685899
 30
0.0
 11
40.740394
 21
44.027401
 31
0.0
  0
LINE
  8
0
 10
42.921828
 20
43.368904
 30
0.0
 11
41.154487
 21
43.902401
 31
0.0
  0
LINE
  8
0
 10
42.921828
 20
42.236076
 30
0.0
 11
40.740394
 21
41.577578
 31
0.0
  0
LINE
  8
0
 10
42.921828
 20
40.919081
 30
0.0
 11
41.154487
 21
41.452578
 31
0.0
  0
LINE
  8
0
 10
42.921828
 20
39.692964
 30
0.0
 11
40.740394
 21
39.034467
 31
0.0
  0
LINE
  8
0
 10
42.921828
 20
38.37597
 30
0.0
 11
41.154487
 21
38.909467
 31
0.0
  0
LINE
  8
0
 10
42.921828
 20
37.523007
 30
0.0
 11
40.740394
 21
36.86451
 31
0.0
  0
LINE
  8
0
 10
42.921828
 20
36.206013
 30
0.0
 11
41.154487
 21
36.73951
 31
0.0
  0
LINE
  8
0
 10
42.921828
 20
35.956013
 30
0.0
 11
40.740394
 21
36.61451
 31
0.0
  0
LINE
  8
0
 10
42.921828
 20
37.273007
 30
0.0
 11
41.154487
 21
36.73951
 31
0.0
  0
LINE
  8
0
 10
42.921828
 20
38.12597
 30
0.0
 11
40.740394
 21
38.784467
 31
0.0
  0
LINE
  8
0
 10
42.921828
 20
39.442964
 30
0.0
 11
41.154487
 21
38.909467
 31
0.0
  0
LINE
  8
0
 10
42.921828
 20
40.669081
 30
0.0
 11
40.740394
 21
41.327578
 31
0.0
  0
LINE
  8
0
 10
42.921828
 20
41.986076
 30
0.0
 11
41.154487
 21
41.452578
 31
0.0
  0
LINE
  8
0
 10
42.921828
 20
43.118904
 30
0.0
 11
40.740394
 21
43.777401
 31
0.0
  0
LINE
  8
0
 10
42.921828
 20
44.435899
 30
0.0
 11
41.154487
 21
43.902401
 31
0.0
  0
LINE
  8
0
 10
40.740394
 20
44.027401
 30
0.0
 11
40.740394
 21
43.777401
 31
0.0
  0
LINE
  8
0
 10
40.740394
 20
41.577578
 30
0.0
 11
40.740394
 21
41.327578
 31
0.0
  0
LINE
  8
0
 10
40.740394
 20
39.034467
 30
0.0
 11
40.740394
 21
38.784467
 31
0.0
  0
LINE
  8
0
 10
40.740394
 20
36.86451
 30
0.0
 11
40.740394
 21
36.61451
 31
0.0
  0
LINE
  8
0
 10
42.921828
 20
35.287868
 30
0.0
 11
41.481806
 21
35.090324
 31
0.0
  0
LINE
  8
0
 10
42.921828
 20
35.037868
 30
0.0
 11
41.481806
 21
34.840324
 31
0.0
  0
LINE
  8
0
 10
41.481806
 20
35.090324
 30
0.0
 11
41.481806
 21
34.840324
 31
0.0
  0
LINE
  8
0
 10
58.356124
 20
45.529489
 30
0.0
 11
55.607616
 21
44.743167
 31
0.0
  0
LINE
  8
0
 10
58.356124
 20
43.956846
 30
0.0
 11
56.212382
 21
44.57015
 31
0.0
  0
LINE
  8
0
 10
58.356124
 20
40.807004
 30
0.0
 11
56.212382
 21
41.420308
 31
0.0
  0
LINE
  8
0
 10
58.356124
 20
42.379648
 30
0.0
 11
55.607616
 21
41.593326
 31
0.0
  0
LINE
  8
0
 10
58.356124
 20
37.657162
 30
0.0
 11
56.212382
 21
38.270467
 31
0.0
  0
LINE
  8
0
 10
58.356124
 20
39.229806
 30
0.0
 11
55.607616
 21
38.443484
 31
0.0
  0
LINE
  8
0
 10
58.356124
 20
34.507321
 30
0.0
 11
56.212382
 21
35.120625
 31
0.0
  0
LINE
  8
0
 10
58.356124
 20
36.079965
 30
0.0
 11
55.607616
 21
35.293643
 31
0.0
  0
LINE
  8
0
 10
58.356124
 20
33.891125
 30
0.0
 11
56.847382
 21
33.784529
 31
0.0
  0
LINE
  8
0
 10
58.356124
 20
33.545089
 30
0.0
 11
56.847382
 21
33.438493
 31
0.0
  0
LINE
  8
0
 10
58.356124
 20
35.733929
 30
0.0
 11
56.212382
 21
35.120625
 31
0.0
  0
LINE
  8
0
 10
58.356124
 20
34.161285
 30
0.0
 11
55.607616
 21
34.947607
 31
0.0
  0
LINE
  8
0
 10
58.356124
 20
38.883771
 30
0.0
 11
56.212382
 21
38.270467
 31
0.0
  0
LINE
  8
0
 10
58.356124
 20
37.311127
 30
0.0
 11
55.607616
 21
38.097449
 31
0.0
  0
LINE
  8
0
 10
58.356124
 20
42.033612
 30
0.0
 11
56.212382
 21
41.420308
 31
0.0
  0
LINE
  8
0
 10
58.356124
 20
40.460968
 30
0.0
 11
55.607616
 21
41.24729
 31
0.0
  0
LINE
  8
0
 10
58.356124
 20
43.61081
 30
0.0
 11
55.607616
 21
44.397132
 31
0.0
  0
LINE
  8
0
 10
58.356124
 20
45.183454
 30
0.0
 11
56.212382
 21
44.57015
 31
0.0
  0
LINE
  8
0
 10
56.847382
 20
33.784529
 30
0.0
 11
56.847382
 21
33.438493
 31
0.0
  0
LINE
  8
0
 10
55.607616
 20
44.743167
 30
0.0
 11
55.607616
 21
44.397132
 31
0.0
  0
LINE
  8
0
 10
55.607616
 20
41.593326
 30
0.0
 11
55.607616
 21
41.24729
 31
0.0
  0
LINE
  8
0
 10
55.607616
 20
38.443484
 30
0.0
 11
55.607616
 21
38.097449
 31
0.0
  0
LINE
  8
0
 10
55.607616
 20
35.293643
 30
0.0
 11
55.607616
 21
34.947607
 31
0.0
  0
LINE
  8
0
  6
CENTER
 10
58.356124
 20
49.491284
 30
0.0
 11
58.356124
 21
27.32714
 31
0.0
  0
LINE
  8
0
 10
63.356124
 20
47.906137
 30
0.0
 11
59.106124
 21
47.906137
 31
0.0
  0
LINE
  8
0
 10
63.356124
 20
32.656137
 30
0.0
 11
58.356124
 21
32.656137
 31
0.0
  0
LINE
  8
0
 10
70.447425
 20
49.28836
 30
0.0
 11
70.447425
 21
31.13836
 31
0.0
  0
LINE
  8
0
 10
82.447425
 20
49.28836
 30
0.0
 11
82.447425
 21
31.13836
 31
0.0
  0
LINE
  8
0
 10
71.647425
 20
50.48836
 30
0.0
 11
75.347425
 21
50.48836
 31
0.0
  0
LINE
  8
0
 10
72.397425
 20
28.48836
 30
0.0
 11
72.739326
 21
28.48836
 31
0.0
  0
ARC
  8
0
 10
76.447425
 20
29.98836
 30
0.0
 40
4.0
 50
120.352285
 51
337.975687
  0
LINE
  8
0
 10
72.097425
 20
29.48836
 30
0.0
 11
72.097425
 21
28.78836
 31
0.0
  0
LINE
  8
0
 10
80.797425
 20
29.48836
 30
0.0
 11
80.797425
 21
28.78836
 31
0.0
  0
LINE
  8
0
 10
76.447425
 20
29.48836
 30
0.0
 11
80.797425
 21
29.48836
 31
0.0
  0
LINE
  8
0
 10
72.097425
 20
29.48836
 30
0.0
 11
70.447425
 21
31.13836
 31
0.0
  0
LINE
  8
0
 10
80.797425
 20
29.48836
 30
0.0
 11
82.447425
 21
31.13836
 31
0.0
  0
LINE
  8
0
 10
71.347425
 20
50.18836
 30
0.0
 11
71.347425
 21
30.23836
 31
0.0
  0
LINE
  8
0
 10
81.547425
 20
50.18836
 30
0.0
 11
81.547425
 21
30.23836
 31
0.0
  0
LINE
  8
0
 10
71.647425
 20
50.48836
 30
0.0
 11
70.447425
 21
49.28836
 31
0.0
  0
LINE
  8
0
 10
81.247425
 20
50.48836
 30
0.0
 11
82.447425
 21
49.28836
 31
0.0
  0
LINE
  8
0
 10
72.447425
 20
29.98836
 30
0.0
 11
72.447425
 21
47.28836
 31
0.0
  0
LINE
  8
0
 10
75.347425
 20
50.48836
 30
0.0
 11
75.347425
 21
48.28836
 31
0.0
  0
LINE
  8
0
 10
77.547425
 20
50.48836
 30
0.0
 11
77.547425
 21
48.28836
 31
0.0
  0
LINE
  8
0
 10
75.347425
 20
48.28836
 30
0.0
 11
77.547425
 21
48.28836
 31
0.0
  0
LINE
  8
0
 10
77.547425
 20
50.48836
 30
0.0
 11
81.247425
 21
50.48836
 31
0.0
  0
LINE
  8
0
 10
72.447425
 20
47.28836
 30
0.0
 11
76.447425
 21
47.28836
 31
0.0
  0
LINE
  8
0
 10
72.097425
 20
28.78836
 30
0.0
 11
72.397425
 21
28.48836
 31
0.0
  0
LINE
  8
0
 10
80.497425
 20
28.48836
 30
0.0
 11
80.797425
 21
28.78836
 31
0.0
  0
LINE
  8
0
 10
80.797425
 20
28.78836
 30
0.0
 11
76.447425
 21
28.78836
 31
0.0
  0
LINE
  8
0
 10
72.873947
 20
47.259763
 30
0.0
 11
76.447425
 21
47.259763
 31
0.0
  0
LINE
  8
0
 10
76.447425
 20
46.34558
 30
0.0
 11
72.873947
 21
45.497719
 31
0.0
  0
LINE
  8
0
 10
76.447425
 20
44.649857
 30
0.0
 11
73.632592
 21
45.317719
 31
0.0
  0
LINE
  8
0
 10
76.447425
 20
41.279715
 30
0.0
 11
73.632592
 21
41.947576
 31
0.0
  0
LINE
  8
0
 10
76.447425
 20
42.975438
 30
0.0
 11
72.873947
 21
42.127576
 31
0.0
  0
LINE
  8
0
 10
76.447425
 20
37.909572
 30
0.0
 11
73.632592
 21
38.577434
 31
0.0
  0
LINE
  8
0
 10
76.447425
 20
39.605295
 30
0.0
 11
72.873947
 21
38.757434
 31
0.0
  0
LINE
  8
0
 10
76.447425
 20
34.53943
 30
0.0
 11
73.632592
 21
35.207291
 31
0.0
  0
LINE
  8
0
 10
76.447425
 20
36.235153
 30
0.0
 11
72.873947
 21
35.387291
 31
0.0
  0
LINE
  8
0
 10
76.447425
 20
33.853072
 30
0.0
 11
74.426164
 21
33.782334
 31
0.0
  0
LINE
  8
0
 10
76.447425
 20
33.493072
 30
0.0
 11
74.426164
 21
33.422334
 31
0.0
  0
LINE
  8
0
 10
76.447425
 20
35.875153
 30
0.0
 11
73.632592
 21
35.207291
 31
0.0
  0
LINE
  8
0
 10
76.447425
 20
34.17943
 30
0.0
 11
72.873947
 21
35.027291
 31
0.0
  0
LINE
  8
0
 10
76.447425
 20
39.245295
 30
0.0
 11
73.632592
 21
38.577434
 31
0.0
  0
LINE
  8
0
 10
76.447425
 20
37.549572
 30
0.0
 11
72.873947
 21
38.397434
 31
0.0
  0
LINE
  8
0
 10
76.447425
 20
42.615438
 30
0.0
 11
73.632592
 21
41.947576
 31
0.0
  0
LINE
  8
0
 10
76.447425
 20
40.919715
 30
0.0
 11
72.873947
 21
41.767576
 31
0.0
  0
LINE
  8
0
 10
76.447425
 20
44.289857
 30
0.0
 11
72.873947
 21
45.137719
 31
0.0
  0
LINE
  8
0
 10
76.447425
 20
45.98558
 30
0.0
 11
73.632592
 21
45.317719
 31
0.0
  0
LINE
  8
0
 10
72.873947
 20
46.899763
 30
0.0
 11
76.447425
 21
46.899763
 31
0.0
  0
LINE
  8
0
 10
74.426164
 20
33.782334
 30
0.0
 11
74.426164
 21
33.422334
 31
0.0
  0
LINE
  8
0
 10
72.873947
 20
47.259763
 30
0.0
 11
72.873947
 21
46.899763
 31
0.0
  0
LINE
  8
0
 10
72.873947
 20
45.497719
 30
0.0
 11
72.873947
 21
45.137719
 31
0.0
  0
LINE
  8
0
 10
72.873947
 20
42.127576
 30
0.0
 11
72.873947
 21
41.767576
 31
0.0
  0
LINE
  8
0
 10
72.873947
 20
38.757434
 30
0.0
 11
72.873947
 21
38.397434
 31
0.0
  0
LINE
  8
0
 10
72.873947
 20
35.387291
 30
0.0
 11
72.873947
 21
35.027291
 31
0.0
  0
LINE
  8
0
 10
76.447425
 20
28.48836
 30
0.0
 11
80.497425
 21
28.48836
 31
0.0
  0
LINE
  8
0
 10
82.447425
 20
49.28836
 30
0.0
 11
77.547425
 21
49.28836
 31
0.0
  0
LINE
  8
0
 10
82.447425
 20
31.13836
 30
0.0
 11
76.447425
 21
31.13836
 31
0.0
  0
LINE
  8
0
  6
CENTER
 10
76.447425
 20
52.554078
 30
0.0
 11
76.447425
 21
24.869693
 31
0.0
  0
LINE
  8
0
  6
CENTER
 10
6.00475
 20
46.425559
 30
0.0
 11
6.00475
 21
37.612644
 31
0.0
  0
LINE
  8
0
 10
4.50475
 20
45.343496
 30
0.0
 11
4.50475
 21
39.643496
 31
0.0
  0
LINE
  8
0
 10
7.50475
 20
45.343496
 30
0.0
 11
7.50475
 21
39.643496
 31
0.0
  0
LINE
  8
0
 10
4.85475
 20
45.693496
 30
0.0
 11
5.80475
 21
45.693496
 31
0.0
  0
LINE
  8
0
 10
5.15475
 20
38.693496
 30
0.0
 11
5.297643
 21
38.693496
 31
0.0
  0
ARC
  8
0
 10
6.00475
 20
38.943496
 30
0.0
 40
0.75
 50
126.068131
 51
340.528779
  0
LINE
  8
0
 10
5.25475
 20
38.943496
 30
0.0
 11
5.25475
 21
44.693496
 31
0.0
  0
LINE
  8
0
 10
5.80475
 20
45.693496
 30
0.0
 11
5.80475
 21
45.193496
 31
0.0
  0
LINE
  8
0
 10
6.20475
 20
45.693496
 30
0.0
 11
6.20475
 21
45.193496
 31
0.0
  0
LINE
  8
0
 10
5.80475
 20
45.193496
 30
0.0
 11
6.20475
 21
45.193496
 31
0.0
  0
LINE
  8
0
 10
6.20475
 20
45.693496
 30
0.0
 11
7.15475
 21
45.693496
 31
0.0
  0
LINE
  8
0
 10
4.75475
 20
45.593496
 30
0.0
 11
4.75475
 21
39.393496
 31
0.0
  0
LINE
  8
0
 10
7.25475
 20
45.593496
 30
0.0
 11
7.25475
 21
39.393496
 31
0.0
  0
LINE
  8
0
 10
4.95475
 20
39.193496
 30
0.0
 11
4.95475
 21
38.893496
 31
0.0
  0
LINE
  8
0
 10
6.00475
 20
39.193496
 30
0.0
 11
7.05475
 21
39.193496
 31
0.0
  0
LINE
  8
0
 10
7.05475
 20
39.193496
 30
0.0
 11
7.05475
 21
38.893496
 31
0.0
  0
LINE
  8
0
 10
4.95475
 20
39.193496
 30
0.0
 11
4.50475
 21
39.643496
 31
0.0
  0
LINE
  8
0
 10
7.05475
 20
39.193496
 30
0.0
 11
7.50475
 21
39.643496
 31
0.0
  0
LINE
  8
0
 10
4.85475
 20
45.693496
 30
0.0
 11
4.50475
 21
45.343496
 31
0.0
  0
LINE
  8
0
 10
7.15475
 20
45.693496
 30
0.0
 11
7.50475
 21
45.343496
 31
0.0
  0
LINE
  8
0
 10
4.95475
 20
38.893496
 30
0.0
 11
5.15475
 21
38.693496
 31
0.0
  0
LINE
  8
0
 10
6.85475
 20
38.693496
 30
0.0
 11
7.05475
 21
38.893496
 31
0.0
  0
LINE
  8
0
 10
7.05475
 20
38.893496
 30
0.0
 11
6.00475
 21
38.893496
 31
0.0
  0
LINE
  8
0
 10
5.25475
 20
44.693496
 30
0.0
 11
6.00475
 21
44.693496
 31
0.0
  0
LINE
  8
0
 10
6.00475
 20
38.693496
 30
0.0
 11
6.85475
 21
38.693496
 31
0.0
  0
LINE
  8
0
 10
5.312858
 20
44.681698
 30
0.0
 11
6.00475
 21
44.681698
 31
0.0
  0
LINE
  8
0
 10
6.00475
 20
44.345364
 30
0.0
 11
5.312858
 21
44.053579
 31
0.0
  0
LINE
  8
0
 10
6.00475
 20
43.761793
 30
0.0
 11
5.431419
 21
44.003579
 31
0.0
  0
LINE
  8
0
 10
6.00475
 20
43.168433
 30
0.0
 11
5.312858
 21
42.876648
 31
0.0
  0
LINE
  8
0
 10
6.00475
 20
42.584862
 30
0.0
 11
5.431419
 21
42.826648
 31
0.0
  0
LINE
  8
0
 10
6.00475
 20
41.991502
 30
0.0
 11
5.312858
 21
41.699717
 31
0.0
  0
LINE
  8
0
 10
6.00475
 20
41.407931
 30
0.0
 11
5.431419
 21
41.649717
 31
0.0
  0
LINE
  8
0
 10
6.00475
 20
40.814571
 30
0.0
 11
5.312858
 21
40.522786
 31
0.0
  0
LINE
  8
0
 10
6.00475
 20
40.231
 30
0.0
 11
5.431419
 21
40.472786
 31
0.0
  0
LINE
  8
0
 10
5.56319
 20
39.542332
 30
0.0
 11
6.00475
 21
39.614399
 31
0.0
  0
LINE
  8
0
 10
5.56319
 20
39.643655
 30
0.0
 11
6.00475
 21
39.715722
 31
0.0
  0
LINE
  8
0
 10
6.00475
 20
40.131
 30
0.0
 11
5.312858
 21
40.422786
 31
0.0
  0
LINE
  8
0
 10
6.00475
 20
40.714571
 30
0.0
 11
5.431419
 21
40.472786
 31
0.0
  0
LINE
  8
0
 10
6.00475
 20
41.307931
 30
0.0
 11
5.312858
 21
41.599717
 31
0.0
  0
LINE
  8
0
 10
6.00475
 20
41.891502
 30
0.0
 11
5.431419
 21
41.649717
 31
0.0
  0
LINE
  8
0
 10
6.00475
 20
42.484862
 30
0.0
 11
5.312858
 21
42.776648
 31
0.0
  0
LINE
  8
0
 10
6.00475
 20
43.068433
 30
0.0
 11
5.431419
 21
42.826648
 31
0.0
  0
LINE
  8
0
 10
6.00475
 20
43.661793
 30
0.0
 11
5.312858
 21
43.953579
 31
0.0
  0
LINE
  8
0
 10
6.00475
 20
44.245364
 30
0.0
 11
5.431419
 21
44.003579
 31
0.0
  0
LINE
  8
0
 10
5.312858
 20
44.581698
 30
0.0
 11
6.00475
 21
44.581698
 31
0.0
  0
LINE
  8
0
 10
5.56319
 20
39.643655
 30
0.0
 11
5.56319
 21
39.542332
 31
0.0
  0
LINE
  8
0
 10
5.312858
 20
44.053579
 30
0.0
 11
5.312858
 21
43.953579
 31
0.0
  0
LINE
  8
0
 10
5.312858
 20
42.876648
 30
0.0
 11
5.312858
 21
42.776648
 31
0.0
  0
LINE
  8
0
 10
5.312858
 20
41.699717
 30
0.0
 11
5.312858
 21
41.599717
 31
0.0
  0
LINE
  8
0
 10
5.312858
 20
40.522786
 30
0.0
 11
5.312858
 21
40.422786
 31
0.0
  0
LINE
  8
0
 10
5.312858
 20
44.681698
 30
0.0
 11
5.312858
 21
44.581698
 31
0.0
  0
LINE
  8
0
 10
7.50475
 20
45.343496
 30
0.0
 11
6.20475
 21
45.343496
 31
0.0
  0
LINE
  8
0
 10
7.50475
 20
39.643496
 30
0.0
 11
6.00475
 21
39.643496
 31
0.0
  0
LINE
  8
0
 10
90.902073
 20
51.126136
 30
0.0
 11
90.902073
 21
31.826136
 31
0.0
  0
LINE
  8
0
 10
106.902073
 20
51.126136
 30
0.0
 11
106.902073
 21
31.826136
 31
0.0
  0
LINE
  8
0
 10
92.602073
 20
52.826136
 30
0.0
 11
97.952073
 21
52.826136
 31
0.0
  0
LINE
  8
0
 10
97.952073
 20
52.826136
 30
0.0
 11
97.952073
 21
49.826136
 31
0.0
  0
LINE
  8
0
 10
99.852073
 20
52.826136
 30
0.0
 11
99.852073
 21
49.826136
 31
0.0
  0
LINE
  8
0
 10
97.952073
 20
49.826136
 30
0.0
 11
99.852073
 21
49.826136
 31
0.0
  0
LINE
  8
0
 10
99.852073
 20
52.826136
 30
0.0
 11
105.202073
 21
52.826136
 31
0.0
  0
LINE
  8
0
 10
90.902073
 20
51.126136
 30
0.0
 11
92.602073
 21
52.826136
 31
0.0
  0
LINE
  8
0
 10
105.202073
 20
52.826136
 30
0.0
 11
106.902073
 21
51.126136
 31
0.0
  0
LINE
  8
0
  6
CENTER
 10
98.902073
 20
55.467736
 30
0.0
 11
98.902073
 21
22.939103
 31
0.0
  0
ARC
  8
0
 10
98.902073
 20
30.326136
 30
0.0
 40
5.0
 50
110.224993
 51
342.542397
  0
LINE
  8
0
 10
92.902073
 20
29.826136
 30
0.0
 11
92.902073
 21
29.126136
 31
0.0
  0
LINE
  8
0
 10
104.902073
 20
29.826136
 30
0.0
 11
104.902073
 21
29.126136
 31
0.0
  0
LINE
  8
0
 10
104.902073
 20
29.826136
 30
0.0
 11
106.902073
 21
31.826136
 31
0.0
  0
LINE
  8
0
 10
92.902073
 20
29.826136
 30
0.0
 11
90.902073
 21
31.826136
 31
0.0
  0
LINE
  8
0
 10
93.202073
 20
28.826136
 30
0.0
 11
94.132377
 21
28.826136
 31
0.0
  0
LINE
  8
0
 10
98.902073
 20
29.826136
 30
0.0
 11
104.902073
 21
29.826136
 31
0.0
  0
LINE
  8
0
 10
106.902073
 20
31.826136
 30
0.0
 11
98.902073
 21
31.826136
 31
0.0
  0
LINE
  8
0
 10
106.902073
 20
51.126136
 30
0.0
 11
99.852073
 21
51.126136
 31
0.0
  0
LINE
  8
0
 10
105.902073
 20
52.126136
 30
0.0
 11
105.902073
 21
30.826136
 31
0.0
  0
LINE
  8
0
 10
91.902073
 20
52.126136
 30
0.0
 11
91.902073
 21
30.826136
 31
0.0
  0
LINE
  8
0
 10
93.902073
 20
30.326136
 30
0.0
 11
93.902073
 21
48.826136
 31
0.0
  0
LINE
  8
0
 10
93.902073
 20
48.826136
 30
0.0
 11
98.902073
 21
48.826136
 31
0.0
  0
LINE
  8
0
 10
94.615354
 20
48.792181
 30
0.0
 11
98.902073
 21
48.792181
 31
0.0
  0
LINE
  8
0
 10
98.902073
 20
48.015829
 30
0.0
 11
94.615354
 21
47.249794
 31
0.0
  0
LINE
  8
0
 10
98.902073
 20
46.483759
 30
0.0
 11
95.594651
 21
47.074794
 31
0.0
  0
LINE
  8
0
 10
98.902073
 20
44.931056
 30
0.0
 11
94.615354
 21
44.165021
 31
0.0
  0
LINE
  8
0
 10
98.902073
 20
43.398986
 30
0.0
 11
95.594651
 21
43.990021
 31
0.0
  0
LINE
  8
0
 10
98.902073
 20
41.846283
 30
0.0
 11
94.615354
 21
41.080248
 31
0.0
  0
LINE
  8
0
 10
98.902073
 20
40.314213
 30
0.0
 11
95.594651
 21
40.905248
 31
0.0
  0
LINE
  8
0
 10
98.902073
 20
38.76151
 30
0.0
 11
94.615354
 21
37.995475
 31
0.0
  0
LINE
  8
0
 10
98.902073
 20
37.22944
 30
0.0
 11
95.594651
 21
37.820475
 31
0.0
  0
LINE
  8
0
 10
94.615354
 20
48.442181
 30
0.0
 11
98.902073
 21
48.442181
 31
0.0
  0
LINE
  8
0
 10
98.902073
 20
47.665829
 30
0.0
 11
95.594651
 21
47.074794
 31
0.0
  0
LINE
  8
0
 10
98.902073
 20
46.133759
 30
0.0
 11
94.615354
 21
46.899794
 31
0.0
  0
LINE
  8
0
 10
98.902073
 20
44.581056
 30
0.0
 11
95.594651
 21
43.990021
 31
0.0
  0
LINE
  8
0
 10
98.902073
 20
43.048986
 30
0.0
 11
94.615354
 21
43.815021
 31
0.0
  0
LINE
  8
0
 10
98.902073
 20
41.496283
 30
0.0
 11
95.594651
 21
40.905248
 31
0.0
  0
LINE
  8
0
 10
98.902073
 20
39.964213
 30
0.0
 11
94.615354
 21
40.730248
 31
0.0
  0
LINE
  8
0
 10
98.902073
 20
38.41151
 30
0.0
 11
95.594651
 21
37.820475
 31
0.0
  0
LINE
  8
0
 10
98.902073
 20
36.87944
 30
0.0
 11
94.615354
 21
37.645475
 31
0.0
  0
LINE
  8
0
 10
98.902073
 20
35.676737
 30
0.0
 11
96.880662
 21
35.315512
 31
0.0
  0
LINE
  8
0
 10
98.902073
 20
35.326737
 30
0.0
 11
96.941272
 21
34.976342
 31
0.0
  0
LINE
  8
0
 10
94.615354
 20
48.792181
 30
0.0
 11
94.615354
 21
48.442181
 31
0.0
  0
LINE
  8
0
 10
94.615354
 20
47.249794
 30
0.0
 11
94.615354
 21
46.899794
 31
0.0
  0
LINE
  8
0
 10
94.615354
 20
44.165021
 30
0.0
 11
94.615354
 21
43.815021
 31
0.0
  0
LINE
  8
0
 10
94.615354
 20
41.080248
 30
0.0
 11
94.615354
 21
40.730248
 31
0.0
  0
LINE
  8
0
 10
94.615354
 20
37.995475
 30
0.0
 11
94.615354
 21
37.645475
 31
0.0
  0
LINE
  8
0
 10
96.880662
 20
35.315512
 30
0.0
 11
96.941272
 21
34.976342
 31
0.0
  0
ARC
  8
0
 10
98.902073
 20
30.326136
 30
0.0
 40
5.0
 50
90.0
 51
90.038587
  0
LINE
  8
0
 10
98.902073
 20
29.126136
 30
0.0
 11
104.902073
 21
29.126136
 31
0.0
  0
LINE
  8
0
 10
104.902073
 20
29.126136
 30
0.0
 11
104.602073
 21
28.826136
 31
0.0
  0
LINE
  8
0
 10
92.902073
 20
29.126136
 30
0.0
 11
93.202073
 21
28.826136
 31
0.0
  0
LINE
  8
0
 10
98.902073
 20
28.826136
 30
0.0
 11
104.602073
 21
28.826136
 31
0.0
  0
ARC
  8
0
 10
77.130922
 20
25.799097
 30
0.0
 40
5.0
 50
90.0
 51
90.038587
  0
LINE
  8
0
 10
116.07575
 20
50.299091
 30
0.0
 11
116.07575
 21
27.599091
 31
0.0
  0
LINE
  8
0
 10
136.07575
 20
50.299091
 30
0.0
 11
136.07575
 21
27.599091
 31
0.0
  0
LINE
  8
0
 10
119.07575
 20
53.299091
 30
0.0
 11
124.82575
 21
53.299091
 31
0.0
  0
LINE
  8
0
 10
119.37575
 20
23.299091
 30
0.0
 11
120.266275
 21
23.299091
 31
0.0
  0
LINE
  8
0
  6
CENTER
 10
126.07575
 20
57.25441
 30
0.0
 11
126.07575
 21
14.112128
 31
0.0
  0
LINE
  8
0
 10
124.82575
 20
53.299091
 30
0.0
 11
124.82575
 21
49.599091
 31
0.0
  0
LINE
  8
0
 10
127.32575
 20
53.299091
 30
0.0
 11
127.32575
 21
49.599091
 31
0.0
  0
LINE
  8
0
 10
124.82575
 20
49.599091
 30
0.0
 11
127.32575
 21
49.599091
 31
0.0
  0
LINE
  8
0
 10
127.32575
 20
53.299091
 30
0.0
 11
133.07575
 21
53.299091
 31
0.0
  0
ARC
  8
0
 10
126.07575
 20
24.799091
 30
0.0
 40
6.0
 50
117.241831
 51
345.522488
  0
LINE
  8
0
 10
118.57575
 20
25.099091
 30
0.0
 11
118.57575
 21
24.099091
 31
0.0
  0
LINE
  8
0
 10
133.57575
 20
25.099091
 30
0.0
 11
133.57575
 21
24.099091
 31
0.0
  0
LINE
  8
0
 10
133.57575
 20
25.099091
 30
0.0
 11
136.07575
 21
27.599091
 31
0.0
  0
LINE
  8
0
 10
118.57575
 20
25.099091
 30
0.0
 11
116.07575
 21
27.599091
 31
0.0
  0
LINE
  8
0
 10
126.07575
 20
25.099091
 30
0.0
 11
133.57575
 21
25.099091
 31
0.0
  0
LINE
  8
0
 10
126.07575
 20
23.299091
 30
0.0
 11
132.77575
 21
23.299091
 31
0.0
  0
LINE
  8
0
 10
132.77575
 20
23.299091
 30
0.0
 11
133.57575
 21
24.099091
 31
0.0
  0
LINE
  8
0
 10
119.37575
 20
23.299091
 30
0.0
 11
118.57575
 21
24.099091
 31
0.0
  0
LINE
  8
0
 10
133.57575
 20
24.099091
 30
0.0
 11
126.07575
 21
24.099091
 31
0.0
  0
LINE
  8
0
 10
136.07575
 20
27.599091
 30
0.0
 11
126.07575
 21
27.599091
 31
0.0
  0
LINE
  8
0
 10
133.07575
 20
53.299091
 30
0.0
 11
136.07575
 21
50.299091
 31
0.0
  0
LINE
  8
0
 10
119.07575
 20
53.299091
 30
0.0
 11
116.07575
 21
50.299091
 31
0.0
  0
LINE
  8
0
 10
136.07575
 20
50.299091
 30
0.0
 11
127.32575
 21
50.299091
 31
0.0
  0
LINE
  8
0
 10
134.82575
 20
51.549091
 30
0.0
 11
134.82575
 21
26.349091
 31
0.0
  0
LINE
  8
0
 10
117.32575
 20
51.549091
 30
0.0
 11
117.32575
 21
26.349091
 31
0.0
  0
LINE
  8
0
 10
120.07575
 20
24.799091
 30
0.0
 11
120.07575
 21
48.099091
 31
0.0
  0
LINE
  8
0
 10
120.07575
 20
48.099091
 30
0.0
 11
126.07575
 21
48.099091
 31
0.0
  0
LINE
  8
0
 10
121.043601
 20
48.000046
 30
0.0
 11
126.07575
 21
48.000046
 31
0.0
  0
LINE
  8
0
 10
126.07575
 20
46.934033
 30
0.0
 11
121.062648
 21
45.924094
 31
0.0
  0
LINE
  8
0
 10
126.07575
 20
44.914155
 30
0.0
 11
122.055402
 21
45.724094
 31
0.0
  0
LINE
  8
0
 10
126.07575
 20
40.76225
 30
0.0
 11
122.055402
 21
41.572189
 31
0.0
  0
LINE
  8
0
 10
126.07575
 20
42.782128
 30
0.0
 11
121.062648
 21
41.772189
 31
0.0
  0
LINE
  8
0
 10
126.07575
 20
36.610346
 30
0.0
 11
122.055402
 21
37.420285
 31
0.0
  0
LINE
  8
0
 10
126.07575
 20
38.630224
 30
0.0
 11
121.062648
 21
37.620285
 31
0.0
  0
LINE
  8
0
 10
126.07575
 20
32.458441
 30
0.0
 11
122.055402
 21
33.26838
 31
0.0
  0
LINE
  8
0
 10
126.07575
 20
34.478319
 30
0.0
 11
121.062648
 21
33.46838
 31
0.0
  0
LINE
  8
0
 10
126.07575
 20
30.778076
 30
0.0
 11
123.329267
 21
30.459202
 31
0.0
  0
LINE
  8
0
 10
126.07575
 20
30.378076
 30
0.0
 11
123.329267
 21
30.059202
 31
0.0
  0
LINE
  8
0
 10
126.07575
 20
34.078319
 30
0.0
 11
122.055402
 21
33.26838
 31
0.0
  0
LINE
  8
0
 10
126.07575
 20
32.058441
 30
0.0
 11
121.062648
 21
33.06838
 31
0.0
  0
LINE
  8
0
 10
126.07575
 20
38.230224
 30
0.0
 11
122.055402
 21
37.420285
 31
0.0
  0
LINE
  8
0
 10
126.07575
 20
36.210346
 30
0.0
 11
121.062648
 21
37.220285
 31
0.0
  0
LINE
  8
0
 10
126.07575
 20
42.382128
 30
0.0
 11
122.055402
 21
41.572189
 31
0.0
  0
LINE
  8
0
 10
126.07575
 20
40.36225
 30
0.0
 11
121.062648
 21
41.372189
 31
0.0
  0
LINE
  8
0
 10
126.07575
 20
44.514155
 30
0.0
 11
121.062648
 21
45.524094
 31
0.0
  0
LINE
  8
0
 10
126.07575
 20
46.534033
 30
0.0
 11
122.055402
 21
45.724094
 31
0.0
  0
LINE
  8
0
 10
121.043601
 20
47.600046
 30
0.0
 11
126.07575
 21
47.600046
 31
0.0
  0
LINE
  8
0
 10
121.043601
 20
48.000046
 30
0.0
 11
121.043601
 21
47.600046
 31
0.0
  0
LINE
  8
0
 10
121.062648
 20
45.924094
 30
0.0
 11
121.062648
 21
45.524094
 31
0.0
  0
LINE
  8
0
 10
121.062648
 20
41.772189
 30
0.0
 11
121.062648
 21
41.372189
 31
0.0
  0
LINE
  8
0
 10
121.062648
 20
37.620285
 30
0.0
 11
121.062648
 21
37.220285
 31
0.0
  0
LINE
  8
0
 10
121.062648
 20
33.46838
 30
0.0
 11
121.062648
 21
33.06838
 31
0.0
  0
LINE
  8
0
 10
123.329267
 20
30.059202
 30
0.0
 11
123.329267
 21
30.459202
 31
0.0
  0
LINE
  8
0
 10
144.25893
 20
53.551478
 30
0.0
 11
144.25893
 21
27.251478
 31
0.0
  0
LINE
  8
0
 10
168.25893
 20
53.551478
 30
0.0
 11
168.25893
 21
27.251478
 31
0.0
  0
LINE
  8
0
 10
168.25893
 20
53.551478
 30
0.0
 11
168.25893
 21
27.251478
 31
0.0
  0
LINE
  8
0
 10
146.85893
 20
56.151478
 30
0.0
 11
154.75893
 21
56.151478
 31
0.0
  0
LINE
  8
0
 10
148.15893
 20
22.151478
 30
0.0
 11
149.030514
 21
22.151478
 31
0.0
  0
LINE
  8
0
  6
CENTER
 10
156.25893
 20
59.685304
 30
0.0
 11
156.25893
 21
13.055199
 31
0.0
  0
LINE
  8
0
 10
154.75893
 20
56.151478
 30
0.0
 11
154.75893
 21
51.151478
 31
0.0
  0
LINE
  8
0
 10
157.75893
 20
56.151478
 30
0.0
 11
157.75893
 21
51.151478
 31
0.0
  0
LINE
  8
0
 10
154.75893
 20
51.151478
 30
0.0
 11
157.75893
 21
51.151478
 31
0.0
  0
LINE
  8
0
 10
157.75893
 20
56.151478
 30
0.0
 11
165.65893
 21
56.151478
 31
0.0
  0
ARC
  8
0
 10
156.25893
 20
24.151478
 30
0.0
 40
7.5
 50
118.117026
 51
344.53399
  0
LINE
  8
0
 10
156.25893
 20
24.151478
 30
0.0
 11
165.15893
 21
24.151478
 31
0.0
  0
LINE
  8
0
 10
165.15893
 20
24.151478
 30
0.0
 11
165.15893
 21
22.951478
 31
0.0
  0
LINE
  8
0
 10
147.35893
 20
24.151478
 30
0.0
 11
147.35893
 21
22.951478
 31
0.0
  0
LINE
  8
0
 10
165.15893
 20
24.151478
 30
0.0
 11
168.25893
 21
27.251478
 31
0.0
  0
LINE
  8
0
 10
147.35893
 20
24.151478
 30
0.0
 11
144.25893
 21
27.251478
 31
0.0
  0
LINE
  8
0
 10
156.25893
 20
22.151478
 30
0.0
 11
164.35893
 21
22.151478
 31
0.0
  0
LINE
  8
0
 10
164.35893
 20
22.151478
 30
0.0
 11
165.15893
 21
22.951478
 31
0.0
  0
LINE
  8
0
 10
147.35893
 20
22.951478
 30
0.0
 11
148.15893
 21
22.151478
 31
0.0
  0
LINE
  8
0
 10
165.15893
 20
22.951478
 30
0.0
 11
156.25893
 21
22.951478
 31
0.0
  0
LINE
  8
0
 10
165.65893
 20
56.151478
 30
0.0
 11
168.25893
 21
53.551478
 31
0.0
  0
LINE
  8
0
 10
144.25893
 20
53.551478
 30
0.0
 11
146.85893
 21
56.151478
 31
0.0
  0
LINE
  8
0
 10
148.75893
 20
49.651478
 30
0.0
 11
156.25893
 21
49.651478
 31
0.0
  0
LINE
  8
0
 10
148.75893
 20
24.151478
 30
0.0
 11
148.75893
 21
49.651478
 31
0.0
  0
LINE
  8
0
 10
166.35893
 20
55.451478
 30
0.0
 11
166.35893
 21
25.351478
 31
0.0
  0
LINE
  8
0
 10
146.15893
 20
55.451478
 30
0.0
 11
146.15893
 21
25.351478
 31
0.0
  0
LINE
  8
0
 10
168.25893
 20
27.251478
 30
0.0
 11
156.25893
 21
27.251478
 31
0.0
  0
LINE
  8
0
 10
168.25893
 20
53.551478
 30
0.0
 11
157.75893
 21
53.551478
 31
0.0
  0
LINE
  8
0
 10
149.219005
 20
49.49587
 30
0.0
 11
156.25893
 21
49.49587
 31
0.0
  0
LINE
  8
0
 10
156.25893
 20
48.455056
 30
0.0
 11
149.193824
 21
47.456577
 31
0.0
  0
LINE
  8
0
 10
156.25893
 20
46.458098
 30
0.0
 11
150.608997
 21
47.256577
 31
0.0
  0
LINE
  8
0
 10
156.25893
 20
42.379512
 30
0.0
 11
150.608997
 21
43.177991
 31
0.0
  0
LINE
  8
0
 10
156.25893
 20
44.37647
 30
0.0
 11
149.193824
 21
43.377991
 31
0.0
  0
LINE
  8
0
 10
156.25893
 20
38.300925
 30
0.0
 11
150.608997
 21
39.099405
 31
0.0
  0
LINE
  8
0
 10
156.25893
 20
40.297884
 30
0.0
 11
149.193824
 21
39.299405
 31
0.0
  0
LINE
  8
0
 10
156.25893
 20
34.222339
 30
0.0
 11
150.608997
 21
35.020818
 31
0.0
  0
LINE
  8
0
 10
156.25893
 20
36.219298
 30
0.0
 11
149.193824
 21
35.220818
 31
0.0
  0
LINE
  8
0
 10
156.25893
 20
31.707519
 30
0.0
 11
152.666553
 21
31.119832
 31
0.0
  0
LINE
  8
0
 10
156.25893
 20
31.307519
 30
0.0
 11
152.730284
 21
30.730258
 31
0.0
  0
LINE
  8
0
 10
156.25893
 20
35.819298
 30
0.0
 11
150.608997
 21
35.020818
 31
0.0
  0
LINE
  8
0
 10
156.25893
 20
33.822339
 30
0.0
 11
149.193824
 21
34.820818
 31
0.0
  0
LINE
  8
0
 10
156.25893
 20
39.897884
 30
0.0
 11
150.608997
 21
39.099405
 31
0.0
  0
LINE
  8
0
 10
156.25893
 20
37.900925
 30
0.0
 11
149.193824
 21
38.899405
 31
0.0
  0
LINE
  8
0
 10
156.25893
 20
43.97647
 30
0.0
 11
150.608997
 21
43.177991
 31
0.0
  0
LINE
  8
0
 10
156.25893
 20
41.979512
 30
0.0
 11
149.193824
 21
42.977991
 31
0.0
  0
LINE
  8
0
 10
156.25893
 20
46.058098
 30
0.0
 11
149.193824
 21
47.056577
 31
0.0
  0
LINE
  8
0
 10
156.25893
 20
48.055056
 30
0.0
 11
150.608997
 21
47.256577
 31
0.0
  0
LINE
  8
0
 10
149.219005
 20
49.09587
 30
0.0
 11
156.25893
 21
49.09587
 31
0.0
  0
LINE
  8
0
 10
149.219005
 20
49.49587
 30
0.0
 11
149.219005
 21
49.09587
 31
0.0
  0
LINE
  8
0
 10
149.193824
 20
47.456577
 30
0.0
 11
149.193824
 21
47.056577
 31
0.0
  0
LINE
  8
0
 10
149.193824
 20
43.377991
 30
0.0
 11
149.193824
 21
42.977991
 31
0.0
  0
LINE
  8
0
 10
149.193824
 20
39.299405
 30
0.0
 11
149.193824
 21
38.899405
 31
0.0
  0
LINE
  8
0
 10
149.193824
 20
35.220818
 30
0.0
 11
149.193824
 21
34.820818
 31
0.0
  0
LINE
  8
0
 10
152.666553
 20
31.119832
 30
0.0
 11
152.730284
 21
30.730258
 31
0.0
  0
CIRCLE
  8
0
 10
6.00475
 20
33.864494
 30
0.0
 40
1.5
  0
ARC
  8
0
 10
6.00475
 20
33.864494
 30
0.0
 40
1.25
 50
279.206896
 51
80.793104
  0
LINE
  8
0
 10
5.80475
 20
32.377887
 30
0.0
 11
5.80475
 21
35.351101
 31
0.0
  0
LINE
  8
0
 10
6.20475
 20
32.377887
 30
0.0
 11
6.20475
 21
35.351101
 31
0.0
  0
ARC
  8
0
 10
6.00475
 20
33.864494
 30
0.0
 40
1.25
 50
99.206896
 51
260.793104
  0
CIRCLE
  8
0
 10
11.941376
 20
31.416592
 30
0.0
 40
2.0
  0
ARC
  8
0
 10
11.941376
 20
31.416592
 30
0.0
 40
1.65
 50
280.475682
 51
79.524318
  0
LINE
  8
0
 10
11.641376
 20
29.43922
 30
0.0
 11
11.641376
 21
33.393964
 31
0.0
  0
LINE
  8
0
 10
12.241376
 20
29.43922
 30
0.0
 11
12.241376
 21
33.393964
 31
0.0
  0
ARC
  8
0
 10
11.941376
 20
31.416592
 30
0.0
 40
1.65
 50
100.475682
 51
259.524318
  0
CIRCLE
  8
0
 10
20.493883
 20
28.938346
 30
0.0
 40
2.5
  0
ARC
  8
0
 10
20.493883
 20
28.938346
 30
0.0
 40
2.1
 50
280.980575
 51
79.019425
  0
LINE
  8
0
 10
20.093883
 20
26.470553
 30
0.0
 11
20.093883
 21
31.406138
 31
0.0
  0
LINE
  8
0
 10
20.893883
 20
26.470553
 30
0.0
 11
20.893883
 21
31.406138
 31
0.0
  0
ARC
  8
0
 10
20.493883
 20
28.938346
 30
0.0
 40
2.1
 50
100.980575
 51
259.019425
  0
CIRCLE
  8
0
 10
31.050872
 20
25.783084
 30
0.0
 40
3.0
  0
ARC
  8
0
 10
31.050872
 20
25.783084
 30
0.0
 40
2.5
 50
282.709033
 51
77.290967
  0
LINE
  8
0
 10
30.500872
 20
22.833932
 30
0.0
 11
30.500872
 21
28.732237
 31
0.0
  0
LINE
  8
0
 10
31.600872
 20
22.833932
 30
0.0
 11
31.600872
 21
28.732237
 31
0.0
  0
ARC
  8
0
 10
31.050872
 20
25.783084
 30
0.0
 40
2.5
 50
102.709033
 51
257.290967
  0
CIRCLE
  8
0
 10
42.921828
 20
21.549978
 30
0.0
 40
4.0
  0
ARC
  8
0
 10
42.921828
 20
21.549978
 30
0.0
 40
3.4
 50
281.02145
 51
78.97855
  0
LINE
  8
0
 10
42.271828
 20
17.603144
 30
0.0
 11
42.271828
 21
25.496813
 31
0.0
  0
LINE
  8
0
 10
43.571828
 20
17.603144
 30
0.0
 11
43.571828
 21
25.496813
 31
0.0
  0
ARC
  8
0
 10
42.921828
 20
21.549978
 30
0.0
 40
3.4
 50
101.02145
 51
258.97855
  0
CIRCLE
  8
0
 10
58.356124
 20
17.556841
 30
0.0
 40
5.0
  0
ARC
  8
0
 10
58.356124
 20
17.556841
 30
0.0
 40
4.25
 50
280.164249
 51
79.835751
  0
LINE
  8
0
 10
57.606124
 20
12.613411
 30
0.0
 11
57.606124
 21
22.500271
 31
0.0
  0
LINE
  8
0
 10
59.106124
 20
12.613411
 30
0.0
 11
59.106124
 21
22.500271
 31
0.0
  0
ARC
  8
0
 10
58.356124
 20
17.556841
 30
0.0
 40
4.25
 50
100.164249
 51
259.835751
  0
CIRCLE
  8
0
 10
76.447425
 20
13.895391
 30
0.0
 40
6.0
  0
ARC
  8
0
 10
76.447425
 20
13.895391
 30
0.0
 40
5.1
 50
282.455793
 51
77.544207
  0
LINE
  8
0
 10
75.347425
 20
7.997086
 30
0.0
 11
75.347425
 21
19.793696
 31
0.0
  0
LINE
  8
0
 10
77.547425
 20
7.997086
 30
0.0
 11
77.547425
 21
19.793696
 31
0.0
  0
ARC
  8
0
 10
76.447425
 20
13.895391
 30
0.0
 40
5.1
 50
102.455793
 51
257.544207
  0
CIRCLE
  8
0
 10
98.902073
 20
9.483166
 30
0.0
 40
8.0
  0
ARC
  8
0
 10
98.902073
 20
9.483166
 30
0.0
 40
7.0
 50
277.799926
 51
82.200074
  0
LINE
  8
0
 10
97.952073
 20
1.539772
 30
0.0
 11
97.952073
 21
17.426559
 31
0.0
  0
LINE
  8
0
 10
99.852073
 20
1.539772
 30
0.0
 11
99.852073
 21
17.426559
 31
0.0
  0
ARC
  8
0
 10
98.902073
 20
9.483166
 30
0.0
 40
7.0
 50
97.799926
 51
262.200074
  0
CIRCLE
  8
0
 10
126.07575
 20
0.32033
 30
0.0
 40
10.0
  0
ARC
  8
0
 10
126.07575
 20
0.32033
 30
0.0
 40
8.75
 50
278.213211
 51
81.786789
  0
LINE
  8
0
 10
124.82575
 20
-9.601237
 30
0.0
 11
124.82575
 21
10.241898
 31
0.0
  0
LINE
  8
0
 10
127.32575
 20
-9.601237
 30
0.0
 11
127.32575
 21
10.241898
 31
0.0
  0
ARC
  8
0
 10
126.07575
 20
0.32033
 30
0.0
 40
8.75
 50
98.213211
 51
261.786789
  0
CIRCLE
  8
0
 10
156.25893
 20
-5.869811
 30
0.0
 40
12.0
  0
ARC
  8
0
 10
156.25893
 20
-5.869811
 30
0.0
 40
10.1
 50
278.54087
 51
81.45913
  0
LINE
  8
0
 10
154.75893
 20
-17.775692
 30
0.0
 11
154.75893
 21
6.03607
 31
0.0
  0
LINE
  8
0
 10
157.75893
 20
-17.775692
 30
0.0
 11
157.75893
 21
6.03607
 31
0.0
  0
ARC
  8
0
 10
156.25893
 20
-5.869811
 30
0.0
 40
10.1
 50
98.54087
 51
261.45913
  0
INSERT
  8
0
  2
*X0
 10
0.0
 20
0.0
 30
0.0
1001
ACAD
1000
HATCH
1002
{
1070
    16
1000
ANSI31
1040
3.0
1040
0.0
1002
}
  0
INSERT
  8
0
  2
*X1
 10
0.0
 20
0.0
 30
0.0
1001
ACAD
1000
HATCH
1002
{
1070
    16
1000
ANSI31
1040
5.0
1040
0.0
1002
}
  0
INSERT
  8
0
  2
*X2
 10
0.325704
 20
0.0
 30
0.0
1001
ACAD
1000
HATCH
1002
{
1070
    16
1000
ANSI31
1040
5.0
1040
0.0
1002
}
  0
INSERT
  8
0
  2
*X3
 10
0.0
 20
0.0
 30
0.0
1001
ACAD
1000
HATCH
1002
{
1070
    16
1000
ANSI31
1040
5.0
1040
0.0
1002
}
  0
INSERT
  8
0
  2
*X4
 10
0.977114
 20
0.0
 30
0.0
1001
ACAD
1000
HATCH
1002
{
1070
    16
1000
ANSI31
1040
8.0
1040
0.0
1002
}
  0
INSERT
  8
0
  2
*X5
 10
0.0
 20
0.0
 30
0.0
1001
ACAD
1000
HATCH
1002
{
1070
    16
1000
ANSI31
1040
8.0
1040
0.0
1002
}
  0
INSERT
  8
0
  2
*X6
 10
0.0
 20
0.0
 30
0.0
1001
ACAD
1000
HATCH
1002
{
1070
    16
1000
ANSI31
1040
10.0
1040
0.0
1002
}
  0
INSERT
  8
0
  2
*X7
 10
0.0
 20
0.0
 30
0.0
1001
ACAD
1000
HATCH
1002
{
1070
    16
1000
ANSI31
1040
10.0
1040
0.0
1002
}
  0
INSERT
  8
0
  2
*X8
 10
0.0
 20
0.0
 30
0.0
1001
ACAD
1000
HATCH
1002
{
1070
    16
1000
ANSI31
1040
3.0
1040
0.0
1002
}
  0
INSERT
  8
0
  2
*X9
 10
0.0
 20
0.0
 30
0.0
1001
ACAD
1000
HATCH
1002
{
1070
    16
1000
ANSI31
1040
5.0
1040
0.0
1002
}
  0
ENDSEC
  0
EOF
