  0
SECTION
  2
HEADER
  9
$ACADVER
  1
AC1009
  9
$INSBASE
 10
0.0
 20
0.0
 30
0.0
  9
$EXTMIN
 10
8.804156
 20
-21.854974
 30
0.0
  9
$EXTMAX
 10
168.983368
 20
58.323617
 30
0.0
  9
$LIMMIN
 10
0.0
 20
0.0
  9
$LIMMAX
 10
12.0
 20
9.0
  9
$ORTHOMODE
 70
     1
  9
$REGENMODE
 70
     1
  9
$FILLMODE
 70
     1
  9
$QTEXTMODE
 70
     0
  9
$MIRRTEXT
 70
     1
  9
$DRAGMODE
 70
     2
  9
$LTSCALE
 40
5.0
  9
$OSMODE
 70
     0
  9
$ATTMODE
 70
     1
  9
$TEXTSIZE
 40
0.2
  9
$TRACEWID
 40
0.05
  9
$TEXTSTYLE
  7
STANDARD
  9
$CLAYER
  8
0
  9
$CELTYPE
  6
BYLAYER
  9
$CECOLOR
 62
   256
  9
$DIMSCALE
 40
1.0
  9
$DIMASZ
 40
2.5
  9
$DIMEXO
 40
0.0
  9
$DIMDLI
 40
5.0
  9
$DIMRND
 40
0.0
  9
$DIMDLE
 40
0.0
  9
$DIMEXE
 40
1.0
  9
$DIMTP
 40
0.0
  9
$DIMTM
 40
0.0
  9
$DIMTXT
 40
2.5
  9
$DIMCEN
 40
0.09
  9
$DIMTSZ
 40
0.0
  9
$DIMTOL
 70
     0
  9
$DIMLIM
 70
     0
  9
$DIMTIH
 70
     0
  9
$DIMTOH
 70
     0
  9
$DIMSE1
 70
     0
  9
$DIMSE2
 70
     0
  9
$DIMTAD
 70
     1
  9
$DIMZIN
 70
     0
  9
$DIMBLK
  1

  9
$DIMASO
 70
     0
  9
$DIMSHO
 70
     0
  9
$DIMPOST
  1

  9
$DIMAPOST
  1

  9
$DIMALT
 70
     0
  9
$DIMALTD
 70
     2
  9
$DIMALTF
 40
25.4
  9
$DIMLFAC
 40
1.0
  9
$DIMTOFL
 70
     1
  9
$DIMTVP
 40
0.0
  9
$DIMTIX
 70
     0
  9
$DIMSOXD
 70
     0
  9
$DIMSAH
 70
     0
  9
$DIMBLK1
  1

  9
$DIMBLK2
  1

  9
$DIMSTYLE
  2
*UNNAMED
  9
$DIMCLRD
 70
     0
  9
$DIMCLRE
 70
     0
  9
$DIMCLRT
 70
     0
  9
$DIMTFAC
 40
1.0
  9
$DIMGAP
 40
0.09
  9
$LUNITS
 70
     2
  9
$LUPREC
 70
     4
  9
$SKETCHINC
 40
0.1
  9
$FILLETRAD
 40
0.4
  9
$AUNITS
 70
     0
  9
$AUPREC
 70
     0
  9
$MENU
  1
wiberger
  9
$ELEVATION
 40
0.0
  9
$PELEVATION
 40
0.0
  9
$THICKNESS
 40
0.0
  9
$LIMCHECK
 70
     0
  9
$BLIPMODE
 70
     1
  9
$CHAMFERA
 40
2.6
  9
$CHAMFERB
 40
2.6
  9
$SKPOLY
 70
     0
  9
$TDCREATE
 40
2450210.544894560
  9
$TDUPDATE
 40
2450210.611882060
  9
$TDINDWG
 40
0.0006714120
  9
$TDUSRTIMER
 40
0.0006714120
  9
$USRTIMER
 70
     1
  9
$ANGBASE
 50
0.0
  9
$ANGDIR
 70
     0
  9
$PDMODE
 70
     0
  9
$PDSIZE
 40
0.0
  9
$PLINEWID
 40
0.0
  9
$COORDS
 70
     0
  9
$SPLFRAME
 70
     0
  9
$SPLINETYPE
 70
     6
  9
$SPLINESEGS
 70
     8
  9
$ATTDIA
 70
     0
  9
$ATTREQ
 70
     1
  9
$HANDLING
 70
     0
  9
$HANDSEED
  5
0
  9
$SURFTAB1
 70
     6
  9
$SURFTAB2
 70
     6
  9
$SURFTYPE
 70
     6
  9
$SURFU
 70
     6
  9
$SURFV
 70
     6
  9
$UCSNAME
  2

  9
$UCSORG
 10
0.0
 20
0.0
 30
0.0
  9
$UCSXDIR
 10
1.0
 20
0.0
 30
0.0
  9
$UCSYDIR
 10
0.0
 20
1.0
 30
0.0
  9
$PUCSNAME
  2

  9
$PUCSORG
 10
0.0
 20
0.0
 30
0.0
  9
$PUCSXDIR
 10
1.0
 20
0.0
 30
0.0
  9
$PUCSYDIR
 10
0.0
 20
1.0
 30
0.0
  9
$USERI1
 70
     0
  9
$USERI2
 70
     0
  9
$USERI3
 70
     0
  9
$USERI4
 70
     0
  9
$USERI5
 70
     0
  9
$USERR1
 40
0.0
  9
$USERR2
 40
0.0
  9
$USERR3
 40
0.0
  9
$USERR4
 40
0.0
  9
$USERR5
 40
0.0
  9
$WORLDVIEW
 70
     1
  9
$SHADEDGE
 70
     3
  9
$SHADEDIF
 70
    70
  9
$TILEMODE
 70
     1
  9
$MAXACTVP
 70
    16
  9
$PINSBASE
 10
0.0
 20
0.0
 30
0.0
  9
$PLIMCHECK
 70
     0
  9
$PEXTMIN
 10
1.000000E+20
 20
1.000000E+20
 30
1.000000E+20
  9
$PEXTMAX
 10
-1.000000E+20
 20
-1.000000E+20
 30
-1.000000E+20
  9
$PLIMMIN
 10
0.0
 20
0.0
  9
$PLIMMAX
 10
12.0
 20
9.0
  9
$UNITMODE
 70
     0
  9
$VISRETAIN
 70
     0
  9
$PLINEGEN
 70
     0
  9
$PSLTSCALE
 70
     0
  9
$TREEDEPTH
 70
  3020
  9
$DWGCODEPAGE
  3
undefined
  0
ENDSEC
  0
SECTION
  2
TABLES
  0
TABLE
  2
VPORT
 70
     2
  0
VPORT
  2
*ACTIVE
 70
     0
 10
0.0
 20
0.0
 11
1.0
 21
1.0
 12
120.024371
 22
27.602902
 13
0.0
 23
0.0
 14
1.0
 24
1.0
 15
0.0
 25
0.0
 16
0.0
 26
0.0
 36
1.0
 17
0.0
 27
0.0
 37
0.0
 40
135.330872
 41
1.767507
 42
50.0
 43
0.0
 44
0.0
 50
0.0
 51
0.0
 71
     0
 72
   100
 73
     1
 74
     0
 75
     0
 76
     0
 77
     0
 78
     0
  0
ENDTAB
  0
TABLE
  2
LTYPE
 70
     2
  0
LTYPE
  2
CONTINUOUS
 70
    64
  3
Solid line
 72
    65
 73
     0
 40
0.0
  0
LTYPE
  2
CENTER
 70
    64
  3
____ _ ____ _ ____ _ ____ _ ____ _ ____ _ ____
 72
    65
 73
     4
 40
2.0
 49
1.25
 49
-0.25
 49
0.25
 49
-0.25
  0
ENDTAB
  0
TABLE
  2
LAYER
 70
     1
  0
LAYER
  2
0
 70
    64
 62
     7
  6
CONTINUOUS
  0
ENDTAB
  0
TABLE
  2
STYLE
 70
     1
  0
STYLE
  2
STANDARD
 70
     0
 40
0.0
 41
1.0
 50
0.0
 71
     0
 42
0.2
  3
txt
  4

  0
ENDTAB
  0
TABLE
  2
VIEW
 70
     0
  0
ENDTAB
  0
TABLE
  2
UCS
 70
     0
  0
ENDTAB
  0
TABLE
  2
APPID
 70
     1
  0
APPID
  2
ACAD
 70
    64
  0
ENDTAB
  0
TABLE
  2
DIMSTYLE
 70
     0
  0
ENDTAB
  0
ENDSEC
  0
SECTION
  2
BLOCKS
  0
BLOCK
  8
0
  2
*X0
 70
    65
 10
0.0
 20
0.0
 30
0.0
  3
*X
  0
LINE
  8
0
 62
     0
 10
9.941376
 20
23.729958
 30
0.0
 11
10.691376
 21
24.479958
 31
0.0
  0
LINE
  8
0
 62
     0
 10
9.941376
 20
24.260288
 30
0.0
 11
10.691376
 21
25.010288
 31
0.0
  0
LINE
  8
0
 62
     0
 10
9.941376
 20
24.790618
 30
0.0
 11
10.691376
 21
25.540618
 31
0.0
  0
LINE
  8
0
 62
     0
 10
9.941376
 20
25.320948
 30
0.0
 11
10.691376
 21
26.070948
 31
0.0
  0
LINE
  8
0
 62
     0
 10
9.941376
 20
25.851278
 30
0.0
 11
10.691376
 21
26.601278
 31
0.0
  0
LINE
  8
0
 62
     0
 10
9.941376
 20
26.381608
 30
0.0
 11
10.691376
 21
27.131608
 31
0.0
  0
LINE
  8
0
 62
     0
 10
9.941376
 20
26.911938
 30
0.0
 11
10.691376
 21
27.661938
 31
0.0
  0
LINE
  8
0
 62
     0
 10
11.701584
 20
28.672147
 30
0.0
 11
11.941376
 21
28.911938
 31
0.0
  0
LINE
  8
0
 62
     0
 10
9.941376
 20
27.442268
 30
0.0
 11
10.691376
 21
28.192268
 31
0.0
  0
LINE
  8
0
 62
     0
 10
11.171254
 20
28.672147
 30
0.0
 11
11.641376
 21
29.142268
 31
0.0
  0
LINE
  8
0
 62
     0
 10
9.941376
 20
27.972598
 30
0.0
 11
11.640924
 21
29.672147
 31
0.0
  0
LINE
  8
0
 62
     0
 10
9.941376
 20
28.502929
 30
0.0
 11
11.110594
 21
29.672147
 31
0.0
  0
LINE
  8
0
 62
     0
 10
9.941376
 20
29.033259
 30
0.0
 11
10.580264
 21
29.672147
 31
0.0
  0
LINE
  8
0
 62
     0
 10
9.941376
 20
23.199628
 30
0.0
 11
10.691376
 21
23.949628
 31
0.0
  0
LINE
  8
0
 62
     0
 10
9.941376
 20
22.669298
 30
0.0
 11
10.691376
 21
23.419298
 31
0.0
  0
LINE
  8
0
 62
     0
 10
9.941376
 20
22.138968
 30
0.0
 11
10.691376
 21
22.888968
 31
0.0
  0
LINE
  8
0
 62
     0
 10
10.04813
 20
21.715392
 30
0.0
 11
10.691376
 21
22.358637
 31
0.0
  0
LINE
  8
0
 62
     0
 10
10.313295
 20
21.450227
 30
0.0
 11
10.691376
 21
21.828307
 31
0.0
  0
LINE
  8
0
 62
     0
 10
10.391376
 20
20.997977
 30
0.0
 11
11.041376
 21
21.647977
 31
0.0
  0
LINE
  8
0
 62
     0
 10
10.595876
 20
20.672147
 30
0.0
 11
11.041376
 21
21.117647
 31
0.0
  0
ENDBLK
  8
0
  0
BLOCK
  8
0
  2
*X1
 70
    65
 10
0.0
 20
0.0
 30
0.0
  3
*X
  0
LINE
  8
0
 62
     0
 10
17.993883
 20
22.413301
 30
0.0
 11
18.993883
 21
23.413301
 31
0.0
  0
LINE
  8
0
 62
     0
 10
17.993883
 20
23.297184
 30
0.0
 11
18.993883
 21
24.297184
 31
0.0
  0
LINE
  8
0
 62
     0
 10
17.993883
 20
24.181068
 30
0.0
 11
18.993883
 21
25.181068
 31
0.0
  0
LINE
  8
0
 62
     0
 10
17.993883
 20
25.064951
 30
0.0
 11
18.993883
 21
26.064951
 31
0.0
  0
LINE
  8
0
 62
     0
 10
17.993883
 20
25.948835
 30
0.0
 11
18.993883
 21
26.948835
 31
0.0
  0
LINE
  8
0
 62
     0
 10
17.993883
 20
26.832718
 30
0.0
 11
18.993883
 21
27.832718
 31
0.0
  0
LINE
  8
0
 62
     0
 10
19.924457
 20
28.763292
 30
0.0
 11
20.324457
 21
29.163292
 31
0.0
  0
LINE
  8
0
 62
     0
 10
17.993883
 20
27.716602
 30
0.0
 11
18.993883
 21
28.716602
 31
0.0
  0
LINE
  8
0
 62
     0
 10
19.040574
 20
28.763292
 30
0.0
 11
20.093883
 21
29.816602
 31
0.0
  0
LINE
  8
0
 62
     0
 10
17.993883
 20
28.600485
 30
0.0
 11
19.35669
 21
29.963292
 31
0.0
  0
LINE
  8
0
 62
     0
 10
17.993883
 20
21.529417
 30
0.0
 11
18.993883
 21
22.529417
 31
0.0
  0
LINE
  8
0
 62
     0
 10
17.993883
 20
20.645534
 30
0.0
 11
18.993883
 21
21.645534
 31
0.0
  0
LINE
  8
0
 62
     0
 10
17.993883
 20
19.76165
 30
0.0
 11
18.993883
 21
20.76165
 31
0.0
  0
LINE
  8
0
 62
     0
 10
18.386646
 20
19.270529
 30
0.0
 11
18.993883
 21
19.877767
 31
0.0
  0
LINE
  8
0
 62
     0
 10
18.693883
 20
18.693883
 30
0.0
 11
18.993883
 21
18.993883
 31
0.0
  0
LINE
  8
0
 62
     0
 10
18.870529
 20
17.986646
 30
0.0
 11
19.293883
 21
18.41
 31
0.0
  0
ENDBLK
  8
0
  0
BLOCK
  8
0
  2
*X2
 70
    65
 10
0.0
 20
0.0
 30
0.0
  3
*X
  0
LINE
  8
0
 62
     0
 10
28.050872
 20
20.095921
 30
0.0
 11
29.300872
 21
21.345921
 31
0.0
  0
LINE
  8
0
 62
     0
 10
28.050872
 20
20.979804
 30
0.0
 11
29.300872
 21
22.229804
 31
0.0
  0
LINE
  8
0
 62
     0
 10
28.050872
 20
21.863688
 30
0.0
 11
29.300872
 21
23.113688
 31
0.0
  0
LINE
  8
0
 62
     0
 10
28.050872
 20
22.747571
 30
0.0
 11
29.300872
 21
23.997571
 31
0.0
  0
LINE
  8
0
 62
     0
 10
28.050872
 20
23.631455
 30
0.0
 11
29.300872
 21
24.881455
 31
0.0
  0
LINE
  8
0
 62
     0
 10
31.015812
 20
26.596395
 30
0.0
 11
31.050872
 21
26.631455
 31
0.0
  0
LINE
  8
0
 62
     0
 10
28.050872
 20
24.515338
 30
0.0
 11
29.300872
 21
25.765338
 31
0.0
  0
LINE
  8
0
 62
     0
 10
30.131929
 20
26.596395
 30
0.0
 11
30.631929
 21
27.096395
 31
0.0
  0
LINE
  8
0
 62
     0
 10
28.050872
 20
25.399221
 30
0.0
 11
30.500872
 21
27.849221
 31
0.0
  0
LINE
  8
0
 62
     0
 10
28.050872
 20
26.283105
 30
0.0
 11
29.864162
 21
28.096395
 31
0.0
  0
LINE
  8
0
 62
     0
 10
28.050872
 20
27.166988
 30
0.0
 11
28.980278
 21
28.096395
 31
0.0
  0
LINE
  8
0
 62
     0
 10
28.050872
 20
19.212037
 30
0.0
 11
29.300872
 21
20.462037
 31
0.0
  0
LINE
  8
0
 62
     0
 10
28.050872
 20
18.328154
 30
0.0
 11
29.300872
 21
19.578154
 31
0.0
  0
LINE
  8
0
 62
     0
 10
28.050872
 20
17.44427
 30
0.0
 11
29.300872
 21
18.69427
 31
0.0
  0
LINE
  8
0
 62
     0
 10
28.050872
 20
16.560387
 30
0.0
 11
29.300872
 21
17.810387
 31
0.0
  0
LINE
  8
0
 62
     0
 10
28.160818
 20
15.786449
 30
0.0
 11
29.300872
 21
16.926503
 31
0.0
  0
LINE
  8
0
 62
     0
 10
28.60276
 20
15.344507
 30
0.0
 11
29.300872
 21
16.04262
 31
0.0
  0
LINE
  8
0
 62
     0
 10
28.750872
 20
14.608736
 30
0.0
 11
29.438531
 21
15.296395
 31
0.0
  0
LINE
  8
0
 62
     0
 10
29.122414
 20
14.096395
 30
0.0
 11
29.700872
 21
14.674853
 31
0.0
  0
ENDBLK
  8
0
  0
BLOCK
  8
0
  2
*X3
 70
    65
 10
0.0
 20
0.0
 30
0.0
  3
*X
  0
LINE
  8
0
 62
     0
 10
38.596124
 20
16.499037
 30
0.0
 11
40.096124
 21
17.999037
 31
0.0
  0
LINE
  8
0
 62
     0
 10
38.596124
 20
17.38292
 30
0.0
 11
40.096124
 21
18.88292
 31
0.0
  0
LINE
  8
0
 62
     0
 10
38.596124
 20
18.266804
 30
0.0
 11
40.096124
 21
19.766804
 31
0.0
  0
LINE
  8
0
 62
     0
 10
38.596124
 20
19.150687
 30
0.0
 11
40.096124
 21
20.650687
 31
0.0
  0
LINE
  8
0
 62
     0
 10
38.596124
 20
20.034571
 30
0.0
 11
40.096124
 21
21.534571
 31
0.0
  0
LINE
  8
0
 62
     0
 10
41.890721
 20
23.329168
 30
0.0
 11
42.390721
 21
23.829168
 31
0.0
  0
LINE
  8
0
 62
     0
 10
38.596124
 20
20.918454
 30
0.0
 11
40.096124
 21
22.418454
 31
0.0
  0
LINE
  8
0
 62
     0
 10
41.006837
 20
23.329168
 30
0.0
 11
41.946124
 21
24.268454
 31
0.0
  0
LINE
  8
0
 62
     0
 10
38.596124
 20
21.802338
 30
0.0
 11
40.096124
 21
23.302338
 31
0.0
  0
LINE
  8
0
 62
     0
 10
40.122954
 20
23.329168
 30
0.0
 11
41.946124
 21
25.152338
 31
0.0
  0
LINE
  8
0
 62
     0
 10
38.596124
 20
22.686221
 30
0.0
 11
41.73907
 21
25.829168
 31
0.0
  0
LINE
  8
0
 62
     0
 10
38.596124
 20
23.570105
 30
0.0
 11
40.855187
 21
25.829168
 31
0.0
  0
LINE
  8
0
 62
     0
 10
38.596124
 20
24.453988
 30
0.0
 11
39.971303
 21
25.829168
 31
0.0
  0
LINE
  8
0
 62
     0
 10
38.596124
 20
15.615153
 30
0.0
 11
40.096124
 21
17.115153
 31
0.0
  0
LINE
  8
0
 62
     0
 10
38.596124
 20
14.73127
 30
0.0
 11
40.096124
 21
16.23127
 31
0.0
  0
LINE
  8
0
 62
     0
 10
38.596124
 20
13.847386
 30
0.0
 11
40.096124
 21
15.347386
 31
0.0
  0
LINE
  8
0
 62
     0
 10
38.596124
 20
12.963503
 30
0.0
 11
40.096124
 21
14.463503
 31
0.0
  0
LINE
  8
0
 62
     0
 10
38.596124
 20
12.079619
 30
0.0
 11
40.096124
 21
13.579619
 31
0.0
  0
LINE
  8
0
 62
     0
 10
39.01284
 20
11.612452
 30
0.0
 11
40.096124
 21
12.695736
 31
0.0
  0
LINE
  8
0
 62
     0
 10
39.454781
 20
11.17051
 30
0.0
 11
40.096124
 21
11.811852
 31
0.0
  0
LINE
  8
0
 62
     0
 10
39.496124
 20
10.327969
 30
0.0
 11
40.497322
 21
11.329168
 31
0.0
  0
LINE
  8
0
 62
     0
 10
39.888665
 20
9.836627
 30
0.0
 11
40.596124
 21
10.544086
 31
0.0
  0
ENDBLK
  8
0
  0
BLOCK
  8
0
  2
*X4
 70
    65
 10
0.0
 20
0.0
 30
0.0
  3
*X
  0
LINE
  8
0
 62
     0
 10
53.356124
 20
10.929717
 30
0.0
 11
55.356124
 21
12.929717
 31
0.0
  0
LINE
  8
0
 62
     0
 10
53.356124
 20
11.8136
 30
0.0
 11
55.356124
 21
13.8136
 31
0.0
  0
LINE
  8
0
 62
     0
 10
53.356124
 20
12.697484
 30
0.0
 11
55.356124
 21
14.697484
 31
0.0
  0
LINE
  8
0
 62
     0
 10
53.356124
 20
13.581367
 30
0.0
 11
55.356124
 21
15.581367
 31
0.0
  0
LINE
  8
0
 62
     0
 10
53.356124
 20
14.465251
 30
0.0
 11
55.356124
 21
16.465251
 31
0.0
  0
LINE
  8
0
 62
     0
 10
53.356124
 20
15.349134
 30
0.0
 11
55.356124
 21
17.349134
 31
0.0
  0
LINE
  8
0
 62
     0
 10
57.745463
 20
19.738473
 30
0.0
 11
58.245463
 21
20.238473
 31
0.0
  0
LINE
  8
0
 62
     0
 10
53.356124
 20
16.233018
 30
0.0
 11
55.356124
 21
18.233018
 31
0.0
  0
LINE
  8
0
 62
     0
 10
56.861579
 20
19.738473
 30
0.0
 11
57.606124
 21
20.483018
 31
0.0
  0
LINE
  8
0
 62
     0
 10
53.356124
 20
17.116901
 30
0.0
 11
55.356124
 21
19.116901
 31
0.0
  0
LINE
  8
0
 62
     0
 10
55.977696
 20
19.738473
 30
0.0
 11
57.606124
 21
21.366901
 31
0.0
  0
LINE
  8
0
 62
     0
 10
53.356124
 20
18.000785
 30
0.0
 11
57.593812
 21
22.238473
 31
0.0
  0
LINE
  8
0
 62
     0
 10
53.356124
 20
18.884668
 30
0.0
 11
56.709929
 21
22.238473
 31
0.0
  0
LINE
  8
0
 62
     0
 10
53.356124
 20
19.768552
 30
0.0
 11
55.826045
 21
22.238473
 31
0.0
  0
LINE
  8
0
 62
     0
 10
53.356124
 20
20.652435
 30
0.0
 11
54.942162
 21
22.238473
 31
0.0
  0
LINE
  8
0
 62
     0
 10
53.356124
 20
10.045833
 30
0.0
 11
55.356124
 21
12.045833
 31
0.0
  0
LINE
  8
0
 62
     0
 10
53.356124
 20
9.16195
 30
0.0
 11
55.356124
 21
11.16195
 31
0.0
  0
LINE
  8
0
 62
     0
 10
53.356124
 20
8.278066
 30
0.0
 11
55.356124
 21
10.278066
 31
0.0
  0
LINE
  8
0
 62
     0
 10
53.356124
 20
7.394183
 30
0.0
 11
55.356124
 21
9.394183
 31
0.0
  0
LINE
  8
0
 62
     0
 10
53.356124
 20
6.510299
 30
0.0
 11
55.356124
 21
8.510299
 31
0.0
  0
LINE
  8
0
 62
     0
 10
53.537152
 20
5.807445
 30
0.0
 11
55.356124
 21
7.626416
 31
0.0
  0
LINE
  8
0
 62
     0
 10
53.979094
 20
5.365503
 30
0.0
 11
55.356124
 21
6.742533
 31
0.0
  0
LINE
  8
0
 62
     0
 10
54.421036
 20
4.923561
 30
0.0
 11
55.356124
 21
5.858649
 31
0.0
  0
LINE
  8
0
 62
     0
 10
54.806124
 20
4.424766
 30
0.0
 11
55.419831
 21
5.038473
 31
0.0
  0
LINE
  8
0
 62
     0
 10
54.854919
 20
3.589678
 30
0.0
 11
56.106124
 21
4.840882
 31
0.0
  0
LINE
  8
0
 62
     0
 10
55.387598
 20
3.238473
 30
0.0
 11
56.106124
 21
3.956999
 31
0.0
  0
ENDBLK
  8
0
  0
BLOCK
  8
0
  2
*X5
 70
    65
 10
0.0
 20
0.0
 30
0.0
  3
*X
  0
LINE
  8
0
 62
     0
 10
69.470312
 20
5.830701
 30
0.0
 11
71.470312
 21
7.830701
 31
0.0
  0
LINE
  8
0
 62
     0
 10
69.470312
 20
7.244915
 30
0.0
 11
71.470312
 21
9.244915
 31
0.0
  0
LINE
  8
0
 62
     0
 10
69.470312
 20
8.659129
 30
0.0
 11
71.470312
 21
10.659129
 31
0.0
  0
LINE
  8
0
 62
     0
 10
69.470312
 20
10.073342
 30
0.0
 11
71.470312
 21
12.073342
 31
0.0
  0
LINE
  8
0
 62
     0
 10
74.7077
 20
15.31073
 30
0.0
 11
75.470312
 21
16.073342
 31
0.0
  0
LINE
  8
0
 62
     0
 10
69.470312
 20
11.487556
 30
0.0
 11
71.470312
 21
13.487556
 31
0.0
  0
LINE
  8
0
 62
     0
 10
73.293486
 20
15.31073
 30
0.0
 11
74.370312
 21
16.387556
 31
0.0
  0
LINE
  8
0
 62
     0
 10
69.470312
 20
12.901769
 30
0.0
 11
71.470312
 21
14.901769
 31
0.0
  0
LINE
  8
0
 62
     0
 10
71.879273
 20
15.31073
 30
0.0
 11
74.370312
 21
17.801769
 31
0.0
  0
LINE
  8
0
 62
     0
 10
69.470312
 20
14.315983
 30
0.0
 11
73.665059
 21
18.51073
 31
0.0
  0
LINE
  8
0
 62
     0
 10
69.470312
 20
15.730196
 30
0.0
 11
72.250846
 21
18.51073
 31
0.0
  0
LINE
  8
0
 62
     0
 10
69.470312
 20
17.14441
 30
0.0
 11
70.836632
 21
18.51073
 31
0.0
  0
LINE
  8
0
 62
     0
 10
69.470312
 20
4.416488
 30
0.0
 11
71.470312
 21
6.416488
 31
0.0
  0
LINE
  8
0
 62
     0
 10
69.470312
 20
3.002274
 30
0.0
 11
71.470312
 21
5.002274
 31
0.0
  0
LINE
  8
0
 62
     0
 10
69.470312
 20
1.588061
 30
0.0
 11
71.470312
 21
3.588061
 31
0.0
  0
LINE
  8
0
 62
     0
 10
69.470312
 20
0.173847
 30
0.0
 11
71.470312
 21
2.173847
 31
0.0
  0
LINE
  8
0
 62
     0
 10
69.67086
 20
-1.039818
 30
0.0
 11
71.470312
 21
0.759634
 31
0.0
  0
LINE
  8
0
 62
     0
 10
70.377967
 20
-1.746925
 30
0.0
 11
71.470312
 21
-0.65458
 31
0.0
  0
LINE
  8
0
 62
     0
 10
71.085074
 20
-2.454032
 30
0.0
 11
72.349836
 21
-1.18927
 31
0.0
  0
LINE
  8
0
 62
     0
 10
71.464049
 20
-3.48927
 30
0.0
 11
72.470312
 21
-2.483007
 31
0.0
  0
ENDBLK
  8
0
  0
BLOCK
  8
0
  2
*X6
 70
    65
 10
0.0
 20
0.0
 30
0.0
  3
*X
  0
LINE
  8
0
 62
     0
 10
90.902073
 20
0.392405
 30
0.0
 11
93.902073
 21
3.392405
 31
0.0
  0
LINE
  8
0
 62
     0
 10
90.902073
 20
1.806619
 30
0.0
 11
93.902073
 21
4.806619
 31
0.0
  0
LINE
  8
0
 62
     0
 10
90.902073
 20
3.220832
 30
0.0
 11
93.902073
 21
6.220832
 31
0.0
  0
LINE
  8
0
 62
     0
 10
98.814445
 20
11.133204
 30
0.0
 11
98.902073
 21
11.220832
 31
0.0
  0
LINE
  8
0
 62
     0
 10
90.902073
 20
4.635046
 30
0.0
 11
93.902073
 21
7.635046
 31
0.0
  0
LINE
  8
0
 62
     0
 10
97.400231
 20
11.133204
 30
0.0
 11
98.400231
 21
12.133204
 31
0.0
  0
LINE
  8
0
 62
     0
 10
90.902073
 20
6.049259
 30
0.0
 11
93.902073
 21
9.049259
 31
0.0
  0
LINE
  8
0
 62
     0
 10
95.986018
 20
11.133204
 30
0.0
 11
97.952073
 21
13.099259
 31
0.0
  0
LINE
  8
0
 62
     0
 10
90.902073
 20
7.463473
 30
0.0
 11
93.902073
 21
10.463473
 31
0.0
  0
LINE
  8
0
 62
     0
 10
94.571804
 20
11.133204
 30
0.0
 11
97.952073
 21
14.513473
 31
0.0
  0
LINE
  8
0
 62
     0
 10
90.902073
 20
8.877686
 30
0.0
 11
97.157591
 21
15.133204
 31
0.0
  0
LINE
  8
0
 62
     0
 10
90.902073
 20
10.2919
 30
0.0
 11
95.743377
 21
15.133204
 31
0.0
  0
LINE
  8
0
 62
     0
 10
90.902073
 20
11.706114
 30
0.0
 11
94.329163
 21
15.133204
 31
0.0
  0
LINE
  8
0
 62
     0
 10
90.902073
 20
13.120327
 30
0.0
 11
92.91495
 21
15.133204
 31
0.0
  0
LINE
  8
0
 62
     0
 10
90.902073
 20
-1.021809
 30
0.0
 11
93.902073
 21
1.978191
 31
0.0
  0
LINE
  8
0
 62
     0
 10
90.902073
 20
-2.436022
 30
0.0
 11
93.902073
 21
0.563978
 31
0.0
  0
LINE
  8
0
 62
     0
 10
90.902073
 20
-3.850236
 30
0.0
 11
93.902073
 21
-0.850236
 31
0.0
  0
LINE
  8
0
 62
     0
 10
90.902073
 20
-5.264449
 30
0.0
 11
93.902073
 21
-2.264449
 31
0.0
  0
LINE
  8
0
 62
     0
 10
91.308006
 20
-6.272729
 30
0.0
 11
93.902073
 21
-3.678663
 31
0.0
  0
LINE
  8
0
 62
     0
 10
92.015113
 20
-6.979836
 30
0.0
 11
93.902073
 21
-5.092876
 31
0.0
  0
LINE
  8
0
 62
     0
 10
92.72222
 20
-7.686943
 30
0.0
 11
94.042367
 21
-6.366796
 31
0.0
  0
LINE
  8
0
 62
     0
 10
93.079327
 20
-8.74405
 30
0.0
 11
94.652073
 21
-7.171303
 31
0.0
  0
LINE
  8
0
 62
     0
 10
94.370794
 20
-8.866796
 30
0.0
 11
94.652073
 21
-8.585517
 31
0.0
  0
ENDBLK
  8
0
  0
BLOCK
  8
0
  2
*X7
 70
    65
 10
0.0
 20
0.0
 30
0.0
  3
*X
  0
LINE
  8
0
 62
     0
 10
116.07575
 20
-14.739005
 30
0.0
 11
120.07575
 21
-10.739005
 31
0.0
  0
LINE
  8
0
 62
     0
 10
116.07575
 20
-12.971238
 30
0.0
 11
120.07575
 21
-8.971238
 31
0.0
  0
LINE
  8
0
 62
     0
 10
116.07575
 20
-11.203471
 30
0.0
 11
120.07575
 21
-7.203471
 31
0.0
  0
LINE
  8
0
 62
     0
 10
125.658758
 20
-1.620462
 30
0.0
 11
126.07575
 21
-1.203471
 31
0.0
  0
LINE
  8
0
 62
     0
 10
116.07575
 20
-9.435704
 30
0.0
 11
120.07575
 21
-5.435704
 31
0.0
  0
LINE
  8
0
 62
     0
 10
123.890991
 20
-1.620462
 30
0.0
 11
125.390991
 21
-0.120462
 31
0.0
  0
LINE
  8
0
 62
     0
 10
116.07575
 20
-7.667937
 30
0.0
 11
120.07575
 21
-3.667937
 31
0.0
  0
LINE
  8
0
 62
     0
 10
122.123225
 20
-1.620462
 30
0.0
 11
124.82575
 21
1.082063
 31
0.0
  0
LINE
  8
0
 62
     0
 10
116.07575
 20
-5.90017
 30
0.0
 11
120.07575
 21
-1.90017
 31
0.0
  0
LINE
  8
0
 62
     0
 10
120.355458
 20
-1.620462
 30
0.0
 11
124.82575
 21
2.84983
 31
0.0
  0
LINE
  8
0
 62
     0
 10
116.07575
 20
-4.132403
 30
0.0
 11
123.787691
 21
3.579538
 31
0.0
  0
LINE
  8
0
 62
     0
 10
116.07575
 20
-2.364636
 30
0.0
 11
122.019924
 21
3.579538
 31
0.0
  0
LINE
  8
0
 62
     0
 10
116.07575
 20
-0.596869
 30
0.0
 11
120.252157
 21
3.579538
 31
0.0
  0
LINE
  8
0
 62
     0
 10
116.07575
 20
-16.506772
 30
0.0
 11
120.07575
 21
-12.506772
 31
0.0
  0
LINE
  8
0
 62
     0
 10
116.07575
 20
-18.274539
 30
0.0
 11
120.07575
 21
-14.274539
 31
0.0
  0
LINE
  8
0
 62
     0
 10
116.07575
 20
-20.042306
 30
0.0
 11
120.07575
 21
-16.042306
 31
0.0
  0
LINE
  8
0
 62
     0
 10
116.07575
 20
-21.810073
 30
0.0
 11
120.07575
 21
-17.810073
 31
0.0
  0
LINE
  8
0
 62
     0
 10
116.804438
 20
-22.849151
 30
0.0
 11
120.07575
 21
-19.57784
 31
0.0
  0
LINE
  8
0
 62
     0
 10
117.688322
 20
-23.733034
 30
0.0
 11
120.07575
 21
-21.345607
 31
0.0
  0
LINE
  8
0
 62
     0
 10
118.572205
 20
-24.616918
 30
0.0
 11
120.07575
 21
-23.113374
 31
0.0
  0
LINE
  8
0
 62
     0
 10
118.956089
 20
-26.000801
 30
0.0
 11
121.07575
 21
-23.881141
 31
0.0
  0
LINE
  8
0
 62
     0
 10
120.304195
 20
-26.420462
 30
0.0
 11
121.07575
 21
-25.648908
 31
0.0
  0
ENDBLK
  8
0
  0
BLOCK
  8
0
  2
*X8
 70
    65
 10
0.0
 20
0.0
 30
0.0
  3
*X
  0
LINE
  8
0
 62
     0
 10
144.25893
 20
-21.911163
 30
0.0
 11
148.75893
 21
-17.411163
 31
0.0
  0
LINE
  8
0
 62
     0
 10
144.25893
 20
-20.143397
 30
0.0
 11
148.75893
 21
-15.643397
 31
0.0
  0
LINE
  8
0
 62
     0
 10
144.25893
 20
-18.37563
 30
0.0
 11
148.75893
 21
-13.87563
 31
0.0
  0
LINE
  8
0
 62
     0
 10
144.25893
 20
-16.607863
 30
0.0
 11
148.75893
 21
-12.107863
 31
0.0
  0
LINE
  8
0
 62
     0
 10
155.180166
 20
-5.686626
 30
0.0
 11
156.25893
 21
-4.607863
 31
0.0
  0
LINE
  8
0
 62
     0
 10
144.25893
 20
-14.840096
 30
0.0
 11
148.75893
 21
-10.340096
 31
0.0
  0
LINE
  8
0
 62
     0
 10
153.412399
 20
-5.686626
 30
0.0
 11
154.912399
 21
-4.186626
 31
0.0
  0
LINE
  8
0
 62
     0
 10
144.25893
 20
-13.072329
 30
0.0
 11
148.75893
 21
-8.572329
 31
0.0
  0
LINE
  8
0
 62
     0
 10
151.644632
 20
-5.686626
 30
0.0
 11
154.75893
 21
-2.572329
 31
0.0
  0
LINE
  8
0
 62
     0
 10
144.25893
 20
-11.304562
 30
0.0
 11
148.75893
 21
-6.804562
 31
0.0
  0
LINE
  8
0
 62
     0
 10
149.876865
 20
-5.686626
 30
0.0
 11
154.75893
 21
-0.804562
 31
0.0
  0
LINE
  8
0
 62
     0
 10
144.25893
 20
-9.536795
 30
0.0
 11
154.609098
 21
0.813374
 31
0.0
  0
LINE
  8
0
 62
     0
 10
144.25893
 20
-7.769028
 30
0.0
 11
152.841332
 21
0.813374
 31
0.0
  0
LINE
  8
0
 62
     0
 10
144.25893
 20
-6.001261
 30
0.0
 11
151.073565
 21
0.813374
 31
0.0
  0
LINE
  8
0
 62
     0
 10
144.25893
 20
-4.233494
 30
0.0
 11
149.305798
 21
0.813374
 31
0.0
  0
LINE
  8
0
 62
     0
 10
144.25893
 20
-2.465727
 30
0.0
 11
147.538031
 21
0.813374
 31
0.0
  0
LINE
  8
0
 62
     0
 10
144.25893
 20
-23.67893
 30
0.0
 11
148.75893
 21
-19.17893
 31
0.0
  0
LINE
  8
0
 62
     0
 10
144.25893
 20
-25.446697
 30
0.0
 11
148.75893
 21
-20.946697
 31
0.0
  0
LINE
  8
0
 62
     0
 10
144.25893
 20
-27.214464
 30
0.0
 11
148.75893
 21
-22.714464
 31
0.0
  0
LINE
  8
0
 62
     0
 10
144.706733
 20
-28.534429
 30
0.0
 11
148.75893
 21
-24.482231
 31
0.0
  0
LINE
  8
0
 62
     0
 10
145.590616
 20
-29.418312
 30
0.0
 11
148.75893
 21
-26.249998
 31
0.0
  0
LINE
  8
0
 62
     0
 10
146.474499
 20
-30.302196
 30
0.0
 11
148.75893
 21
-28.017765
 31
0.0
  0
LINE
  8
0
 62
     0
 10
147.358383
 20
-31.186079
 30
0.0
 11
148.857836
 21
-29.686626
 31
0.0
  0
LINE
  8
0
 62
     0
 10
147.642266
 20
-32.669963
 30
0.0
 11
150.25893
 21
-30.053299
 31
0.0
  0
LINE
  8
0
 62
     0
 10
148.89337
 20
-33.186626
 30
0.0
 11
150.25893
 21
-31.821066
 31
0.0
  0
ENDBLK
  8
0
  0
ENDSEC
  0
SECTION
  2
ENTITIES
  0
LINE
  8
0
 10
12.804156
 20
21.822147
 30
0.0
 11
10.804156
 21
21.822147
 31
0.0
  0
LINE
  8
0
 10
10.804156
 20
20.672147
 30
0.0
 11
12.154156
 21
20.672147
 31
0.0
  0
LINE
  8
0
 10
12.354156
 20
20.872147
 30
0.0
 11
10.804156
 21
20.872147
 31
0.0
  0
LINE
  8
0
 10
12.154156
 20
20.672147
 30
0.0
 11
12.354156
 21
20.872147
 31
0.0
  0
LINE
  8
0
 10
9.254156
 20
20.872147
 30
0.0
 11
9.454156
 21
20.672147
 31
0.0
  0
LINE
  8
0
 10
9.687
 20
28.666056
 30
0.0
 11
9.687
 21
28.552619
 31
0.0
  0
LINE
  8
0
 10
9.676687
 20
24.144908
 30
0.0
 11
9.676687
 21
24.031471
 31
0.0
  0
LINE
  8
0
 10
9.676687
 20
25.959856
 30
0.0
 11
9.676687
 21
25.846419
 31
0.0
  0
LINE
  8
0
 10
9.676687
 20
27.7854
 30
0.0
 11
9.676687
 21
27.671963
 31
0.0
  0
LINE
  8
0
 10
9.687
 20
28.552619
 30
0.0
 11
10.804156
 21
28.552619
 31
0.0
  0
LINE
  8
0
 10
10.804156
 20
28.177543
 30
0.0
 11
9.803173
 21
27.728681
 31
0.0
  0
LINE
  8
0
 10
10.804156
 20
27.166382
 30
0.0
 11
9.676687
 21
27.671963
 31
0.0
  0
LINE
  8
0
 10
10.804156
 20
25.340838
 30
0.0
 11
9.676687
 21
25.846419
 31
0.0
  0
LINE
  8
0
 10
10.804156
 20
26.351999
 30
0.0
 11
9.803173
 21
25.903137
 31
0.0
  0
LINE
  8
0
 10
10.804156
 20
24.537051
 30
0.0
 11
9.803173
 21
24.08819
 31
0.0
  0
LINE
  8
0
 10
10.804156
 20
23.525891
 30
0.0
 11
9.676687
 21
24.031471
 31
0.0
  0
LINE
  8
0
 10
10.804156
 20
23.639328
 30
0.0
 11
9.803173
 21
24.08819
 31
0.0
  0
LINE
  8
0
 10
10.804156
 20
24.650488
 30
0.0
 11
9.676687
 21
24.144908
 31
0.0
  0
LINE
  8
0
 10
10.804156
 20
26.465436
 30
0.0
 11
9.676687
 21
25.959856
 31
0.0
  0
LINE
  8
0
 10
10.804156
 20
25.454276
 30
0.0
 11
9.803173
 21
25.903137
 31
0.0
  0
LINE
  8
0
 10
10.804156
 20
27.27982
 30
0.0
 11
9.803173
 21
27.728681
 31
0.0
  0
LINE
  8
0
 10
10.804156
 20
28.29098
 30
0.0
 11
9.676687
 21
27.7854
 31
0.0
  0
LINE
  8
0
 10
9.687
 20
28.666056
 30
0.0
 11
10.804156
 21
28.666056
 31
0.0
  0
LINE
  8
0
 10
9.554156
 20
28.672147
 30
0.0
 11
10.804156
 21
28.672147
 31
0.0
  0
LINE
  8
0
 10
11.104156
 20
29.672147
 30
0.0
 11
12.304156
 21
29.672147
 31
0.0
  0
LINE
  8
0
 10
10.504156
 20
29.072147
 30
0.0
 11
11.104156
 21
29.072147
 31
0.0
  0
LINE
  8
0
 10
11.104156
 20
29.672147
 30
0.0
 11
11.104156
 21
29.072147
 31
0.0
  0
LINE
  8
0
 10
10.504156
 20
29.672147
 30
0.0
 11
10.504156
 21
29.072147
 31
0.0
  0
LINE
  8
0
 10
9.554156
 20
21.672147
 30
0.0
 11
9.554156
 21
28.672147
 31
0.0
  0
LINE
  8
0
 10
12.354156
 20
21.372147
 30
0.0
 11
12.804156
 21
21.822147
 31
0.0
  0
LINE
  8
0
 10
9.254156
 20
21.372147
 30
0.0
 11
8.804156
 21
21.822147
 31
0.0
  0
LINE
  8
0
 10
10.804156
 20
21.372147
 30
0.0
 11
12.354156
 21
21.372147
 31
0.0
  0
LINE
  8
0
 10
12.354156
 20
21.372147
 30
0.0
 11
12.354156
 21
20.872147
 31
0.0
  0
LINE
  8
0
 10
9.254156
 20
21.372147
 30
0.0
 11
9.254156
 21
20.872147
 31
0.0
  0
LINE
  8
0
 10
11.104156
 20
29.172147
 30
0.0
 11
12.804156
 21
29.172147
 31
0.0
  0
LINE
  8
0
 10
12.304156
 20
29.672147
 30
0.0
 11
12.804156
 21
29.172147
 31
0.0
  0
LINE
  8
0
 10
9.304156
 20
29.672147
 30
0.0
 11
8.804156
 21
29.172147
 31
0.0
  0
LINE
  8
0
 10
12.454156
 20
29.522147
 30
0.0
 11
12.454156
 21
21.472147
 31
0.0
  0
LINE
  8
0
 10
9.154156
 20
29.522147
 30
0.0
 11
9.154156
 21
21.472147
 31
0.0
  0
LINE
  8
0
 10
9.454156
 20
20.672147
 30
0.0
 11
9.904156
 21
20.672147
 31
0.0
  0
LINE
  8
0
 10
9.304156
 20
29.672147
 30
0.0
 11
10.504156
 21
29.672147
 31
0.0
  0
LINE
  8
0
 10
12.804156
 20
29.172147
 30
0.0
 11
12.804156
 21
21.822147
 31
0.0
  0
LINE
  8
0
 10
8.804156
 20
29.172147
 30
0.0
 11
8.804156
 21
21.822147
 31
0.0
  0
LINE
  8
0
  6
CENTER
 10
10.804156
 20
30.355121
 30
0.0
 11
10.804156
 21
18.799867
 31
0.0
  0
LINE
  8
0
 10
9.904156
 20
20.072148
 30
0.0
 11
9.904156
 21
21.672147
 31
0.0
  0
LINE
  8
0
 10
11.704156
 20
20.072147
 30
0.0
 11
11.704156
 21
20.672147
 31
0.0
  0
LINE
  8
0
 10
9.554156
 20
21.672147
 30
0.0
 11
9.904156
 21
21.672147
 31
0.0
  0
ARC
  8
0
 10
10.804156
 20
20.072147
 30
0.0
 40
0.9
 50
179.999959
 51
0.0
  0
LINE
  8
0
 10
9.654156
 20
22.972147
 30
0.0
 11
10.804156
 21
22.972147
 31
0.0
  0
LINE
  8
0
 10
9.892648
 20
22.984587
 30
0.0
 11
10.804156
 21
22.984587
 31
0.0
  0
LINE
  8
0
 10
9.892648
 20
23.098024
 30
0.0
 11
10.804156
 21
23.098024
 31
0.0
  0
LINE
  8
0
 10
9.892648
 20
23.098024
 30
0.0
 11
9.892648
 21
22.984587
 31
0.0
  0
LINE
  8
0
 10
9.654156
 20
21.672147
 30
0.0
 11
9.654156
 21
22.972147
 31
0.0
  0
LINE
  8
0
 10
21.946199
 20
22.372147
 30
0.0
 11
19.446199
 21
22.372147
 31
0.0
  0
LINE
  8
0
 10
18.106959
 20
27.619165
 30
0.0
 11
18.106959
 21
27.455177
 31
0.0
  0
LINE
  8
0
 10
18.079627
 20
30.281288
 30
0.0
 11
18.079627
 21
30.1173
 31
0.0
  0
LINE
  8
0
 10
18.091169
 20
31.416104
 30
0.0
 11
18.091169
 21
31.252115
 31
0.0
  0
LINE
  8
0
 10
18.13429
 20
24.656396
 30
0.0
 11
18.13429
 21
24.820385
 31
0.0
  0
LINE
  8
0
 10
18.091169
 20
31.252115
 30
0.0
 11
19.446199
 21
31.252115
 31
0.0
  0
LINE
  8
0
 10
19.446199
 20
30.680727
 30
0.0
 11
18.278501
 21
30.199294
 31
0.0
  0
LINE
  8
0
 10
19.446199
 20
29.553872
 30
0.0
 11
18.079627
 21
30.1173
 31
0.0
  0
LINE
  8
0
 10
19.446199
 20
28.007336
 30
0.0
 11
18.305833
 21
27.537171
 31
0.0
  0
LINE
  8
0
 10
19.446199
 20
26.903018
 30
0.0
 11
18.106959
 21
27.455177
 31
0.0
  0
LINE
  8
0
 10
19.446199
 20
24.115506
 30
0.0
 11
18.13429
 21
24.656396
 31
0.0
  0
LINE
  8
0
 10
19.446199
 20
25.197287
 30
0.0
 11
18.333164
 21
24.738391
 31
0.0
  0
LINE
  8
0
 10
19.446199
 20
25.361275
 30
0.0
 11
18.13429
 21
24.820385
 31
0.0
  0
LINE
  8
0
 10
19.446199
 20
24.279494
 30
0.0
 11
18.333164
 21
24.738391
 31
0.0
  0
LINE
  8
0
 10
19.446199
 20
27.067006
 30
0.0
 11
18.305833
 21
27.537171
 31
0.0
  0
LINE
  8
0
 10
19.446199
 20
28.171324
 30
0.0
 11
18.106959
 21
27.619165
 31
0.0
  0
LINE
  8
0
 10
19.446199
 20
29.717861
 30
0.0
 11
18.278501
 21
30.199294
 31
0.0
  0
LINE
  8
0
 10
19.446199
 20
30.844716
 30
0.0
 11
18.079627
 21
30.281288
 31
0.0
  0
LINE
  8
0
 10
18.091169
 20
31.416104
 30
0.0
 11
19.446199
 21
31.416104
 31
0.0
  0
LINE
  8
0
 10
17.946199
 20
31.472147
 30
0.0
 11
19.446199
 21
31.472147
 31
0.0
  0
LINE
  8
0
 10
17.946199
 20
21.672147
 30
0.0
 11
17.946199
 21
31.472147
 31
0.0
  0
LINE
  8
0
 10
19.446199
 20
20.672147
 30
0.0
 11
21.046199
 21
20.672147
 31
0.0
  0
LINE
  8
0
 10
19.846199
 20
32.672147
 30
0.0
 11
21.446199
 21
32.672147
 31
0.0
  0
LINE
  8
0
 10
19.046199
 20
31.872147
 30
0.0
 11
19.846199
 21
31.872147
 31
0.0
  0
LINE
  8
0
 10
19.846199
 20
32.672147
 30
0.0
 11
19.846199
 21
31.872147
 31
0.0
  0
LINE
  8
0
 10
19.046199
 20
32.672147
 30
0.0
 11
19.046199
 21
31.872147
 31
0.0
  0
LINE
  8
0
 10
21.246199
 20
20.872147
 30
0.0
 11
19.446199
 21
20.872147
 31
0.0
  0
LINE
  8
0
 10
21.046199
 20
20.672147
 30
0.0
 11
21.246199
 21
20.872147
 31
0.0
  0
LINE
  8
0
 10
17.646199
 20
20.872147
 30
0.0
 11
17.846199
 21
20.672147
 31
0.0
  0
LINE
  8
0
 10
21.246199
 20
21.672147
 30
0.0
 11
21.946199
 21
22.372147
 31
0.0
  0
LINE
  8
0
 10
17.646199
 20
21.672147
 30
0.0
 11
16.946199
 21
22.372147
 31
0.0
  0
LINE
  8
0
 10
19.446199
 20
21.672147
 30
0.0
 11
21.246199
 21
21.672147
 31
0.0
  0
LINE
  8
0
 10
21.246199
 20
21.672147
 30
0.0
 11
21.246199
 21
20.872147
 31
0.0
  0
LINE
  8
0
 10
17.646199
 20
21.672147
 30
0.0
 11
17.646199
 21
20.872147
 31
0.0
  0
LINE
  8
0
 10
19.846199
 20
32.172147
 30
0.0
 11
21.946199
 21
32.172147
 31
0.0
  0
LINE
  8
0
 10
21.446199
 20
32.672147
 30
0.0
 11
21.946199
 21
32.172147
 31
0.0
  0
LINE
  8
0
 10
17.446199
 20
32.672147
 30
0.0
 11
16.946199
 21
32.172147
 31
0.0
  0
LINE
  8
0
 10
21.546199
 20
32.572147
 30
0.0
 11
21.546199
 21
21.972147
 31
0.0
  0
LINE
  8
0
 10
17.346199
 20
32.572147
 30
0.0
 11
17.346199
 21
21.972147
 31
0.0
  0
LINE
  8
0
 10
17.846199
 20
20.672147
 30
0.0
 11
18.246199
 21
20.672147
 31
0.0
  0
LINE
  8
0
 10
17.446199
 20
32.672147
 30
0.0
 11
19.046199
 21
32.672147
 31
0.0
  0
LINE
  8
0
 10
21.946199
 20
32.172147
 30
0.0
 11
21.946199
 21
22.372147
 31
0.0
  0
LINE
  8
0
 10
16.946199
 20
32.172147
 30
0.0
 11
16.946199
 21
22.372147
 31
0.0
  0
LINE
  8
0
  6
CENTER
 10
19.446199
 20
33.660598
 30
0.0
 11
19.446199
 21
18.120904
 31
0.0
  0
LINE
  8
0
 10
18.246199
 20
19.872147
 30
0.0
 11
18.246199
 21
21.672147
 31
0.0
  0
LINE
  8
0
 10
20.646199
 20
19.872147
 30
0.0
 11
20.646199
 21
20.672147
 31
0.0
  0
ARC
  8
0
 10
19.446199
 20
19.872147
 30
0.0
 40
1.2
 50
180.0
 51
0.0
  0
LINE
  8
0
 10
17.946199
 20
21.672147
 30
0.0
 11
18.246199
 21
21.672147
 31
0.0
  0
LINE
  8
0
 10
18.046199
 20
23.172147
 30
0.0
 11
19.446199
 21
23.172147
 31
0.0
  0
LINE
  8
0
 10
18.046199
 20
21.672147
 30
0.0
 11
18.046199
 21
23.172147
 31
0.0
  0
LINE
  8
0
 10
19.446199
 20
23.347956
 30
0.0
 11
18.221365
 21
23.347956
 31
0.0
  0
LINE
  8
0
 10
19.446199
 20
23.183967
 30
0.0
 11
18.221365
 21
23.183967
 31
0.0
  0
LINE
  8
0
 10
18.221365
 20
23.347956
 30
0.0
 11
18.221365
 21
23.183967
 31
0.0
  0
LINE
  8
0
 10
28.280519
 20
24.934046
 30
0.0
 11
28.280519
 21
24.76516
 31
0.0
  0
LINE
  8
0
 10
28.280519
 20
27.287843
 30
0.0
 11
28.280519
 21
27.118956
 31
0.0
  0
LINE
  8
0
 10
28.280519
 20
29.785405
 30
0.0
 11
28.280519
 21
29.616518
 31
0.0
  0
LINE
  8
0
 10
28.280519
 20
32.032032
 30
0.0
 11
28.280519
 21
31.863146
 31
0.0
  0
LINE
  8
0
 10
28.263629
 20
33.14465
 30
0.0
 11
28.263629
 21
32.975763
 31
0.0
  0
LINE
  8
0
 10
28.263629
 20
32.975763
 30
0.0
 11
29.851958
 21
32.975763
 31
0.0
  0
LINE
  8
0
 10
29.851958
 20
32.455975
 30
0.0
 11
28.49109
 21
31.942584
 31
0.0
  0
LINE
  8
0
 10
29.851958
 20
31.195618
 30
0.0
 11
28.280519
 21
31.863146
 31
0.0
  0
LINE
  8
0
 10
29.851958
 20
28.938319
 30
0.0
 11
28.280519
 21
29.616518
 31
0.0
  0
LINE
  8
0
 10
29.851958
 20
30.198676
 30
0.0
 11
28.49109
 21
29.694527
 31
0.0
  0
LINE
  8
0
 10
29.851958
 20
26.435421
 30
0.0
 11
28.280519
 21
27.118956
 31
0.0
  0
LINE
  8
0
 10
29.851958
 20
27.695778
 30
0.0
 11
28.49109
 21
27.19625
 31
0.0
  0
LINE
  8
0
 10
29.851958
 20
25.320639
 30
0.0
 11
28.531987
 21
24.85405
 31
0.0
  0
LINE
  8
0
 10
28.280519
 20
24.76516
 30
0.0
 11
29.851958
 21
24.265259
 31
0.0
  0
LINE
  8
0
 10
28.531987
 20
24.85405
 30
0.0
 11
29.851958
 21
24.434145
 31
0.0
  0
LINE
  8
0
 10
29.851958
 20
25.489526
 30
0.0
 11
28.280519
 21
24.934046
 31
0.0
  0
LINE
  8
0
 10
29.851958
 20
27.864665
 30
0.0
 11
28.280519
 21
27.287843
 31
0.0
  0
LINE
  8
0
 10
29.851958
 20
26.604308
 30
0.0
 11
28.49109
 21
27.19625
 31
0.0
  0
LINE
  8
0
 10
29.851958
 20
30.367563
 30
0.0
 11
28.280519
 21
29.785405
 31
0.0
  0
LINE
  8
0
 10
29.851958
 20
29.107205
 30
0.0
 11
28.49109
 21
29.694527
 31
0.0
  0
LINE
  8
0
 10
29.851958
 20
31.364504
 30
0.0
 11
28.49109
 21
31.942584
 31
0.0
  0
LINE
  8
0
 10
29.851958
 20
32.624861
 30
0.0
 11
28.280519
 21
32.032032
 31
0.0
  0
LINE
  8
0
 10
28.263629
 20
33.14465
 30
0.0
 11
29.851958
 21
33.14465
 31
0.0
  0
LINE
  8
0
 10
29.851958
 20
20.672147
 30
0.0
 11
31.851958
 21
20.672147
 31
0.0
  0
LINE
  8
0
 10
32.851958
 20
22.472147
 30
0.0
 11
29.851958
 21
22.472147
 31
0.0
  0
LINE
  8
0
 10
30.401958
 20
33.972147
 30
0.0
 11
32.851958
 21
33.972147
 31
0.0
  0
LINE
  8
0
 10
32.151958
 20
34.672147
 30
0.0
 11
32.851958
 21
33.972147
 31
0.0
  0
LINE
  8
0
 10
27.551958
 20
34.672147
 30
0.0
 11
26.851958
 21
33.972147
 31
0.0
  0
LINE
  8
0
 10
32.351958
 20
34.472147
 30
0.0
 11
32.351958
 21
21.972147
 31
0.0
  0
LINE
  8
0
 10
27.351958
 20
34.472147
 30
0.0
 11
27.351958
 21
21.972147
 31
0.0
  0
LINE
  8
0
 10
30.401958
 20
34.672147
 30
0.0
 11
32.151958
 21
34.672147
 31
0.0
  0
LINE
  8
0
 10
28.101958
 20
33.172147
 30
0.0
 11
29.851958
 21
33.172147
 31
0.0
  0
LINE
  8
0
 10
29.301958
 20
33.672147
 30
0.0
 11
30.401958
 21
33.672147
 31
0.0
  0
LINE
  8
0
 10
30.401958
 20
34.672147
 30
0.0
 11
30.401958
 21
33.672147
 31
0.0
  0
LINE
  8
0
 10
29.301958
 20
34.672147
 30
0.0
 11
29.301958
 21
33.672147
 31
0.0
  0
LINE
  8
0
 10
28.101958
 20
21.872147
 30
0.0
 11
28.101958
 21
33.172147
 31
0.0
  0
LINE
  8
0
 10
32.151958
 20
20.972147
 30
0.0
 11
29.851958
 21
20.972147
 31
0.0
  0
LINE
  8
0
 10
32.151958
 20
20.972147
 30
0.0
 11
31.851958
 21
20.672147
 31
0.0
  0
LINE
  8
0
 10
27.551958
 20
20.972147
 30
0.0
 11
27.851958
 21
20.672147
 31
0.0
  0
LINE
  8
0
 10
32.151958
 20
21.772147
 30
0.0
 11
32.851958
 21
22.472147
 31
0.0
  0
LINE
  8
0
 10
27.551958
 20
21.772147
 30
0.0
 11
26.851958
 21
22.472147
 31
0.0
  0
LINE
  8
0
 10
29.851958
 20
21.772147
 30
0.0
 11
32.151958
 21
21.772147
 31
0.0
  0
LINE
  8
0
 10
32.151958
 20
21.772147
 30
0.0
 11
32.151958
 21
20.972147
 31
0.0
  0
LINE
  8
0
 10
27.551958
 20
21.772147
 30
0.0
 11
27.551958
 21
20.972147
 31
0.0
  0
LINE
  8
0
 10
27.851958
 20
20.672147
 30
0.0
 11
28.501958
 21
20.672147
 31
0.0
  0
LINE
  8
0
 10
27.551958
 20
34.672147
 30
0.0
 11
29.301958
 21
34.672147
 31
0.0
  0
LINE
  8
0
 10
32.851958
 20
33.972147
 30
0.0
 11
32.851958
 21
22.472147
 31
0.0
  0
LINE
  8
0
 10
26.851958
 20
33.972147
 30
0.0
 11
26.851958
 21
22.472147
 31
0.0
  0
LINE
  8
0
  6
CENTER
 10
29.851958
 20
35.464147
 30
0.0
 11
29.851958
 21
18.107286
 31
0.0
  0
LINE
  8
0
 10
28.501958
 20
20.022148
 30
0.0
 11
28.501958
 21
21.872147
 31
0.0
  0
LINE
  8
0
 10
31.201958
 20
20.022148
 30
0.0
 11
31.201958
 21
20.672147
 31
0.0
  0
ARC
  8
0
 10
29.851958
 20
20.022147
 30
0.0
 40
1.35
 50
180.0
 51
0.000019
  0
LINE
  8
0
 10
28.101958
 20
21.872147
 30
0.0
 11
28.501958
 21
21.872147
 31
0.0
  0
LINE
  8
0
 10
28.201958
 20
23.672147
 30
0.0
 11
29.851958
 21
23.672147
 31
0.0
  0
LINE
  8
0
 10
28.201958
 20
21.872147
 30
0.0
 11
28.201958
 21
23.672147
 31
0.0
  0
LINE
  8
0
 10
28.263629
 20
23.871161
 30
0.0
 11
29.851958
 21
23.871161
 31
0.0
  0
LINE
  8
0
 10
28.263629
 20
23.702275
 30
0.0
 11
29.851958
 21
23.702275
 31
0.0
  0
LINE
  8
0
 10
28.263629
 20
23.871161
 30
0.0
 11
28.263629
 21
23.702275
 31
0.0
  0
LINE
  8
0
 10
40.085972
 20
24.451786
 30
0.0
 11
40.085972
 21
24.201786
 31
0.0
  0
LINE
  8
0
 10
40.139203
 20
25.710939
 30
0.0
 11
40.139203
 21
25.460939
 31
0.0
  0
LINE
  8
0
 10
40.139203
 20
27.880896
 30
0.0
 11
40.139203
 21
27.630896
 31
0.0
  0
LINE
  8
0
 10
40.139203
 20
30.424007
 30
0.0
 11
40.139203
 21
30.174007
 31
0.0
  0
LINE
  8
0
 10
40.139203
 20
32.87383
 30
0.0
 11
40.139203
 21
32.62383
 31
0.0
  0
LINE
  8
0
 10
42.320637
 20
33.282327
 30
0.0
 11
40.553297
 21
32.74883
 31
0.0
  0
LINE
  8
0
 10
42.320637
 20
31.965333
 30
0.0
 11
40.139203
 21
32.62383
 31
0.0
  0
LINE
  8
0
 10
42.320637
 20
30.832504
 30
0.0
 11
40.553297
 21
30.299007
 31
0.0
  0
LINE
  8
0
 10
42.320637
 20
29.51551
 30
0.0
 11
40.139203
 21
30.174007
 31
0.0
  0
LINE
  8
0
 10
42.320637
 20
28.289393
 30
0.0
 11
40.553297
 21
27.755896
 31
0.0
  0
LINE
  8
0
 10
42.320637
 20
26.972398
 30
0.0
 11
40.139203
 21
27.630896
 31
0.0
  0
LINE
  8
0
 10
42.320637
 20
26.119436
 30
0.0
 11
40.553297
 21
25.585939
 31
0.0
  0
LINE
  8
0
 10
42.320637
 20
24.802442
 30
0.0
 11
40.139203
 21
25.460939
 31
0.0
  0
LINE
  8
0
 10
42.320637
 20
25.052442
 30
0.0
 11
40.553297
 21
25.585939
 31
0.0
  0
LINE
  8
0
 10
42.320637
 20
26.369436
 30
0.0
 11
40.139203
 21
25.710939
 31
0.0
  0
LINE
  8
0
 10
42.320637
 20
27.222398
 30
0.0
 11
40.553297
 21
27.755896
 31
0.0
  0
LINE
  8
0
 10
42.320637
 20
28.539393
 30
0.0
 11
40.139203
 21
27.880896
 31
0.0
  0
LINE
  8
0
 10
42.320637
 20
29.76551
 30
0.0
 11
40.553297
 21
30.299007
 31
0.0
  0
LINE
  8
0
 10
42.320637
 20
31.082504
 30
0.0
 11
40.139203
 21
30.424007
 31
0.0
  0
LINE
  8
0
 10
42.320637
 20
32.215333
 30
0.0
 11
40.553297
 21
32.74883
 31
0.0
  0
LINE
  8
0
 10
42.320637
 20
33.532327
 30
0.0
 11
40.139203
 21
32.87383
 31
0.0
  0
LINE
  8
0
 10
42.320637
 20
18.468429
 30
0.0
 11
42.320637
 21
18.401762
 31
0.0
  0
LINE
  8
0
 10
40.09166
 20
34.126728
 30
0.0
 11
40.09166
 21
33.876728
 31
0.0
  0
LINE
  8
0
 10
40.09166
 20
33.876728
 30
0.0
 11
42.320637
 21
33.876728
 31
0.0
  0
LINE
  8
0
 10
40.09166
 20
34.126728
 30
0.0
 11
42.320637
 21
34.126728
 31
0.0
  0
LINE
  8
0
 10
46.320637
 20
35.872147
 30
0.0
 11
42.970637
 21
35.872147
 31
0.0
  0
LINE
  8
0
 10
39.120637
 20
36.672147
 30
0.0
 11
38.320637
 21
35.872147
 31
0.0
  0
LINE
  8
0
 10
46.320637
 20
35.872147
 30
0.0
 11
45.520637
 21
36.672147
 31
0.0
  0
LINE
  8
0
 10
45.720637
 20
36.472147
 30
0.0
 11
45.720637
 21
22.272147
 31
0.0
  0
LINE
  8
0
 10
38.920637
 20
36.472147
 30
0.0
 11
38.920637
 21
22.272147
 31
0.0
  0
LINE
  8
0
  6
CENTER
 10
42.320637
 20
37.368429
 30
0.0
 11
42.320637
 21
18.468429
 31
0.0
  0
LINE
  8
0
 10
46.320637
 20
22.872147
 30
0.0
 11
42.320637
 21
22.872147
 31
0.0
  0
LINE
  8
0
 10
39.620637
 20
20.672147
 30
0.0
 11
39.220637
 21
21.072147
 31
0.0
  0
LINE
  8
0
 10
45.420637
 20
21.072147
 30
0.0
 11
42.320637
 21
21.072147
 31
0.0
  0
LINE
  8
0
 10
45.020637
 20
20.672147
 30
0.0
 11
45.420637
 21
21.072147
 31
0.0
  0
LINE
  8
0
 10
42.320637
 20
20.672147
 30
0.0
 11
45.020637
 21
20.672147
 31
0.0
  0
LINE
  8
0
 10
45.420637
 20
21.972147
 30
0.0
 11
46.320637
 21
22.872147
 31
0.0
  0
LINE
  8
0
 10
39.220637
 20
21.972147
 30
0.0
 11
38.320637
 21
22.872147
 31
0.0
  0
LINE
  8
0
 10
42.320637
 20
21.972147
 30
0.0
 11
45.420637
 21
21.972147
 31
0.0
  0
LINE
  8
0
 10
45.420637
 20
21.972147
 30
0.0
 11
45.420637
 21
21.072147
 31
0.0
  0
LINE
  8
0
 10
39.220637
 20
21.972147
 30
0.0
 11
39.220637
 21
21.072147
 31
0.0
  0
LINE
  8
0
 10
39.820637
 20
34.172147
 30
0.0
 11
42.320637
 21
34.172147
 31
0.0
  0
LINE
  8
0
 10
42.970637
 20
36.672147
 30
0.0
 11
45.520637
 21
36.672147
 31
0.0
  0
LINE
  8
0
 10
41.670637
 20
34.672147
 30
0.0
 11
42.970637
 21
34.672147
 31
0.0
  0
LINE
  8
0
 10
41.670637
 20
36.672147
 30
0.0
 11
41.670637
 21
34.672147
 31
0.0
  0
LINE
  8
0
 10
42.970637
 20
36.672147
 30
0.0
 11
42.970637
 21
34.672147
 31
0.0
  0
LINE
  8
0
 10
39.820637
 20
22.172147
 30
0.0
 11
39.820637
 21
34.172147
 31
0.0
  0
LINE
  8
0
 10
39.620637
 20
20.672147
 30
0.0
 11
40.320637
 21
20.672147
 31
0.0
  0
LINE
  8
0
 10
39.120637
 20
36.672147
 30
0.0
 11
41.670637
 21
36.672147
 31
0.0
  0
LINE
  8
0
 10
38.320637
 20
35.872147
 30
0.0
 11
38.320637
 21
22.872147
 31
0.0
  0
LINE
  8
0
 10
46.320637
 20
35.872147
 30
0.0
 11
46.320637
 21
22.872147
 31
0.0
  0
ARC
  8
0
 10
42.320637
 20
20.672147
 30
0.0
 40
2.0
 50
179.999986
 51
0.0
  0
LINE
  8
0
 10
40.320637
 20
20.672147
 30
0.0
 11
40.320637
 21
22.172147
 31
0.0
  0
LINE
  8
0
 10
39.820637
 20
22.172147
 30
0.0
 11
40.320637
 21
22.172147
 31
0.0
  0
LINE
  8
0
 10
39.920637
 20
24.172147
 30
0.0
 11
42.320637
 21
24.172147
 31
0.0
  0
LINE
  8
0
 10
39.920637
 20
22.172147
 30
0.0
 11
39.920637
 21
24.172147
 31
0.0
  0
LINE
  8
0
 10
40.085972
 20
24.451786
 30
0.0
 11
42.320637
 21
24.451786
 31
0.0
  0
LINE
  8
0
 10
40.085972
 20
24.201786
 30
0.0
 11
42.320637
 21
24.201786
 31
0.0
  0
LINE
  8
0
 10
62.724104
 20
23.422147
 30
0.0
 11
57.724104
 21
23.422147
 31
0.0
  0
LINE
  8
0
 10
62.724104
 20
38.672147
 30
0.0
 11
58.474104
 21
38.672147
 31
0.0
  0
LINE
  8
0
  6
CENTER
 10
57.724104
 20
40.257295
 30
0.0
 11
57.724104
 21
18.09315
 31
0.0
  0
LINE
  8
0
 10
54.975596
 20
26.57484
 30
0.0
 11
54.975596
 21
26.228804
 31
0.0
  0
LINE
  8
0
 10
54.975596
 20
29.561991
 30
0.0
 11
54.975596
 21
29.215955
 31
0.0
  0
LINE
  8
0
 10
54.975596
 20
32.549142
 30
0.0
 11
54.975596
 21
32.203106
 31
0.0
  0
LINE
  8
0
 10
54.975596
 20
35.509178
 30
0.0
 11
54.975596
 21
35.163142
 31
0.0
  0
LINE
  8
0
 10
57.724104
 20
35.949464
 30
0.0
 11
55.580362
 21
35.33616
 31
0.0
  0
LINE
  8
0
 10
57.724104
 20
34.37682
 30
0.0
 11
54.975596
 21
35.163142
 31
0.0
  0
LINE
  8
0
 10
57.724104
 20
31.416784
 30
0.0
 11
54.975596
 21
32.203106
 31
0.0
  0
LINE
  8
0
 10
57.724104
 20
32.989428
 30
0.0
 11
55.580362
 21
32.376124
 31
0.0
  0
LINE
  8
0
 10
57.724104
 20
28.429633
 30
0.0
 11
54.975596
 21
29.215955
 31
0.0
  0
LINE
  8
0
 10
57.724104
 20
30.002277
 30
0.0
 11
55.580362
 21
29.388973
 31
0.0
  0
LINE
  8
0
 10
57.724104
 20
25.442482
 30
0.0
 11
54.975596
 21
26.228804
 31
0.0
  0
LINE
  8
0
 10
57.724104
 20
27.015126
 30
0.0
 11
55.580362
 21
26.401822
 31
0.0
  0
LINE
  8
0
 10
57.724104
 20
27.361162
 30
0.0
 11
54.975596
 21
26.57484
 31
0.0
  0
LINE
  8
0
 10
57.724104
 20
25.788518
 30
0.0
 11
55.580362
 21
26.401822
 31
0.0
  0
LINE
  8
0
 10
57.724104
 20
30.348313
 30
0.0
 11
54.975596
 21
29.561991
 31
0.0
  0
LINE
  8
0
 10
57.724104
 20
28.775669
 30
0.0
 11
55.580362
 21
29.388973
 31
0.0
  0
LINE
  8
0
 10
57.724104
 20
33.335464
 30
0.0
 11
54.975596
 21
32.549142
 31
0.0
  0
LINE
  8
0
 10
57.724104
 20
31.76282
 30
0.0
 11
55.580362
 21
32.376124
 31
0.0
  0
LINE
  8
0
 10
57.724104
 20
34.722856
 30
0.0
 11
55.580362
 21
35.33616
 31
0.0
  0
LINE
  8
0
 10
57.724104
 20
36.2955
 30
0.0
 11
54.975596
 21
35.509178
 31
0.0
  0
LINE
  8
0
 10
55.014288
 20
37.084099
 30
0.0
 11
55.014288
 21
36.738063
 31
0.0
  0
LINE
  8
0
 10
55.014288
 20
36.738063
 30
0.0
 11
57.724104
 21
36.738063
 31
0.0
  0
LINE
  8
0
 10
55.014288
 20
37.084099
 30
0.0
 11
57.724104
 21
37.084099
 31
0.0
  0
LINE
  8
0
 10
54.724104
 20
37.172147
 30
0.0
 11
57.724104
 21
37.172147
 31
0.0
  0
LINE
  8
0
 10
61.724104
 20
39.672147
 30
0.0
 11
62.724104
 21
38.672147
 31
0.0
  0
LINE
  8
0
 10
53.724104
 20
39.672147
 30
0.0
 11
52.724104
 21
38.672147
 31
0.0
  0
LINE
  8
0
 10
61.974104
 20
39.422147
 30
0.0
 11
61.974104
 21
22.672147
 31
0.0
  0
LINE
  8
0
 10
53.474104
 20
39.422147
 30
0.0
 11
53.474104
 21
22.672147
 31
0.0
  0
LINE
  8
0
 10
57.724104
 20
20.672147
 30
0.0
 11
60.874104
 21
20.672147
 31
0.0
  0
LINE
  8
0
 10
61.274104
 20
21.072147
 30
0.0
 11
57.724104
 21
21.072147
 31
0.0
  0
LINE
  8
0
 10
60.874104
 20
20.672147
 30
0.0
 11
61.274104
 21
21.072147
 31
0.0
  0
LINE
  8
0
 10
54.174104
 20
21.072147
 30
0.0
 11
54.574104
 21
20.672147
 31
0.0
  0
LINE
  8
0
 10
61.274104
 20
21.972147
 30
0.0
 11
62.724104
 21
23.422147
 31
0.0
  0
LINE
  8
0
 10
54.174104
 20
21.972147
 30
0.0
 11
52.724104
 21
23.422147
 31
0.0
  0
LINE
  8
0
 10
57.724104
 20
21.972147
 30
0.0
 11
61.274104
 21
21.972147
 31
0.0
  0
LINE
  8
0
 10
61.274104
 20
21.972147
 30
0.0
 11
61.274104
 21
21.072147
 31
0.0
  0
LINE
  8
0
 10
54.174104
 20
21.972147
 30
0.0
 11
54.174104
 21
21.072147
 31
0.0
  0
LINE
  8
0
 10
58.474104
 20
39.672147
 30
0.0
 11
61.724104
 21
39.672147
 31
0.0
  0
LINE
  8
0
 10
56.974104
 20
37.672147
 30
0.0
 11
58.474104
 21
37.672147
 31
0.0
  0
LINE
  8
0
 10
58.474104
 20
39.672147
 30
0.0
 11
58.474104
 21
37.672147
 31
0.0
  0
LINE
  8
0
 10
56.974104
 20
39.672147
 30
0.0
 11
56.974104
 21
37.672147
 31
0.0
  0
LINE
  8
0
 10
54.724104
 20
22.472147
 30
0.0
 11
54.724104
 21
37.172147
 31
0.0
  0
LINE
  8
0
 10
54.574104
 20
20.672147
 30
0.0
 11
55.474104
 21
20.672147
 31
0.0
  0
LINE
  8
0
 10
53.724104
 20
39.672147
 30
0.0
 11
56.974104
 21
39.672147
 31
0.0
  0
LINE
  8
0
 10
62.724104
 20
38.672147
 30
0.0
 11
62.724104
 21
23.422147
 31
0.0
  0
LINE
  8
0
 10
52.724104
 20
38.672147
 30
0.0
 11
52.724104
 21
23.422147
 31
0.0
  0
LINE
  8
0
  6
CENTER
 10
75.987099
 20
44.737866
 30
0.0
 11
75.987099
 21
17.05348
 31
0.0
  0
LINE
  8
0
 10
81.987099
 20
23.322147
 30
0.0
 11
75.987099
 21
23.322147
 31
0.0
  0
LINE
  8
0
 10
81.987099
 20
41.472147
 30
0.0
 11
77.087099
 21
41.472147
 31
0.0
  0
LINE
  8
0
 10
75.987099
 20
20.672147
 30
0.0
 11
80.037099
 21
20.672147
 31
0.0
  0
LINE
  8
0
 10
72.413621
 20
28.049838
 30
0.0
 11
72.413621
 21
27.689838
 31
0.0
  0
LINE
  8
0
 10
72.413621
 20
31.351586
 30
0.0
 11
72.413621
 21
30.991586
 31
0.0
  0
LINE
  8
0
 10
72.413621
 20
34.58494
 30
0.0
 11
72.413621
 21
34.22494
 31
0.0
  0
LINE
  8
0
 10
72.413621
 20
37.7499
 30
0.0
 11
72.413621
 21
37.3899
 31
0.0
  0
LINE
  8
0
 10
72.413621
 20
39.44355
 30
0.0
 11
72.413621
 21
39.08355
 31
0.0
  0
LINE
  8
0
 10
72.413621
 20
39.08355
 30
0.0
 11
75.987099
 21
39.08355
 31
0.0
  0
LINE
  8
0
 10
75.987099
 20
38.237762
 30
0.0
 11
73.172266
 21
37.5699
 31
0.0
  0
LINE
  8
0
 10
75.987099
 20
36.542039
 30
0.0
 11
72.413621
 21
37.3899
 31
0.0
  0
LINE
  8
0
 10
75.987099
 20
33.377079
 30
0.0
 11
72.413621
 21
34.22494
 31
0.0
  0
LINE
  8
0
 10
75.987099
 20
35.072802
 30
0.0
 11
73.172266
 21
34.40494
 31
0.0
  0
LINE
  8
0
 10
75.987099
 20
30.143725
 30
0.0
 11
72.413621
 21
30.991586
 31
0.0
  0
LINE
  8
0
 10
75.987099
 20
31.839447
 30
0.0
 11
73.172266
 21
31.171586
 31
0.0
  0
LINE
  8
0
 10
75.987099
 20
26.841976
 30
0.0
 11
72.413621
 21
27.689838
 31
0.0
  0
LINE
  8
0
 10
75.987099
 20
28.537699
 30
0.0
 11
73.172266
 21
27.869838
 31
0.0
  0
LINE
  8
0
 10
75.987099
 20
28.897699
 30
0.0
 11
72.413621
 21
28.049838
 31
0.0
  0
LINE
  8
0
 10
75.987099
 20
27.201976
 30
0.0
 11
73.172266
 21
27.869838
 31
0.0
  0
LINE
  8
0
 10
75.987099
 20
32.199447
 30
0.0
 11
72.413621
 21
31.351586
 31
0.0
  0
LINE
  8
0
 10
75.987099
 20
30.503725
 30
0.0
 11
73.172266
 21
31.171586
 31
0.0
  0
LINE
  8
0
 10
75.987099
 20
35.432802
 30
0.0
 11
72.413621
 21
34.58494
 31
0.0
  0
LINE
  8
0
 10
75.987099
 20
33.737079
 30
0.0
 11
73.172266
 21
34.40494
 31
0.0
  0
LINE
  8
0
 10
75.987099
 20
36.902039
 30
0.0
 11
73.172266
 21
37.5699
 31
0.0
  0
LINE
  8
0
 10
75.987099
 20
38.597762
 30
0.0
 11
72.413621
 21
37.7499
 31
0.0
  0
LINE
  8
0
 10
72.413621
 20
39.44355
 30
0.0
 11
75.987099
 21
39.44355
 31
0.0
  0
LINE
  8
0
 10
80.337099
 20
20.972147
 30
0.0
 11
75.987099
 21
20.972147
 31
0.0
  0
LINE
  8
0
 10
80.037099
 20
20.672147
 30
0.0
 11
80.337099
 21
20.972147
 31
0.0
  0
LINE
  8
0
 10
71.637099
 20
20.972147
 30
0.0
 11
71.937099
 21
20.672147
 31
0.0
  0
LINE
  8
0
 10
71.987099
 20
39.472147
 30
0.0
 11
75.987099
 21
39.472147
 31
0.0
  0
LINE
  8
0
 10
77.087099
 20
42.672147
 30
0.0
 11
80.787099
 21
42.672147
 31
0.0
  0
LINE
  8
0
 10
74.887099
 20
40.472147
 30
0.0
 11
77.087099
 21
40.472147
 31
0.0
  0
LINE
  8
0
 10
77.087099
 20
42.672147
 30
0.0
 11
77.087099
 21
40.472147
 31
0.0
  0
LINE
  8
0
 10
74.887099
 20
42.672147
 30
0.0
 11
74.887099
 21
40.472147
 31
0.0
  0
LINE
  8
0
 10
71.987099
 20
22.972147
 30
0.0
 11
71.987099
 21
39.472147
 31
0.0
  0
LINE
  8
0
 10
80.787099
 20
42.672147
 30
0.0
 11
81.987099
 21
41.472147
 31
0.0
  0
LINE
  8
0
 10
71.187099
 20
42.672147
 30
0.0
 11
69.987099
 21
41.472147
 31
0.0
  0
LINE
  8
0
 10
81.087099
 20
42.372147
 30
0.0
 11
81.087099
 21
22.422147
 31
0.0
  0
LINE
  8
0
 10
70.887099
 20
42.372147
 30
0.0
 11
70.887099
 21
22.422147
 31
0.0
  0
LINE
  8
0
 10
80.337099
 20
21.672147
 30
0.0
 11
81.987099
 21
23.322147
 31
0.0
  0
LINE
  8
0
 10
71.637099
 20
21.672147
 30
0.0
 11
69.987099
 21
23.322147
 31
0.0
  0
LINE
  8
0
 10
75.987099
 20
21.672147
 30
0.0
 11
80.337099
 21
21.672147
 31
0.0
  0
LINE
  8
0
 10
80.337099
 20
21.672147
 30
0.0
 11
80.337099
 21
20.972147
 31
0.0
  0
LINE
  8
0
 10
71.637099
 20
21.672147
 30
0.0
 11
71.637099
 21
20.972147
 31
0.0
  0
LINE
  8
0
 10
71.937099
 20
20.672147
 30
0.0
 11
72.987099
 21
20.672147
 31
0.0
  0
LINE
  8
0
 10
71.187099
 20
42.672147
 30
0.0
 11
74.887099
 21
42.672147
 31
0.0
  0
LINE
  8
0
 10
81.987099
 20
41.472147
 30
0.0
 11
81.987099
 21
23.322147
 31
0.0
  0
LINE
  8
0
 10
69.987099
 20
41.472147
 30
0.0
 11
69.987099
 21
23.322147
 31
0.0
  0
ARC
  8
0
 10
57.724104
 20
20.422147
 30
0.0
 40
2.25
 50
180.0
 51
0.0
  0
LINE
  8
0
 10
59.974104
 20
20.422147
 30
0.0
 11
59.974104
 21
20.672147
 31
0.0
  0
LINE
  8
0
 10
55.474104
 20
20.422147
 30
0.0
 11
55.474104
 21
22.472147
 31
0.0
  0
LINE
  8
0
 10
54.724104
 20
22.472147
 30
0.0
 11
55.474104
 21
22.472147
 31
0.0
  0
LINE
  8
0
 10
54.824104
 20
24.772147
 30
0.0
 11
57.724104
 21
24.772147
 31
0.0
  0
LINE
  8
0
 10
54.824104
 20
22.472147
 30
0.0
 11
54.824104
 21
24.772147
 31
0.0
  0
LINE
  8
0
 10
55.014288
 20
25.148949
 30
0.0
 11
57.724104
 21
25.148949
 31
0.0
  0
LINE
  8
0
 10
55.014288
 20
24.802914
 30
0.0
 11
57.724104
 21
24.802914
 31
0.0
  0
LINE
  8
0
 10
55.014288
 20
25.148949
 30
0.0
 11
55.014288
 21
24.802914
 31
0.0
  0
ARC
  8
0
 10
75.987099
 20
20.172147
 30
0.0
 40
3.0
 50
179.999997
 51
0.000006
  0
LINE
  8
0
 10
72.987099
 20
20.172147
 30
0.0
 11
72.987099
 21
22.972147
 31
0.0
  0
LINE
  8
0
 10
78.987099
 20
20.172147
 30
0.0
 11
78.987099
 21
20.672147
 31
0.0
  0
LINE
  8
0
 10
72.087099
 20
22.972147
 30
0.0
 11
72.087099
 21
25.972147
 31
0.0
  0
LINE
  8
0
 10
71.987099
 20
22.972147
 30
0.0
 11
72.987099
 21
22.972147
 31
0.0
  0
LINE
  8
0
 10
72.087099
 20
25.972147
 30
0.0
 11
75.987099
 21
25.972147
 31
0.0
  0
LINE
  8
0
 10
72.413621
 20
25.992147
 30
0.0
 11
75.987099
 21
25.992147
 31
0.0
  0
LINE
  8
0
 10
72.413621
 20
26.352147
 30
0.0
 11
75.987099
 21
26.352147
 31
0.0
  0
LINE
  8
0
 10
72.413621
 20
26.352147
 30
0.0
 11
72.413621
 21
25.972147
 31
0.0
  0
LINE
  8
0
 10
98.346427
 20
20.672147
 30
0.0
 11
104.046427
 21
20.672147
 31
0.0
  0
LINE
  8
0
 10
92.346427
 20
20.972147
 30
0.0
 11
92.646427
 21
20.672147
 31
0.0
  0
LINE
  8
0
 10
104.346427
 20
20.972147
 30
0.0
 11
104.046427
 21
20.672147
 31
0.0
  0
LINE
  8
0
 10
98.346427
 20
20.972147
 30
0.0
 11
104.346427
 21
20.972147
 31
0.0
  0
ARC
  8
0
 10
98.346427
 20
22.172147
 30
0.0
 40
5.0
 50
90.0
 51
90.038587
  0
LINE
  8
0
 10
94.059707
 20
28.953149
 30
0.0
 11
94.059707
 21
28.603149
 31
0.0
  0
LINE
  8
0
 10
94.059707
 20
32.164827
 30
0.0
 11
94.059707
 21
31.814827
 31
0.0
  0
LINE
  8
0
 10
94.059707
 20
35.2496
 30
0.0
 11
94.059707
 21
34.8996
 31
0.0
  0
LINE
  8
0
 10
94.059707
 20
38.572321
 30
0.0
 11
94.059707
 21
38.222321
 31
0.0
  0
LINE
  8
0
 10
94.059707
 20
40.638191
 30
0.0
 11
94.059707
 21
40.288191
 31
0.0
  0
LINE
  8
0
 10
98.346427
 20
27.837114
 30
0.0
 11
94.059707
 21
28.603149
 31
0.0
  0
LINE
  8
0
 10
98.346427
 20
29.369184
 30
0.0
 11
95.039004
 21
28.778149
 31
0.0
  0
LINE
  8
0
 10
98.346427
 20
31.048792
 30
0.0
 11
94.059707
 21
31.814827
 31
0.0
  0
LINE
  8
0
 10
98.346427
 20
32.580862
 30
0.0
 11
95.039004
 21
31.989827
 31
0.0
  0
LINE
  8
0
 10
98.346427
 20
34.133565
 30
0.0
 11
94.059707
 21
34.8996
 31
0.0
  0
LINE
  8
0
 10
98.346427
 20
35.665635
 30
0.0
 11
95.039004
 21
35.0746
 31
0.0
  0
LINE
  8
0
 10
98.346427
 20
37.456286
 30
0.0
 11
94.059707
 21
38.222321
 31
0.0
  0
LINE
  8
0
 10
98.346427
 20
38.988356
 30
0.0
 11
95.039004
 21
38.397321
 31
0.0
  0
LINE
  8
0
 10
94.059707
 20
40.288191
 30
0.0
 11
98.346427
 21
40.288191
 31
0.0
  0
LINE
  8
0
 10
98.346427
 20
28.187114
 30
0.0
 11
95.039004
 21
28.778149
 31
0.0
  0
LINE
  8
0
 10
98.346427
 20
29.719184
 30
0.0
 11
94.059707
 21
28.953149
 31
0.0
  0
LINE
  8
0
 10
98.346427
 20
31.398792
 30
0.0
 11
95.039004
 21
31.989827
 31
0.0
  0
LINE
  8
0
 10
98.346427
 20
32.930862
 30
0.0
 11
94.059707
 21
32.164827
 31
0.0
  0
LINE
  8
0
 10
98.346427
 20
34.483565
 30
0.0
 11
95.039004
 21
35.0746
 31
0.0
  0
LINE
  8
0
 10
98.346427
 20
36.015635
 30
0.0
 11
94.059707
 21
35.2496
 31
0.0
  0
LINE
  8
0
 10
98.346427
 20
37.806286
 30
0.0
 11
95.039004
 21
38.397321
 31
0.0
  0
LINE
  8
0
 10
98.346427
 20
39.338356
 30
0.0
 11
94.059707
 21
38.572321
 31
0.0
  0
LINE
  8
0
 10
94.059707
 20
40.638191
 30
0.0
 11
98.346427
 21
40.638191
 31
0.0
  0
LINE
  8
0
 10
93.346427
 20
40.672147
 30
0.0
 11
98.346427
 21
40.672147
 31
0.0
  0
LINE
  8
0
 10
93.346427
 20
23.172147
 30
0.0
 11
93.346427
 21
40.672147
 31
0.0
  0
LINE
  8
0
 10
91.346427
 20
43.972147
 30
0.0
 11
91.346427
 21
22.672147
 31
0.0
  0
LINE
  8
0
 10
105.346427
 20
43.972147
 30
0.0
 11
105.346427
 21
22.672147
 31
0.0
  0
LINE
  8
0
 10
106.346427
 20
42.972147
 30
0.0
 11
99.296427
 21
42.972147
 31
0.0
  0
LINE
  8
0
 10
106.346427
 20
23.672147
 30
0.0
 11
98.346427
 21
23.672147
 31
0.0
  0
LINE
  8
0
 10
98.346427
 20
21.672147
 30
0.0
 11
104.346427
 21
21.672147
 31
0.0
  0
LINE
  8
0
 10
92.646427
 20
20.672147
 30
0.0
 11
94.096427
 21
20.672147
 31
0.0
  0
LINE
  8
0
 10
92.346427
 20
21.672147
 30
0.0
 11
90.346427
 21
23.672147
 31
0.0
  0
LINE
  8
0
 10
104.346427
 20
21.672147
 30
0.0
 11
106.346427
 21
23.672147
 31
0.0
  0
LINE
  8
0
 10
104.346427
 20
21.672147
 30
0.0
 11
104.346427
 21
20.972147
 31
0.0
  0
LINE
  8
0
 10
92.346427
 20
21.672147
 30
0.0
 11
92.346427
 21
20.972147
 31
0.0
  0
LINE
  8
0
  6
CENTER
 10
98.346427
 20
47.313747
 30
0.0
 11
98.346427
 21
14.785114
 31
0.0
  0
LINE
  8
0
 10
104.646427
 20
44.672147
 30
0.0
 11
106.346427
 21
42.972147
 31
0.0
  0
LINE
  8
0
 10
90.346427
 20
42.972147
 30
0.0
 11
92.046427
 21
44.672147
 31
0.0
  0
LINE
  8
0
 10
99.296427
 20
44.672147
 30
0.0
 11
104.646427
 21
44.672147
 31
0.0
  0
LINE
  8
0
 10
97.396427
 20
41.672147
 30
0.0
 11
99.296427
 21
41.672147
 31
0.0
  0
LINE
  8
0
 10
99.296427
 20
44.672147
 30
0.0
 11
99.296427
 21
41.672147
 31
0.0
  0
LINE
  8
0
 10
97.396427
 20
44.672147
 30
0.0
 11
97.396427
 21
41.672147
 31
0.0
  0
LINE
  8
0
 10
92.046427
 20
44.672147
 30
0.0
 11
97.396427
 21
44.672147
 31
0.0
  0
LINE
  8
0
 10
106.346427
 20
42.972147
 30
0.0
 11
106.346427
 21
23.672147
 31
0.0
  0
LINE
  8
0
 10
90.346427
 20
42.972147
 30
0.0
 11
90.346427
 21
23.672147
 31
0.0
  0
ARC
  8
0
 10
98.346427
 20
20.422147
 30
0.0
 40
4.25
 50
180.0
 51
3.372287
  0
LINE
  8
0
 10
93.346427
 20
23.172147
 30
0.0
 11
94.096427
 21
23.172147
 31
0.0
  0
LINE
  8
0
 10
93.446427
 20
26.372147
 30
0.0
 11
98.346427
 21
26.372147
 31
0.0
  0
LINE
  8
0
 10
94.096427
 20
20.422147
 30
0.0
 11
94.096427
 21
23.172147
 31
0.0
  0
LINE
  8
0
 10
93.446427
 20
23.172147
 30
0.0
 11
93.446427
 21
26.372147
 31
0.0
  0
LINE
  8
0
 10
94.059707
 20
26.402147
 30
0.0
 11
98.346427
 21
26.402147
 31
0.0
  0
LINE
  8
0
 10
94.059707
 20
26.742147
 30
0.0
 11
94.059707
 21
26.402147
 31
0.0
  0
LINE
  8
0
 10
94.059707
 20
26.742147
 30
0.0
 11
98.346427
 21
26.742147
 31
0.0
  0
LINE
  8
0
 10
120.081328
 20
30.168896
 30
0.0
 11
120.081328
 21
29.768896
 31
0.0
  0
LINE
  8
0
 10
120.081328
 20
34.551987
 30
0.0
 11
120.081328
 21
34.151987
 31
0.0
  0
LINE
  8
0
 10
120.081328
 20
38.703891
 30
0.0
 11
120.081328
 21
38.303891
 31
0.0
  0
LINE
  8
0
 10
120.081328
 20
42.855796
 30
0.0
 11
120.081328
 21
42.455796
 31
0.0
  0
LINE
  8
0
 10
120.062281
 20
45.373103
 30
0.0
 11
120.062281
 21
44.973103
 31
0.0
  0
LINE
  8
0
 10
120.062281
 20
44.973103
 30
0.0
 11
125.094429
 21
44.973103
 31
0.0
  0
LINE
  8
0
 10
125.094429
 20
43.465735
 30
0.0
 11
121.074081
 21
42.655796
 31
0.0
  0
LINE
  8
0
 10
125.094429
 20
41.445857
 30
0.0
 11
120.081328
 21
42.455796
 31
0.0
  0
LINE
  8
0
 10
125.094429
 20
37.293952
 30
0.0
 11
120.081328
 21
38.303891
 31
0.0
  0
LINE
  8
0
 10
125.094429
 20
39.31383
 30
0.0
 11
121.074081
 21
38.503891
 31
0.0
  0
LINE
  8
0
 10
125.094429
 20
33.142048
 30
0.0
 11
120.081328
 21
34.151987
 31
0.0
  0
LINE
  8
0
 10
125.094429
 20
35.161926
 30
0.0
 11
121.074081
 21
34.351987
 31
0.0
  0
LINE
  8
0
 10
125.094429
 20
28.758957
 30
0.0
 11
120.081328
 21
29.768896
 31
0.0
  0
LINE
  8
0
 10
125.094429
 20
30.778835
 30
0.0
 11
121.074081
 21
29.968896
 31
0.0
  0
LINE
  8
0
 10
125.094429
 20
31.178835
 30
0.0
 11
120.081328
 21
30.168896
 31
0.0
  0
LINE
  8
0
 10
125.094429
 20
29.158957
 30
0.0
 11
121.074081
 21
29.968896
 31
0.0
  0
LINE
  8
0
 10
125.094429
 20
35.561926
 30
0.0
 11
120.081328
 21
34.551987
 31
0.0
  0
LINE
  8
0
 10
125.094429
 20
33.542048
 30
0.0
 11
121.074081
 21
34.351987
 31
0.0
  0
LINE
  8
0
 10
125.094429
 20
39.71383
 30
0.0
 11
120.081328
 21
38.703891
 31
0.0
  0
LINE
  8
0
 10
125.094429
 20
37.693952
 30
0.0
 11
121.074081
 21
38.503891
 31
0.0
  0
LINE
  8
0
 10
125.094429
 20
41.845857
 30
0.0
 11
121.074081
 21
42.655796
 31
0.0
  0
LINE
  8
0
 10
125.094429
 20
43.865735
 30
0.0
 11
120.081328
 21
42.855796
 31
0.0
  0
LINE
  8
0
 10
120.062281
 20
45.373103
 30
0.0
 11
125.094429
 21
45.373103
 31
0.0
  0
LINE
  8
0
 10
119.094429
 20
45.472147
 30
0.0
 11
125.094429
 21
45.472147
 31
0.0
  0
LINE
  8
0
 10
119.094429
 20
23.472147
 30
0.0
 11
119.094429
 21
45.472147
 31
0.0
  0
LINE
  8
0
 10
116.344429
 20
48.922147
 30
0.0
 11
116.344429
 21
23.722147
 31
0.0
  0
LINE
  8
0
 10
133.844429
 20
48.922147
 30
0.0
 11
133.844429
 21
23.722147
 31
0.0
  0
LINE
  8
0
 10
135.094429
 20
47.672147
 30
0.0
 11
126.344429
 21
47.672147
 31
0.0
  0
LINE
  8
0
 10
118.094429
 20
50.672147
 30
0.0
 11
115.094429
 21
47.672147
 31
0.0
  0
LINE
  8
0
 10
132.094429
 20
50.672147
 30
0.0
 11
135.094429
 21
47.672147
 31
0.0
  0
LINE
  8
0
 10
135.094429
 20
24.972147
 30
0.0
 11
125.094429
 21
24.972147
 31
0.0
  0
LINE
  8
0
 10
132.594429
 20
21.472147
 30
0.0
 11
125.094429
 21
21.472147
 31
0.0
  0
LINE
  8
0
 10
118.394429
 20
20.672147
 30
0.0
 11
117.594429
 21
21.472147
 31
0.0
  0
LINE
  8
0
 10
131.794429
 20
20.672147
 30
0.0
 11
132.594429
 21
21.472147
 31
0.0
  0
LINE
  8
0
 10
125.094429
 20
20.672147
 30
0.0
 11
131.794429
 21
20.672147
 31
0.0
  0
LINE
  8
0
 10
125.094429
 20
22.472147
 30
0.0
 11
132.594429
 21
22.472147
 31
0.0
  0
LINE
  8
0
 10
117.594429
 20
22.472147
 30
0.0
 11
115.094429
 21
24.972147
 31
0.0
  0
LINE
  8
0
 10
132.594429
 20
22.472147
 30
0.0
 11
135.094429
 21
24.972147
 31
0.0
  0
LINE
  8
0
 10
132.594429
 20
22.472147
 30
0.0
 11
132.594429
 21
21.472147
 31
0.0
  0
LINE
  8
0
 10
117.594429
 20
22.472147
 30
0.0
 11
117.594429
 21
21.472147
 31
0.0
  0
LINE
  8
0
 10
126.344429
 20
50.672147
 30
0.0
 11
132.094429
 21
50.672147
 31
0.0
  0
LINE
  8
0
 10
123.844429
 20
46.972147
 30
0.0
 11
126.344429
 21
46.972147
 31
0.0
  0
LINE
  8
0
 10
126.344429
 20
50.672147
 30
0.0
 11
126.344429
 21
46.972147
 31
0.0
  0
LINE
  8
0
 10
123.844429
 20
50.672147
 30
0.0
 11
123.844429
 21
46.972147
 31
0.0
  0
LINE
  8
0
  6
CENTER
 10
125.094429
 20
54.186112
 30
0.0
 11
125.094429
 21
11.04383
 31
0.0
  0
LINE
  8
0
 10
118.394429
 20
20.672147
 30
0.0
 11
120.094429
 21
20.672147
 31
0.0
  0
LINE
  8
0
 10
118.094429
 20
50.672147
 30
0.0
 11
123.844429
 21
50.672147
 31
0.0
  0
LINE
  8
0
 10
135.094429
 20
47.672147
 30
0.0
 11
135.094429
 21
24.972147
 31
0.0
  0
LINE
  8
0
 10
115.094429
 20
47.672147
 30
0.0
 11
115.094429
 21
24.972147
 31
0.0
  0
ARC
  8
0
 10
125.094429
 20
19.172147
 30
0.0
 40
5.0
 50
179.999995
 51
0.000003
  0
LINE
  8
0
 10
130.094429
 20
19.172147
 30
0.0
 11
130.094429
 21
20.672147
 31
0.0
  0
LINE
  8
0
 10
120.094429
 20
19.172147
 30
0.0
 11
120.094429
 21
23.472147
 31
0.0
  0
LINE
  8
0
 10
119.094429
 20
23.472147
 30
0.0
 11
120.094429
 21
23.472147
 31
0.0
  0
LINE
  8
0
 10
119.194429
 20
26.972147
 30
0.0
 11
125.094429
 21
26.972147
 31
0.0
  0
LINE
  8
0
 10
119.194429
 20
23.472147
 30
0.0
 11
119.194429
 21
26.972147
 31
0.0
  0
LINE
  8
0
 10
120.062281
 20
27.471192
 30
0.0
 11
125.094429
 21
27.471192
 31
0.0
  0
LINE
  8
0
 10
120.062281
 20
27.071192
 30
0.0
 11
125.094429
 21
27.071192
 31
0.0
  0
LINE
  8
0
 10
120.062281
 20
27.071192
 30
0.0
 11
120.062281
 21
27.471192
 31
0.0
  0
LINE
  8
0
 10
149.918262
 20
31.599887
 30
0.0
 11
149.918262
 21
31.199887
 31
0.0
  0
LINE
  8
0
 10
149.918262
 20
36.288469
 30
0.0
 11
149.918262
 21
35.888469
 31
0.0
  0
LINE
  8
0
 10
149.918262
 20
41.022237
 30
0.0
 11
149.918262
 21
40.622237
 31
0.0
  0
LINE
  8
0
 10
149.918262
 20
45.710819
 30
0.0
 11
149.918262
 21
45.310819
 31
0.0
  0
LINE
  8
0
 10
149.943443
 20
48.134184
 30
0.0
 11
149.943443
 21
47.734184
 31
0.0
  0
LINE
  8
0
 10
149.943443
 20
47.734184
 30
0.0
 11
156.983368
 21
47.734184
 31
0.0
  0
LINE
  8
0
 10
156.983368
 20
46.309298
 30
0.0
 11
151.333435
 21
45.510819
 31
0.0
  0
LINE
  8
0
 10
156.983368
 20
44.31234
 30
0.0
 11
149.918262
 21
45.310819
 31
0.0
  0
LINE
  8
0
 10
156.983368
 20
39.623757
 30
0.0
 11
149.918262
 21
40.622237
 31
0.0
  0
LINE
  8
0
 10
156.983368
 20
41.620716
 30
0.0
 11
151.333435
 21
40.822237
 31
0.0
  0
LINE
  8
0
 10
156.983368
 20
34.88999
 30
0.0
 11
149.918262
 21
35.888469
 31
0.0
  0
LINE
  8
0
 10
156.983368
 20
36.886948
 30
0.0
 11
151.333435
 21
36.088469
 31
0.0
  0
LINE
  8
0
 10
156.983368
 20
30.201408
 30
0.0
 11
149.918262
 21
31.199887
 31
0.0
  0
LINE
  8
0
 10
156.983368
 20
32.198366
 30
0.0
 11
151.333435
 21
31.399887
 31
0.0
  0
LINE
  8
0
 10
156.983368
 20
32.598366
 30
0.0
 11
149.918262
 21
31.599887
 31
0.0
  0
LINE
  8
0
 10
156.983368
 20
30.601408
 30
0.0
 11
151.333435
 21
31.399887
 31
0.0
  0
LINE
  8
0
 10
156.983368
 20
37.286948
 30
0.0
 11
149.918262
 21
36.288469
 31
0.0
  0
LINE
  8
0
 10
156.983368
 20
35.28999
 30
0.0
 11
151.333435
 21
36.088469
 31
0.0
  0
LINE
  8
0
 10
156.983368
 20
42.020716
 30
0.0
 11
149.918262
 21
41.022237
 31
0.0
  0
LINE
  8
0
 10
156.983368
 20
40.023757
 30
0.0
 11
151.333435
 21
40.822237
 31
0.0
  0
LINE
  8
0
 10
156.983368
 20
44.71234
 30
0.0
 11
151.333435
 21
45.510819
 31
0.0
  0
LINE
  8
0
 10
156.983368
 20
46.709298
 30
0.0
 11
149.918262
 21
45.710819
 31
0.0
  0
LINE
  8
0
 10
149.943443
 20
48.134184
 30
0.0
 11
156.983368
 21
48.134184
 31
0.0
  0
LINE
  8
0
 10
168.983368
 20
52.189791
 30
0.0
 11
158.483368
 21
52.189791
 31
0.0
  0
LINE
  8
0
 10
168.983368
 20
25.889791
 30
0.0
 11
156.983368
 21
25.889791
 31
0.0
  0
LINE
  8
0
 10
146.883368
 20
54.089791
 30
0.0
 11
146.883368
 21
23.989791
 31
0.0
  0
LINE
  8
0
 10
167.083368
 20
54.089791
 30
0.0
 11
167.083368
 21
23.989791
 31
0.0
  0
LINE
  8
0
 10
149.483368
 20
24.289791
 30
0.0
 11
149.483368
 21
48.289791
 31
0.0
  0
LINE
  8
0
 10
149.483368
 20
48.289791
 30
0.0
 11
156.983368
 21
48.289791
 31
0.0
  0
LINE
  8
0
 10
144.983368
 20
52.189791
 30
0.0
 11
147.583368
 21
54.789791
 31
0.0
  0
LINE
  8
0
 10
166.383368
 20
54.789791
 30
0.0
 11
168.983368
 21
52.189791
 31
0.0
  0
LINE
  8
0
 10
165.883368
 20
21.589791
 30
0.0
 11
156.983368
 21
21.589791
 31
0.0
  0
LINE
  8
0
 10
148.083368
 20
21.589791
 30
0.0
 11
148.883368
 21
20.789791
 31
0.0
  0
LINE
  8
0
 10
165.083368
 20
20.789791
 30
0.0
 11
165.883368
 21
21.589791
 31
0.0
  0
LINE
  8
0
 10
156.983368
 20
20.789791
 30
0.0
 11
165.083368
 21
20.789791
 31
0.0
  0
LINE
  8
0
 10
148.083368
 20
22.789791
 30
0.0
 11
144.983368
 21
25.889791
 31
0.0
  0
LINE
  8
0
 10
165.883368
 20
22.789791
 30
0.0
 11
168.983368
 21
25.889791
 31
0.0
  0
LINE
  8
0
 10
148.083368
 20
22.789791
 30
0.0
 11
148.083368
 21
21.589791
 31
0.0
  0
LINE
  8
0
 10
165.883368
 20
22.789791
 30
0.0
 11
165.883368
 21
21.589791
 31
0.0
  0
LINE
  8
0
 10
156.983368
 20
22.789791
 30
0.0
 11
165.883368
 21
22.789791
 31
0.0
  0
LINE
  8
0
 10
158.483368
 20
54.789791
 30
0.0
 11
166.383368
 21
54.789791
 31
0.0
  0
LINE
  8
0
 10
155.483368
 20
49.789791
 30
0.0
 11
158.483368
 21
49.789791
 31
0.0
  0
LINE
  8
0
 10
158.483368
 20
54.789791
 30
0.0
 11
158.483368
 21
49.789791
 31
0.0
  0
LINE
  8
0
 10
155.483368
 20
54.789791
 30
0.0
 11
155.483368
 21
49.789791
 31
0.0
  0
LINE
  8
0
  6
CENTER
 10
156.983368
 20
58.323617
 30
0.0
 11
156.983368
 21
11.693513
 31
0.0
  0
LINE
  8
0
 10
148.883368
 20
20.789791
 30
0.0
 11
150.983368
 21
20.789791
 31
0.0
  0
LINE
  8
0
 10
147.583368
 20
54.789791
 30
0.0
 11
155.483368
 21
54.789791
 31
0.0
  0
LINE
  8
0
 10
168.983368
 20
52.189791
 30
0.0
 11
168.983368
 21
25.889791
 31
0.0
  0
LINE
  8
0
 10
168.983368
 20
52.189791
 30
0.0
 11
168.983368
 21
25.889791
 31
0.0
  0
LINE
  8
0
 10
144.983368
 20
52.189791
 30
0.0
 11
144.983368
 21
25.889791
 31
0.0
  0
ARC
  8
0
 10
156.983368
 20
18.789791
 30
0.0
 40
6.0
 50
180.000005
 51
0.0
  0
LINE
  8
0
 10
150.983368
 20
18.789791
 30
0.0
 11
150.983368
 21
24.289791
 31
0.0
  0
LINE
  8
0
 10
162.983368
 20
18.789791
 30
0.0
 11
162.983368
 21
20.789791
 31
0.0
  0
LINE
  8
0
 10
149.483368
 20
24.289791
 30
0.0
 11
150.983368
 21
24.289791
 31
0.0
  0
LINE
  8
0
 10
149.583368
 20
28.289791
 30
0.0
 11
156.983368
 21
28.289791
 31
0.0
  0
LINE
  8
0
 10
149.583368
 20
24.289791
 30
0.0
 11
149.583368
 21
28.289791
 31
0.0
  0
LINE
  8
0
 10
149.943443
 20
28.727265
 30
0.0
 11
156.983368
 21
28.727265
 31
0.0
  0
LINE
  8
0
 10
149.943443
 20
28.327265
 30
0.0
 11
156.983368
 21
28.327265
 31
0.0
  0
LINE
  8
0
 10
149.943443
 20
28.727265
 30
0.0
 11
149.943443
 21
28.327265
 31
0.0
  0
CIRCLE
  8
0
 10
10.804156
 20
14.582744
 30
0.0
 40
2.0
  0
ARC
  8
0
 10
10.804156
 20
14.582744
 30
0.0
 40
1.65
 50
280.475682
 51
79.524318
  0
LINE
  8
0
 10
10.504156
 20
12.605372
 30
0.0
 11
10.504156
 21
16.560116
 31
0.0
  0
LINE
  8
0
 10
11.104156
 20
12.605372
 30
0.0
 11
11.104156
 21
16.560116
 31
0.0
  0
ARC
  8
0
 10
10.804156
 20
14.582744
 30
0.0
 40
1.65
 50
100.475682
 51
259.524318
  0
CIRCLE
  8
0
 10
19.446199
 20
13.588735
 30
0.0
 40
2.5
  0
ARC
  8
0
 10
19.446199
 20
13.588735
 30
0.0
 40
2.1
 50
280.980575
 51
79.019425
  0
LINE
  8
0
 10
19.046199
 20
11.120942
 30
0.0
 11
19.046199
 21
16.056527
 31
0.0
  0
LINE
  8
0
 10
19.846199
 20
11.120942
 30
0.0
 11
19.846199
 21
16.056527
 31
0.0
  0
ARC
  8
0
 10
19.446199
 20
13.588735
 30
0.0
 40
2.1
 50
100.980575
 51
259.019425
  0
CIRCLE
  8
0
 10
29.851958
 20
11.99531
 30
0.0
 40
3.0
  0
ARC
  8
0
 10
29.851958
 20
11.99531
 30
0.0
 40
2.5
 50
282.709033
 51
77.290967
  0
LINE
  8
0
 10
29.301958
 20
9.046158
 30
0.0
 11
29.301958
 21
14.944463
 31
0.0
  0
LINE
  8
0
 10
30.401958
 20
9.046158
 30
0.0
 11
30.401958
 21
14.944463
 31
0.0
  0
ARC
  8
0
 10
29.851958
 20
11.99531
 30
0.0
 40
2.5
 50
102.709033
 51
257.290967
  0
CIRCLE
  8
0
 10
42.320637
 20
10.80762
 30
0.0
 40
4.0
  0
ARC
  8
0
 10
42.320637
 20
10.80762
 30
0.0
 40
3.4
 50
281.02145
 51
78.97855
  0
LINE
  8
0
 10
41.670637
 20
6.860786
 30
0.0
 11
41.670637
 21
14.754454
 31
0.0
  0
LINE
  8
0
 10
42.970637
 20
6.860786
 30
0.0
 11
42.970637
 21
14.754454
 31
0.0
  0
ARC
  8
0
 10
42.320637
 20
10.80762
 30
0.0
 40
3.4
 50
101.02145
 51
258.97855
  0
CIRCLE
  8
0
 10
57.724104
 20
8.686065
 30
0.0
 40
5.0
  0
ARC
  8
0
 10
57.724104
 20
8.686065
 30
0.0
 40
4.25
 50
280.164249
 51
79.835751
  0
LINE
  8
0
 10
56.974104
 20
3.742635
 30
0.0
 11
56.974104
 21
13.629495
 31
0.0
  0
LINE
  8
0
 10
58.474104
 20
3.742635
 30
0.0
 11
58.474104
 21
13.629495
 31
0.0
  0
ARC
  8
0
 10
57.724104
 20
8.686065
 30
0.0
 40
4.25
 50
100.164249
 51
259.835751
  0
CIRCLE
  8
0
 10
75.987099
 20
5.449719
 30
0.0
 40
6.0
  0
ARC
  8
0
 10
75.987099
 20
5.449719
 30
0.0
 40
5.1
 50
282.455793
 51
77.544207
  0
LINE
  8
0
 10
74.887099
 20
-0.448586
 30
0.0
 11
74.887099
 21
11.348024
 31
0.0
  0
LINE
  8
0
 10
77.087099
 20
-0.448586
 30
0.0
 11
77.087099
 21
11.348024
 31
0.0
  0
ARC
  8
0
 10
75.987099
 20
5.449719
 30
0.0
 40
5.1
 50
102.455793
 51
257.544207
  0
CIRCLE
  8
0
 10
98.346427
 20
1.851095
 30
0.0
 40
8.0
  0
ARC
  8
0
 10
98.346427
 20
1.851095
 30
0.0
 40
7.0
 50
277.799926
 51
82.200074
  0
LINE
  8
0
 10
97.396427
 20
-6.092299
 30
0.0
 11
97.396427
 21
9.794488
 31
0.0
  0
LINE
  8
0
 10
99.296427
 20
-6.092299
 30
0.0
 11
99.296427
 21
9.794488
 31
0.0
  0
ARC
  8
0
 10
98.346427
 20
1.851095
 30
0.0
 40
7.0
 50
97.799926
 51
262.200074
  0
CIRCLE
  8
0
 10
125.094429
 20
-3.933461
 30
0.0
 40
10.0
  0
ARC
  8
0
 10
125.094429
 20
-3.933461
 30
0.0
 40
8.75
 50
278.213211
 51
81.786789
  0
LINE
  8
0
 10
123.844429
 20
-13.855028
 30
0.0
 11
123.844429
 21
5.988106
 31
0.0
  0
LINE
  8
0
 10
126.344429
 20
-13.855028
 30
0.0
 11
126.344429
 21
5.988106
 31
0.0
  0
ARC
  8
0
 10
125.094429
 20
-3.933461
 30
0.0
 40
8.75
 50
98.213211
 51
261.786789
  0
CIRCLE
  8
0
 10
156.983368
 20
-9.854974
 30
0.0
 40
12.0
  0
ARC
  8
0
 10
156.983368
 20
-9.854974
 30
0.0
 40
10.1
 50
278.54087
 51
81.45913
  0
LINE
  8
0
 10
155.483368
 20
-21.760855
 30
0.0
 11
155.483368
 21
2.050907
 31
0.0
  0
LINE
  8
0
 10
158.483368
 20
-21.760855
 30
0.0
 11
158.483368
 21
2.050907
 31
0.0
  0
ARC
  8
0
 10
156.983368
 20
-9.854974
 30
0.0
 40
10.1
 50
98.54087
 51
261.45913
  0
INSERT
  8
0
  2
*X0
 10
-1.13722
 20
0.0
 30
0.0
1001
ACAD
1000
HATCH
1002
{
1070
    16
1000
ANSI31
1040
3.0
1040
0.0
1002
}
  0
INSERT
  8
0
  2
*X1
 10
-1.047684
 20
2.708855
 30
0.0
1001
ACAD
1000
HATCH
1002
{
1070
    16
1000
ANSI31
1040
5.0
1040
0.0
1002
}
  0
INSERT
  8
0
  2
*X2
 10
-1.198914
 20
6.575752
 30
0.0
1001
ACAD
1000
HATCH
1002
{
1070
    16
1000
ANSI31
1040
5.0
1040
0.0
1002
}
  0
INSERT
  8
0
  2
*X3
 10
-0.275486
 20
10.84298
 30
0.0
1001
ACAD
1000
HATCH
1002
{
1070
    16
1000
ANSI31
1040
5.0
1040
0.0
1002
}
  0
INSERT
  8
0
  2
*X4
 10
-0.63202
 20
17.433674
 30
0.0
1001
ACAD
1000
HATCH
1002
{
1070
    16
1000
ANSI31
1040
5.0
1040
0.0
1002
}
  0
INSERT
  8
0
  2
*X5
 10
0.516788
 20
24.161417
 30
0.0
1001
ACAD
1000
HATCH
1002
{
1070
    16
1000
ANSI31
1040
8.0
1040
0.0
1002
}
  0
INSERT
  8
0
  2
*X6
 10
-0.555646
 20
29.538943
 30
0.0
1001
ACAD
1000
HATCH
1002
{
1070
    16
1000
ANSI31
1040
8.0
1040
0.0
1002
}
  0
INSERT
  8
0
  2
*X7
 10
-0.98132
 20
47.092609
 30
0.0
1001
ACAD
1000
HATCH
1002
{
1070
    16
1000
ANSI31
1040
10.0
1040
0.0
1002
}
  0
INSERT
  8
0
  2
*X8
 10
0.724438
 20
53.976418
 30
0.0
1001
ACAD
1000
HATCH
1002
{
1070
    16
1000
ANSI31
1040
10.0
1040
0.0
1002
}
  0
ENDSEC
  0
EOF
