  0
SECTION
  2
HEADER
  9
$ACADVER
  1
AC1009
  9
$INSBASE
 10
0.0
 20
0.0
 30
0.0
  9
$EXTMIN
 10
-39.902560462747033
 20
173.99171537159901
 30
-0.0000000349181948
  9
$EXTMAX
 10
195.51830761896531
 20
290.50584480015772
 30
0.0000000814935746
  9
$LIMMIN
 10
0.0
 20
0.0
  9
$LIMMAX
 10
420.0
 20
297.0
  9
$ORTHOMODE
 70
     1
  9
$REGENMODE
 70
     1
  9
$FILLMODE
 70
     1
  9
$QTEXTMODE
 70
     0
  9
$MIRRTEXT
 70
     1
  9
$DRAGMODE
 70
     2
  9
$LTSCALE
 40
1.0
  9
$OSMODE
 70
    40
  9
$ATTMODE
 70
     1
  9
$TEXTSIZE
 40
3.5
  9
$TRACEWID
 40
1.0
  9
$TEXTSTYLE
  7
STANDARD
  9
$CLAYER
  8
0
  9
$CELTYPE
  6
CONTINUOUS
  9
$CECOLOR
 62
   256
  9
$DIMSCALE
 40
1.0
  9
$DIMASZ
 40
2.5
  9
$DIMEXO
 40
0.625
  9
$DIMDLI
 40
3.75
  9
$DIMRND
 40
0.0
  9
$DIMDLE
 40
0.0
  9
$DIMEXE
 40
1.25
  9
$DIMTP
 40
0.0
  9
$DIMTM
 40
0.0
  9
$DIMTXT
 40
2.5
  9
$DIMCEN
 40
2.5
  9
$DIMTSZ
 40
0.0
  9
$DIMTOL
 70
     0
  9
$DIMLIM
 70
     0
  9
$DIMTIH
 70
     1
  9
$DIMTOH
 70
     0
  9
$DIMSE1
 70
     0
  9
$DIMSE2
 70
     0
  9
$DIMTAD
 70
     1
  9
$DIMZIN
 70
     8
  9
$DIMBLK
  1

  9
$DIMASO
 70
     1
  9
$DIMSHO
 70
     1
  9
$DIMPOST
  1

  9
$DIMAPOST
  1

  9
$DIMALT
 70
     0
  9
$DIMALTD
 70
     2
  9
$DIMALTF
 40
0.0394
  9
$DIMLFAC
 40
1.0
  9
$DIMTOFL
 70
     1
  9
$DIMTVP
 40
1.0
  9
$DIMTIX
 70
     0
  9
$DIMSOXD
 70
     0
  9
$DIMSAH
 70
     0
  9
$DIMBLK1
  1

  9
$DIMBLK2
  1

  9
$DIMSTYLE
  2
STANDARD
  9
$DIMCLRD
 70
     0
  9
$DIMCLRE
 70
     0
  9
$DIMCLRT
 70
     0
  9
$DIMTFAC
 40
1.0
  9
$DIMGAP
 40
0.625
  9
$LUNITS
 70
     2
  9
$LUPREC
 70
     4
  9
$SKETCHINC
 40
1.0
  9
$FILLETRAD
 40
5.0
  9
$AUNITS
 70
     0
  9
$AUPREC
 70
     0
  9
$MENU
  1
acad
  9
$ELEVATION
 40
0.0
  9
$PELEVATION
 40
0.0
  9
$THICKNESS
 40
0.0
  9
$LIMCHECK
 70
     0
  9
$BLIPMODE
 70
     0
  9
$CHAMFERA
 40
10.0
  9
$CHAMFERB
 40
10.0
  9
$SKPOLY
 70
     0
  9
$TDCREATE
 40
2451491.551878958
  9
$TDUPDATE
 40
2452898.4153534141
  9
$TDINDWG
 40
0.0101927778
  9
$TDUSRTIMER
 40
0.0101927778
  9
$USRTIMER
 70
     1
  9
$ANGBASE
 50
0.0
  9
$ANGDIR
 70
     0
  9
$PDMODE
 70
     0
  9
$PDSIZE
 40
0.0
  9
$PLINEWID
 40
0.0
  9
$COORDS
 70
     2
  9
$SPLFRAME
 70
     0
  9
$SPLINETYPE
 70
     6
  9
$SPLINESEGS
 70
     8
  9
$ATTDIA
 70
     0
  9
$ATTREQ
 70
     1
  9
$HANDLING
 70
-16383
  9
$HANDSEED
  5
FEC
  9
$SURFTAB1
 70
     6
  9
$SURFTAB2
 70
     6
  9
$SURFTYPE
 70
     6
  9
$SURFU
 70
     6
  9
$SURFV
 70
     6
  9
$UCSNAME
  2

  9
$UCSORG
 10
0.0
 20
0.0
 30
0.0
  9
$UCSXDIR
 10
1.0
 20
0.0
 30
0.0
  9
$UCSYDIR
 10
0.0
 20
1.0
 30
0.0
  9
$PUCSNAME
  2

  9
$PUCSORG
 10
0.0
 20
0.0
 30
0.0
  9
$PUCSXDIR
 10
1.0
 20
0.0
 30
0.0
  9
$PUCSYDIR
 10
0.0
 20
1.0
 30
0.0
  9
$USERI1
 70
     0
  9
$USERI2
 70
     0
  9
$USERI3
 70
     0
  9
$USERI4
 70
     0
  9
$USERI5
 70
     0
  9
$USERR1
 40
0.0
  9
$USERR2
 40
0.0
  9
$USERR3
 40
0.0
  9
$USERR4
 40
0.0
  9
$USERR5
 40
0.0
  9
$WORLDVIEW
 70
     1
  9
$SHADEDGE
 70
     3
  9
$SHADEDIF
 70
    70
  9
$TILEMODE
 70
     1
  9
$MAXACTVP
 70
    16
  9
$PLIMCHECK
 70
     0
  9
$PEXTMIN
 10
1.0000000000000000E+020
 20
1.0000000000000000E+020
 30
1.0000000000000000E+020
  9
$PEXTMAX
 10
-1.0000000000000000E+020
 20
-1.0000000000000000E+020
 30
-1.0000000000000000E+020
  9
$PLIMMIN
 10
0.0
 20
0.0
  9
$PLIMMAX
 10
420.0
 20
297.0
  9
$UNITMODE
 70
     0
  9
$VISRETAIN
 70
     0
  9
$PLINEGEN
 70
     0
  9
$PSLTSCALE
 70
     1
  0
ENDSEC
  0
SECTION
  2
TABLES
  0
TABLE
  2
VPORT
 70
    22
  0
VPORT
  2
*ACTIVE
 70
     0
 10
0.0
 20
0.0
 11
1.0
 21
1.0
 12
77.807873578109152
 22
232.24878008587839
 13
0.0
 23
0.0
 14
0.5
 24
0.5
 15
10.0
 25
10.0
 16
0.0
 26
0.0
 36
1.0
 17
0.0
 27
0.0
 37
0.0
 40
155.00493570223281
 41
1.5262500000000001
 42
50.0
 43
0.0
 44
0.0
 50
0.0
 51
0.0
 71
     0
 72
   100
 73
     1
 74
     0
 75
     0
 76
     0
 77
     0
 78
     0
  0
ENDTAB
  0
TABLE
  2
LTYPE
 70
    25
  0
LTYPE
  2
CONTINUOUS
 70
     0
  3
Solid line
 72
    65
 73
     0
 40
0.0
  0
LTYPE
  2
CENTER
 70
     0
  3
____ _ ____ _ ____ _ ____ _ ____ _ ____ _ ____ 
 72
    65
 73
     4
 40
2.0
 49
1.25
 49
-0.25
 49
0.25
 49
-0.25
  0
LTYPE
  2
DASHED
 70
     0
  3
__ __ __ __ __ __ __ __ __ __ __ __ __ __ __ __
 72
    65
 73
     2
 40
0.75
 49
0.5
 49
-0.25
  0
ENDTAB
  0
TABLE
  2
LAYER
 70
     1
  0
LAYER
  2
0
 70
     0
 62
     7
  6
CONTINUOUS
  0
ENDTAB
  0
TABLE
  2
STYLE
 70
     1
  0
STYLE
  2
STANDARD
 70
     0
 40
0.0
 41
1.0
 50
0.0
 71
     0
 42
3.5
  3
txt
  4

  0
ENDTAB
  0
TABLE
  2
VIEW
 70
     0
  0
ENDTAB
  0
TABLE
  2
UCS
 70
     0
  0
ENDTAB
  0
TABLE
  2
APPID
 70
     1
  0
APPID
  2
ACAD
 70
     0
  0
ENDTAB
  0
TABLE
  2
DIMSTYLE
 70
     1
  0
DIMSTYLE
  2
STANDARD
 70
     0
  3

  4

  5

  6

  7

 40
1.0
 41
0.18
 42
0.0625
 43
0.38
 44
0.18
 45
0.0
 46
0.0
 47
0.0
 48
0.0
140
0.18
141
0.09
142
0.0
143
25.399999999999999
144
1.0
145
0.0
146
1.0
147
0.09
 71
     0
 72
     0
 73
     1
 74
     1
 75
     0
 76
     0
 77
     0
 78
     0
170
     0
171
     2
172
     0
173
     0
174
     0
175
     0
176
     0
177
     0
178
     0
  0
ENDTAB
  0
ENDSEC
  0
SECTION
  2
BLOCKS
  0
BLOCK
  8
0
  2
$MODEL_SPACE
 70
     0
 10
0.0
 20
0.0
 30
0.0
  3
$MODEL_SPACE
  1

  0
ENDBLK
  5
4CB
  8
0
  0
BLOCK
 67
     1
  8
0
  2
$PAPER_SPACE
 70
     0
 10
0.0
 20
0.0
 30
0.0
  3
$PAPER_SPACE
  1

  0
ENDBLK
  5
4C9
 67
     1
  8
0
  0
BLOCK
  8
0
  2
*X6
 70
     1
 10
0.0
 20
0.0
 30
0.0
  3
*X6
  1

  0
LINE
  5
F08
  8
0
  6
CONTINUOUS
 62
     0
 10
-16.867631521105061
 20
120.8123283555275
 30
0.0
 11
-18.083760462093551
 21
122.028457296516
 31
0.0
  0
LINE
  5
F09
  8
0
  6
CONTINUOUS
 62
     0
 10
-16.867631521105071
 20
118.6910080119679
 30
0.0
 11
-20.420517399405089
 21
122.2438938902679
 31
0.0
  0
LINE
  5
F0A
  8
0
  6
CONTINUOUS
 62
     0
 10
-18.797943852696779
 20
118.5
 30
0.0
 11
-23.041620741256988
 21
122.7436768885602
 31
0.0
  0
LINE
  5
F0B
  8
0
  6
CONTINUOUS
 62
     0
 10
-19.867631521105061
 20
117.4483673248486
 30
0.0
 11
-26.122012742432702
 21
123.7027485461762
 31
0.0
  0
LINE
  5
F0C
  8
0
  6
CONTINUOUS
 62
     0
 10
-17.867631521105061
 20
115.4483673248486
 30
0.0
 11
-18.919264196256421
 21
116.5
 31
0.0
  0
LINE
  5
F0D
  8
0
  6
CONTINUOUS
 62
     0
 10
-19.540584539816049
 20
115.0
 30
0.0
 11
-28.54058453981607
 21
124.0
 31
0.0
  0
LINE
  5
F0E
  8
0
  6
CONTINUOUS
 62
     0
 10
-21.661904883375708
 20
114.9999999999999
 30
0.0
 11
-29.367631521105061
 21
122.7057266377293
 31
0.0
  0
LINE
  5
F0F
  8
0
  6
CONTINUOUS
 62
     0
 10
-22.867631521105061
 20
114.0844062941696
 30
0.0
 11
-29.367631521105071
 21
120.5844062941697
 31
0.0
  0
LINE
  5
F10
  8
0
  6
CONTINUOUS
 62
     0
 10
-26.799402319478219
 20
115.8948567489832
 30
0.0
 11
-29.323734763762101
 21
118.4191891932671
 31
0.0
  0
LINE
  5
F11
  8
0
  6
CONTINUOUS
 62
     0
 10
-22.86763152110505
 20
111.96308595060999
 30
0.0
 11
-25.36763152110505
 21
114.46308595060999
 31
0.0
  0
LINE
  5
F12
  8
0
  6
CONTINUOUS
 62
     0
 10
-22.867631521105071
 20
109.84176560705041
 30
0.0
 11
-25.367631521105061
 21
112.34176560705041
 31
0.0
  0
LINE
  5
F13
  8
0
  6
CONTINUOUS
 62
     0
 10
-22.867631521105061
 20
107.7204452634907
 30
0.0
 11
-25.367631521105061
 21
110.2204452634907
 31
0.0
  0
LINE
  5
F14
  8
0
  6
CONTINUOUS
 62
     0
 10
-22.867631521105061
 20
105.5991249199311
 30
0.0
 11
-25.367631521105061
 21
108.0991249199311
 31
0.0
  0
LINE
  5
F15
  8
0
  6
CONTINUOUS
 62
     0
 10
-22.867631521105061
 20
103.4778045763715
 30
0.0
 11
-25.367631521105061
 21
105.9778045763714
 31
0.0
  0
LINE
  5
F16
  8
0
  6
CONTINUOUS
 62
     0
 10
-23.367631521105061
 20
101.85648423281179
 30
0.0
 11
-25.36763152110505
 21
103.85648423281179
 31
0.0
  0
LINE
  5
F17
  8
0
  6
CONTINUOUS
 62
     0
 10
-23.632467631852851
 20
100.0
 30
0.0
 11
-25.367631521105061
 21
101.73516388925221
 31
0.0
  0
LINE
  5
F18
  8
0
  6
CONTINUOUS
 62
     0
 10
-23.157900270018899
 20
102.0
 30
0.0
 11
-22.867631521105071
 21
102.2902687489138
 31
0.0
  0
LINE
  5
F19
  8
0
  6
CONTINUOUS
 62
     0
 10
-25.157900270018899
 20
100.0
 30
0.0
 11
-23.367631521105061
 21
101.7902687489138
 31
0.0
  0
LINE
  5
F1A
  8
0
  6
CONTINUOUS
 62
     0
 10
-25.367631521105061
 20
101.91158909247341
 30
0.0
 11
-22.867631521105061
 21
104.41158909247351
 31
0.0
  0
LINE
  5
F1B
  8
0
  6
CONTINUOUS
 62
     0
 10
-25.367631521105061
 20
104.03290943603309
 30
0.0
 11
-22.867631521105061
 21
106.53290943603309
 31
0.0
  0
LINE
  5
F1C
  8
0
  6
CONTINUOUS
 62
     0
 10
-25.367631521105061
 20
106.1542297795927
 30
0.0
 11
-22.867631521105061
 21
108.6542297795927
 31
0.0
  0
LINE
  5
F1D
  8
0
  6
CONTINUOUS
 62
     0
 10
-18.643181644257471
 20
115.0
 30
0.0
 11
-17.867631521105071
 21
115.7755501231524
 31
0.0
  0
LINE
  5
F1E
  8
0
  6
CONTINUOUS
 62
     0
 10
-25.367631521105061
 20
108.2755501231524
 30
0.0
 11
-22.867631521105061
 21
110.7755501231524
 31
0.0
  0
LINE
  5
F1F
  8
0
  6
CONTINUOUS
 62
     0
 10
-20.764501987817109
 20
115.0
 30
0.0
 11
-19.264501987817098
 21
116.5
 31
0.0
  0
LINE
  5
F20
  8
0
  6
CONTINUOUS
 62
     0
 10
-17.264501987817091
 20
118.5
 30
0.0
 11
-16.867631521105061
 21
118.896870466712
 31
0.0
  0
LINE
  5
F21
  8
0
  6
CONTINUOUS
 62
     0
 10
-25.367631521105071
 20
110.396870466712
 30
0.0
 11
-22.867631521105071
 21
112.896870466712
 31
0.0
  0
LINE
  5
F22
  8
0
  6
CONTINUOUS
 62
     0
 10
-19.385822331376751
 20
118.5
 30
0.0
 11
-16.867631521105071
 21
121.01819081027161
 31
0.0
  0
LINE
  5
F23
  8
0
  6
CONTINUOUS
 62
     0
 10
-25.367631521105061
 20
112.5181908102717
 30
0.0
 11
-19.867631521105029
 21
118.0181908102717
 31
0.0
  0
LINE
  5
F24
  8
0
  6
CONTINUOUS
 62
     0
 10
-25.367631521105061
 20
114.63951115383129
 30
0.0
 11
-17.983199129138729
 21
122.02394354579759
 31
0.0
  0
LINE
  5
F25
  8
0
  6
CONTINUOUS
 62
     0
 10
-26.451220134884132
 20
115.6772428836119
 30
0.0
 11
-19.945626788615758
 21
122.18283622988019
 31
0.0
  0
LINE
  5
F26
  8
0
  6
CONTINUOUS
 62
     0
 10
-27.75664803861314
 20
116.4931353234425
 30
0.0
 11
-21.781259275047599
 21
122.46852408700811
 31
0.0
  0
LINE
  5
F27
  8
0
  6
CONTINUOUS
 62
     0
 10
-28.917122450591052
 20
117.4539812550242
 30
0.0
 11
-23.50866006748489
 21
122.8624436381304
 31
0.0
  0
LINE
  5
F28
  8
0
  6
CONTINUOUS
 62
     0
 10
-29.367631521105061
 20
119.1247925280698
 30
0.0
 11
-25.140985991235169
 21
123.3514380579397
 31
0.0
  0
LINE
  5
F29
  8
0
  6
CONTINUOUS
 62
     0
 10
-29.367631521105071
 20
121.24611287162951
 30
0.0
 11
-26.687861037788501
 21
123.92588335494609
 31
0.0
  0
LINE
  5
F2A
  8
0
  6
CONTINUOUS
 62
     0
 10
-29.367631521105061
 20
123.3674332151891
 30
0.0
 11
-28.73506473629423
 21
124.0
 31
0.0
  0
ENDBLK
  5
F2C
  8
0
  0
BLOCK
  8
0
  2
*X7
 70
     1
 10
0.0
 20
0.0
 30
0.0
  3
*X7
  1

  0
LINE
  5
F2E
  8
0
  6
CONTINUOUS
 62
     0
 10
33.132368478894939
 20
120.8123283555275
 30
0.0
 11
31.916239537906449
 21
122.028457296516
 31
0.0
  0
LINE
  5
F2F
  8
0
  6
CONTINUOUS
 62
     0
 10
33.132368478894961
 20
118.6910080119679
 30
0.0
 11
29.579482600594901
 21
122.2438938902679
 31
0.0
  0
LINE
  5
F30
  8
0
  6
CONTINUOUS
 62
     0
 10
31.20205614730321
 20
118.5
 30
0.0
 11
26.958379258743001
 21
122.7436768885602
 31
0.0
  0
LINE
  5
F31
  8
0
  6
CONTINUOUS
 62
     0
 10
30.132368478894911
 20
117.4483673248486
 30
0.0
 11
23.87798725756727
 21
123.7027485461762
 31
0.0
  0
LINE
  5
F32
  8
0
  6
CONTINUOUS
 62
     0
 10
32.132368478894932
 20
115.4483673248486
 30
0.0
 11
31.080735803743561
 21
116.5
 31
0.0
  0
LINE
  5
F33
  8
0
  6
CONTINUOUS
 62
     0
 10
30.459415460183941
 20
115.0
 30
0.0
 11
21.45941546018393
 21
124.0
 31
0.0
  0
LINE
  5
F34
  8
0
  6
CONTINUOUS
 62
     0
 10
28.338095116624281
 20
114.9999999999999
 30
0.0
 11
20.632368478894929
 21
122.7057266377293
 31
0.0
  0
LINE
  5
F35
  8
0
  6
CONTINUOUS
 62
     0
 10
27.132368478894929
 20
114.0844062941697
 30
0.0
 11
20.632368478894911
 21
120.5844062941697
 31
0.0
  0
LINE
  5
F36
  8
0
  6
CONTINUOUS
 62
     0
 10
23.200597680521749
 20
115.8948567489832
 30
0.0
 11
20.676265236237889
 21
118.4191891932671
 31
0.0
  0
LINE
  5
F37
  8
0
  6
CONTINUOUS
 62
     0
 10
27.132368478894929
 20
111.96308595060999
 30
0.0
 11
24.632368478894939
 21
114.46308595060999
 31
0.0
  0
LINE
  5
F38
  8
0
  6
CONTINUOUS
 62
     0
 10
27.132368478894929
 20
109.84176560705041
 30
0.0
 11
24.632368478894939
 21
112.34176560705041
 31
0.0
  0
LINE
  5
F39
  8
0
  6
CONTINUOUS
 62
     0
 10
27.132368478894929
 20
107.7204452634907
 30
0.0
 11
24.632368478894929
 21
110.2204452634907
 31
0.0
  0
LINE
  5
F3A
  8
0
  6
CONTINUOUS
 62
     0
 10
27.132368478894929
 20
105.5991249199311
 30
0.0
 11
24.632368478894939
 21
108.0991249199311
 31
0.0
  0
LINE
  5
F3B
  8
0
  6
CONTINUOUS
 62
     0
 10
27.132368478894929
 20
103.4778045763715
 30
0.0
 11
24.632368478894939
 21
105.9778045763714
 31
0.0
  0
LINE
  5
F3C
  8
0
  6
CONTINUOUS
 62
     0
 10
26.632368478894939
 20
101.85648423281179
 30
0.0
 11
24.632368478894939
 21
103.85648423281179
 31
0.0
  0
LINE
  5
F3D
  8
0
  6
CONTINUOUS
 62
     0
 10
26.367532368147131
 20
100.0
 30
0.0
 11
24.632368478894929
 21
101.73516388925211
 31
0.0
  0
LINE
  5
F3E
  8
0
  6
CONTINUOUS
 62
     0
 10
26.84209972998109
 20
102.0
 30
0.0
 11
27.132368478894922
 21
102.2902687489138
 31
0.0
  0
LINE
  5
F3F
  8
0
  6
CONTINUOUS
 62
     0
 10
24.84209972998109
 20
100.0
 30
0.0
 11
26.632368478894939
 21
101.7902687489138
 31
0.0
  0
LINE
  5
F40
  8
0
  6
CONTINUOUS
 62
     0
 10
24.632368478894929
 20
101.91158909247341
 30
0.0
 11
27.132368478894929
 21
104.41158909247351
 31
0.0
  0
LINE
  5
F41
  8
0
  6
CONTINUOUS
 62
     0
 10
24.632368478894929
 20
104.03290943603309
 30
0.0
 11
27.132368478894929
 21
106.53290943603309
 31
0.0
  0
LINE
  5
F42
  8
0
  6
CONTINUOUS
 62
     0
 10
24.632368478894929
 20
106.1542297795927
 30
0.0
 11
27.132368478894929
 21
108.6542297795927
 31
0.0
  0
LINE
  5
F43
  8
0
  6
CONTINUOUS
 62
     0
 10
31.356818355742512
 20
115.0
 30
0.0
 11
32.132368478894918
 21
115.7755501231524
 31
0.0
  0
LINE
  5
F44
  8
0
  6
CONTINUOUS
 62
     0
 10
24.632368478894929
 20
108.2755501231524
 30
0.0
 11
27.132368478894929
 21
110.7755501231524
 31
0.0
  0
LINE
  5
F45
  8
0
  6
CONTINUOUS
 62
     0
 10
29.23549801218288
 20
115.0
 30
0.0
 11
30.735498012182891
 21
116.5
 31
0.0
  0
LINE
  5
F46
  8
0
  6
CONTINUOUS
 62
     0
 10
32.735498012182887
 20
118.5
 30
0.0
 11
33.132368478894932
 21
118.896870466712
 31
0.0
  0
LINE
  5
F47
  8
0
  6
CONTINUOUS
 62
     0
 10
24.632368478894922
 20
110.396870466712
 30
0.0
 11
27.132368478894922
 21
112.896870466712
 31
0.0
  0
LINE
  5
F48
  8
0
  6
CONTINUOUS
 62
     0
 10
30.614177668623238
 20
118.5
 30
0.0
 11
33.132368478894918
 21
121.01819081027161
 31
0.0
  0
LINE
  5
F49
  8
0
  6
CONTINUOUS
 62
     0
 10
24.632368478894929
 20
112.5181908102717
 30
0.0
 11
30.132368478894929
 21
118.01819081027161
 31
0.0
  0
LINE
  5
F4A
  8
0
  6
CONTINUOUS
 62
     0
 10
24.632368478894929
 20
114.63951115383129
 30
0.0
 11
32.016800870861282
 21
122.02394354579759
 31
0.0
  0
LINE
  5
F4B
  8
0
  6
CONTINUOUS
 62
     0
 10
23.548779865115861
 20
115.6772428836119
 30
0.0
 11
30.054373211384249
 21
122.18283622988019
 31
0.0
  0
LINE
  5
F4C
  8
0
  6
CONTINUOUS
 62
     0
 10
22.24335196138685
 20
116.4931353234425
 30
0.0
 11
28.218740724952401
 21
122.46852408700811
 31
0.0
  0
LINE
  5
F4D
  8
0
  6
CONTINUOUS
 62
     0
 10
21.082877549408941
 20
117.4539812550242
 30
0.0
 11
26.49133993251511
 21
122.8624436381304
 31
0.0
  0
LINE
  5
F4E
  8
0
  6
CONTINUOUS
 62
     0
 10
20.632368478894929
 20
119.1247925280698
 30
0.0
 11
24.859014008764841
 21
123.3514380579397
 31
0.0
  0
LINE
  5
F4F
  8
0
  6
CONTINUOUS
 62
     0
 10
20.632368478894922
 20
121.24611287162951
 30
0.0
 11
23.31213896221151
 21
123.92588335494609
 31
0.0
  0
LINE
  5
F50
  8
0
  6
CONTINUOUS
 62
     0
 10
20.632368478894929
 20
123.3674332151891
 30
0.0
 11
21.264935263705748
 21
124.0
 31
0.0
  0
ENDBLK
  5
F52
  8
0
  0
BLOCK
  8
0
  2
*X8
 70
     1
 10
0.0
 20
0.0
 30
0.0
  3
*X8
  1

  0
LINE
  5
F54
  8
0
  6
CONTINUOUS
 62
     0
 10
-16.867631521105029
 20
274.15839971752109
 30
0.0
 11
-17.211744698943189
 21
274.50251289535919
 31
0.0
  0
LINE
  5
F55
  8
0
  6
CONTINUOUS
 62
     0
 10
-16.867631521105061
 20
272.03707937396138
 30
0.0
 11
-19.475291452966012
 21
274.64473930582238
 31
0.0
  0
LINE
  5
F56
  8
0
  6
CONTINUOUS
 62
     0
 10
-16.867631521105061
 20
269.91575903040172
 30
0.0
 11
-22.022709213974391
 21
275.07083672327099
 31
0.0
  0
LINE
  5
F57
  8
0
  6
CONTINUOUS
 62
     0
 10
-16.867631521105089
 20
267.79443868684211
 30
0.0
 11
-25.03338985158118
 21
275.96019701731819
 31
0.0
  0
LINE
  5
F58
  8
0
  6
CONTINUOUS
 62
     0
 10
-16.867631521105061
 20
265.67311834328251
 30
0.0
 11
-27.69451317782255
 21
276.5
 31
0.0
  0
LINE
  5
F59
  8
0
  6
CONTINUOUS
 62
     0
 10
-20.81583352138216
 20
267.5
 30
0.0
 11
-29.367631521105061
 21
276.05179799972291
 31
0.0
  0
LINE
  5
F5A
  8
0
  6
CONTINUOUS
 62
     0
 10
-16.867631521105029
 20
263.55179799972279
 30
0.0
 11
-19.367631521105029
 21
266.05179799972279
 31
0.0
  0
LINE
  5
F5B
  8
0
  6
CONTINUOUS
 62
     0
 10
-22.867631521105029
 20
267.43047765616319
 30
0.0
 11
-29.367631521105039
 21
273.93047765616319
 31
0.0
  0
LINE
  5
F5C
  8
0
  6
CONTINUOUS
 62
     0
 10
-17.937153864941841
 20
262.5
 30
0.0
 11
-19.367631521105029
 21
263.93047765616319
 31
0.0
  0
LINE
  5
F5D
  8
0
  6
CONTINUOUS
 62
     0
 10
-22.867631521105061
 20
265.30915731260347
 30
0.0
 11
-29.367631521105039
 21
271.80915731260347
 31
0.0
  0
LINE
  5
F5E
  8
0
  6
CONTINUOUS
 62
     0
 10
-22.867631521105061
 20
263.18783696904387
 30
0.0
 11
-25.367631521105061
 21
265.68783696904387
 31
0.0
  0
LINE
  5
F5F
  8
0
  6
CONTINUOUS
 62
     0
 10
-22.867631521105089
 20
261.06651662548433
 30
0.0
 11
-25.367631521105061
 21
263.56651662548421
 31
0.0
  0
LINE
  5
F60
  8
0
  6
CONTINUOUS
 62
     0
 10
-22.867631521105061
 20
258.94519628192461
 30
0.0
 11
-25.367631521105061
 21
261.44519628192461
 31
0.0
  0
LINE
  5
F61
  8
0
  6
CONTINUOUS
 62
     0
 10
-22.867631521105061
 20
256.82387593836501
 30
0.0
 11
-25.367631521105039
 21
259.32387593836501
 31
0.0
  0
LINE
  5
F62
  8
0
  6
CONTINUOUS
 62
     0
 10
-22.867631521105029
 20
254.70255559480529
 30
0.0
 11
-25.367631521105039
 21
257.20255559480529
 31
0.0
  0
LINE
  5
F63
  8
0
  6
CONTINUOUS
 62
     0
 10
-22.867631521105061
 20
252.58123525124569
 30
0.0
 11
-25.367631521105039
 21
255.08123525124569
 31
0.0
  0
LINE
  5
F64
  8
0
  6
CONTINUOUS
 62
     0
 10
-24.907716613418948
 20
252.49999999999989
 30
0.0
 11
-25.367631521105039
 21
252.959914907686
 31
0.0
  0
LINE
  5
F65
  8
0
  6
CONTINUOUS
 62
     0
 10
-23.61399317595254
 20
252.49999999999989
 30
0.0
 11
-22.86763152110505
 21
253.2463616548475
 31
0.0
  0
LINE
  5
F66
  8
0
  6
CONTINUOUS
 62
     0
 10
-25.36763152110505
 20
252.86768199840711
 30
0.0
 11
-22.867631521105029
 21
255.36768199840711
 31
0.0
  0
LINE
  5
F67
  8
0
  6
CONTINUOUS
 62
     0
 10
-17.856633863071799
 20
262.5
 30
0.0
 11
-16.867631521105078
 21
263.48900234196668
 31
0.0
  0
LINE
  5
F68
  8
0
  6
CONTINUOUS
 62
     0
 10
-25.36763152110505
 20
254.98900234196671
 30
0.0
 11
-22.867631521105029
 21
257.48900234196668
 31
0.0
  0
LINE
  5
F69
  8
0
  6
CONTINUOUS
 62
     0
 10
-19.367631521105078
 20
263.11032268552628
 30
0.0
 11
-16.867631521105061
 21
265.6103226855264
 31
0.0
  0
LINE
  5
F6A
  8
0
  6
CONTINUOUS
 62
     0
 10
-25.367631521105078
 20
257.11032268552628
 30
0.0
 11
-22.867631521105061
 21
259.6103226855264
 31
0.0
  0
LINE
  5
F6B
  8
0
  6
CONTINUOUS
 62
     0
 10
-19.367631521105061
 20
265.231643029086
 30
0.0
 11
-16.867631521105061
 21
267.731643029086
 31
0.0
  0
LINE
  5
F6C
  8
0
  6
CONTINUOUS
 62
     0
 10
-25.367631521105061
 20
259.231643029086
 30
0.0
 11
-22.867631521105078
 21
261.731643029086
 31
0.0
  0
LINE
  5
F6D
  8
0
  6
CONTINUOUS
 62
     0
 10
-19.367631521105061
 20
267.3529633726456
 30
0.0
 11
-16.867631521105029
 21
269.85296337264572
 31
0.0
  0
LINE
  5
F6E
  8
0
  6
CONTINUOUS
 62
     0
 10
-25.36763152110505
 20
261.35296337264572
 30
0.0
 11
-22.867631521105029
 21
263.85296337264572
 31
0.0
  0
LINE
  5
F6F
  8
0
  6
CONTINUOUS
 62
     0
 10
-21.341915237310399
 20
267.5
 30
0.0
 11
-16.867631521105061
 21
271.97428371620532
 31
0.0
  0
LINE
  5
F70
  8
0
  6
CONTINUOUS
 62
     0
 10
-25.367631521105089
 20
263.47428371620532
 30
0.0
 11
-22.867631521105061
 21
265.97428371620532
 31
0.0
  0
LINE
  5
F71
  8
0
  6
CONTINUOUS
 62
     0
 10
-25.367631521105078
 20
265.59560405976492
 30
0.0
 11
-16.867631521105061
 21
274.09560405976492
 31
0.0
  0
LINE
  5
F72
  8
0
  6
CONTINUOUS
 62
     0
 10
-25.501123461612529
 20
267.58343246281709
 30
0.0
 11
-18.526115909533139
 21
274.55844001489652
 31
0.0
  0
LINE
  5
F73
  8
0
  6
CONTINUOUS
 62
     0
 10
-26.806551365341519
 20
268.39932490264772
 30
0.0
 11
-20.4343587155096
 21
274.77151755247968
 31
0.0
  0
LINE
  5
F74
  8
0
  6
CONTINUOUS
 62
     0
 10
-28.11197926907052
 20
269.21521734247841
 30
0.0
 11
-22.21289067595243
 21
275.11430593559652
 31
0.0
  0
LINE
  5
F75
  8
0
  6
CONTINUOUS
 62
     0
 10
-29.128945725350089
 20
270.31957122975848
 30
0.0
 11
-23.880657832548721
 21
275.56785912255981
 31
0.0
  0
LINE
  5
F76
  8
0
  6
CONTINUOUS
 62
     0
 10
-29.36763152110505
 20
272.20220577756322
 30
0.0
 11
-25.450883038549971
 21
276.11895426011819
 31
0.0
  0
LINE
  5
F77
  8
0
  6
CONTINUOUS
 62
     0
 10
-29.367631521105039
 20
274.32352612112282
 30
0.0
 11
-27.191157642227921
 21
276.5
 31
0.0
  0
LINE
  5
F78
  8
0
  6
CONTINUOUS
 62
     0
 10
-29.367631521105061
 20
276.44484646468243
 30
0.0
 11
-29.312477985787559
 21
276.5
 31
0.0
  0
ENDBLK
  5
F7A
  8
0
  0
BLOCK
  8
0
  2
*X9
 70
     1
 10
0.0
 20
0.0
 30
0.0
  3
*X9
  1

  0
LINE
  5
F7C
  8
0
  6
CONTINUOUS
 62
     0
 10
33.132368478894961
 20
274.15839971752109
 30
0.0
 11
32.788255301056807
 21
274.50251289535919
 31
0.0
  0
LINE
  5
F7D
  8
0
  6
CONTINUOUS
 62
     0
 10
33.132368478894932
 20
272.03707937396138
 30
0.0
 11
30.524708547033981
 21
274.64473930582238
 31
0.0
  0
LINE
  5
F7E
  8
0
  6
CONTINUOUS
 62
     0
 10
33.132368478894932
 20
269.91575903040172
 30
0.0
 11
27.977290786025598
 21
275.07083672327099
 31
0.0
  0
LINE
  5
F7F
  8
0
  6
CONTINUOUS
 62
     0
 10
33.132368478894932
 20
267.79443868684211
 30
0.0
 11
24.96661014841882
 21
275.96019701731819
 31
0.0
  0
LINE
  5
F80
  8
0
  6
CONTINUOUS
 62
     0
 10
33.132368478894932
 20
265.67311834328251
 30
0.0
 11
22.305486822177439
 21
276.5
 31
0.0
  0
LINE
  5
F81
  8
0
  6
CONTINUOUS
 62
     0
 10
29.18416647861784
 20
267.5
 30
0.0
 11
20.632368478894961
 21
276.05179799972279
 31
0.0
  0
LINE
  5
F82
  8
0
  6
CONTINUOUS
 62
     0
 10
33.132368478894961
 20
263.55179799972279
 30
0.0
 11
30.632368478894961
 21
266.05179799972279
 31
0.0
  0
LINE
  5
F83
  8
0
  6
CONTINUOUS
 62
     0
 10
27.132368478894961
 20
267.43047765616319
 30
0.0
 11
20.632368478894961
 21
273.93047765616319
 31
0.0
  0
LINE
  5
F84
  8
0
  6
CONTINUOUS
 62
     0
 10
32.062846135058152
 20
262.5
 30
0.0
 11
30.632368478894961
 21
263.93047765616319
 31
0.0
  0
LINE
  5
F85
  8
0
  6
CONTINUOUS
 62
     0
 10
27.132368478894929
 20
265.30915731260347
 30
0.0
 11
20.632368478894961
 21
271.80915731260347
 31
0.0
  0
LINE
  5
F86
  8
0
  6
CONTINUOUS
 62
     0
 10
27.132368478894929
 20
263.18783696904387
 30
0.0
 11
24.632368478894929
 21
265.68783696904387
 31
0.0
  0
LINE
  5
F87
  8
0
  6
CONTINUOUS
 62
     0
 10
27.1323684788949
 20
261.06651662548433
 30
0.0
 11
24.632368478894929
 21
263.56651662548421
 31
0.0
  0
LINE
  5
F88
  8
0
  6
CONTINUOUS
 62
     0
 10
27.132368478894929
 20
258.94519628192461
 30
0.0
 11
24.632368478894929
 21
261.44519628192461
 31
0.0
  0
LINE
  5
F89
  8
0
  6
CONTINUOUS
 62
     0
 10
27.132368478894929
 20
256.82387593836501
 30
0.0
 11
24.632368478894961
 21
259.32387593836501
 31
0.0
  0
LINE
  5
F8A
  8
0
  6
CONTINUOUS
 62
     0
 10
27.132368478894961
 20
254.70255559480529
 30
0.0
 11
24.632368478894961
 21
257.20255559480529
 31
0.0
  0
LINE
  5
F8B
  8
0
  6
CONTINUOUS
 62
     0
 10
27.132368478894929
 20
252.58123525124569
 30
0.0
 11
24.632368478894961
 21
255.08123525124569
 31
0.0
  0
LINE
  5
F8C
  8
0
  6
CONTINUOUS
 62
     0
 10
25.092283386581041
 20
252.49999999999989
 30
0.0
 11
24.632368478894961
 21
252.959914907686
 31
0.0
  0
LINE
  5
F8D
  8
0
  6
CONTINUOUS
 62
     0
 10
26.386006824047449
 20
252.49999999999989
 30
0.0
 11
27.132368478894939
 21
253.2463616548475
 31
0.0
  0
LINE
  5
F8E
  8
0
  6
CONTINUOUS
 62
     0
 10
24.632368478894939
 20
252.86768199840711
 30
0.0
 11
27.132368478894961
 21
255.36768199840711
 31
0.0
  0
LINE
  5
F8F
  8
0
  6
CONTINUOUS
 62
     0
 10
32.143366136928186
 20
262.5
 30
0.0
 11
33.132368478894911
 21
263.48900234196668
 31
0.0
  0
LINE
  5
F90
  8
0
  6
CONTINUOUS
 62
     0
 10
24.632368478894939
 20
254.98900234196671
 30
0.0
 11
27.132368478894961
 21
257.48900234196668
 31
0.0
  0
LINE
  5
F91
  8
0
  6
CONTINUOUS
 62
     0
 10
30.632368478894911
 20
263.11032268552628
 30
0.0
 11
33.132368478894932
 21
265.6103226855264
 31
0.0
  0
LINE
  5
F92
  8
0
  6
CONTINUOUS
 62
     0
 10
24.632368478894922
 20
257.11032268552628
 30
0.0
 11
27.132368478894929
 21
259.6103226855264
 31
0.0
  0
LINE
  5
F93
  8
0
  6
CONTINUOUS
 62
     0
 10
30.632368478894929
 20
265.231643029086
 30
0.0
 11
33.132368478894897
 21
267.731643029086
 31
0.0
  0
LINE
  5
F94
  8
0
  6
CONTINUOUS
 62
     0
 10
24.63236847889489
 20
259.231643029086
 30
0.0
 11
27.132368478894922
 21
261.731643029086
 31
0.0
  0
LINE
  5
F95
  8
0
  6
CONTINUOUS
 62
     0
 10
30.632368478894929
 20
267.3529633726456
 30
0.0
 11
33.132368478894932
 21
269.8529633726456
 31
0.0
  0
LINE
  5
F96
  8
0
  6
CONTINUOUS
 62
     0
 10
24.632368478894929
 20
261.3529633726456
 30
0.0
 11
27.132368478894961
 21
263.85296337264572
 31
0.0
  0
LINE
  5
F97
  8
0
  6
CONTINUOUS
 62
     0
 10
28.65808476268959
 20
267.5
 30
0.0
 11
33.132368478894932
 21
271.97428371620532
 31
0.0
  0
LINE
  5
F98
  8
0
  6
CONTINUOUS
 62
     0
 10
24.6323684788949
 20
263.47428371620532
 30
0.0
 11
27.132368478894929
 21
265.97428371620532
 31
0.0
  0
LINE
  5
F99
  8
0
  6
CONTINUOUS
 62
     0
 10
24.632368478894868
 20
265.59560405976492
 30
0.0
 11
33.132368478894897
 21
274.09560405976492
 31
0.0
  0
LINE
  5
F9A
  8
0
  6
CONTINUOUS
 62
     0
 10
24.498876538387488
 20
267.58343246281709
 30
0.0
 11
31.47388409046685
 21
274.55844001489652
 31
0.0
  0
LINE
  5
F9B
  8
0
  6
CONTINUOUS
 62
     0
 10
23.193448634658481
 20
268.39932490264772
 30
0.0
 11
29.5656412844904
 21
274.77151755247968
 31
0.0
  0
LINE
  5
F9C
  8
0
  6
CONTINUOUS
 62
     0
 10
21.88802073092948
 20
269.21521734247841
 30
0.0
 11
27.78710932404756
 21
275.11430593559652
 31
0.0
  0
LINE
  5
F9D
  8
0
  6
CONTINUOUS
 62
     0
 10
20.8710542746499
 20
270.31957122975848
 30
0.0
 11
26.119342167451279
 21
275.56785912255981
 31
0.0
  0
LINE
  5
F9E
  8
0
  6
CONTINUOUS
 62
     0
 10
20.632368478894911
 20
272.20220577756311
 30
0.0
 11
24.549116961450022
 21
276.11895426011819
 31
0.0
  0
LINE
  5
F9F
  8
0
  6
CONTINUOUS
 62
     0
 10
20.632368478894911
 20
274.32352612112282
 30
0.0
 11
22.808842357772068
 21
276.5
 31
0.0
  0
LINE
  5
FA0
  8
0
  6
CONTINUOUS
 62
     0
 10
20.63236847889489
 20
276.44484646468243
 30
0.0
 11
20.687522014212441
 21
276.5
 31
0.0
  0
ENDBLK
  5
FA2
  8
0
  0
BLOCK
  8
0
  2
*X10
 70
     1
 10
0.0
 20
0.0
 30
0.0
  3
*X10
  1

  0
LINE
  5
FA4
  8
0
  6
CONTINUOUS
 62
     0
 10
-17.543722601395611
 20
245.5
 30
0.0
 11
-16.867631521105029
 21
246.17609108029049
 31
0.0
  0
LINE
  5
FA5
  8
0
  6
CONTINUOUS
 62
     0
 10
-18.9579361637687
 20
245.5
 30
0.0
 11
-16.867631521105029
 21
247.5903046426636
 31
0.0
  0
LINE
  5
FA6
  8
0
  6
CONTINUOUS
 62
     0
 10
-20.37214972614181
 20
245.5
 30
0.0
 11
-16.867631521105078
 21
249.0045182050367
 31
0.0
  0
LINE
  5
FA7
  8
0
  6
CONTINUOUS
 62
     0
 10
-21.532935694317601
 20
245.75342759419729
 30
0.0
 11
-16.867631521105089
 21
250.41873176740981
 31
0.0
  0
LINE
  5
FA8
  8
0
  6
CONTINUOUS
 62
     0
 10
-21.867631521105089
 20
246.8329453297828
 30
0.0
 11
-16.867631521105089
 21
251.83294532978289
 31
0.0
  0
LINE
  5
FA9
  8
0
  6
CONTINUOUS
 62
     0
 10
-22.114790413261058
 20
248.0
 30
0.0
 11
-17.614790413261069
 21
252.49999999999989
 31
0.0
  0
LINE
  5
FAA
  8
0
  6
CONTINUOUS
 62
     0
 10
-23.529003975634161
 20
248.0
 30
0.0
 11
-19.029003975634161
 21
252.49999999999989
 31
0.0
  0
LINE
  5
FAB
  8
0
  6
CONTINUOUS
 62
     0
 10
-24.943217538007271
 20
248.0
 30
0.0
 11
-20.443217538007271
 21
252.49999999999989
 31
0.0
  0
LINE
  5
FAC
  8
0
  6
CONTINUOUS
 62
     0
 10
-26.357431100380371
 20
248.0
 30
0.0
 11
-21.85743110038036
 21
252.49999999999989
 31
0.0
  0
LINE
  5
FAD
  8
0
  6
CONTINUOUS
 62
     0
 10
-27.77164466275347
 20
248.0
 30
0.0
 11
-23.27164466275347
 21
252.49999999999989
 31
0.0
  0
LINE
  5
FAE
  8
0
  6
CONTINUOUS
 62
     0
 10
-29.18585822512653
 20
248.0
 30
0.0
 11
-24.685858225126552
 21
252.49999999999989
 31
0.0
  0
LINE
  5
FAF
  8
0
  6
CONTINUOUS
 62
     0
 10
-29.717631521105041
 20
248.88244026639461
 30
0.0
 11
-26.10007178749964
 21
252.49999999999989
 31
0.0
  0
LINE
  5
FB0
  8
0
  6
CONTINUOUS
 62
     0
 10
-27.717631521105069
 20
252.2966538287676
 30
0.0
 11
-27.51428534987275
 21
252.49999999999989
 31
0.0
  0
LINE
  5
FB1
  8
0
  6
CONTINUOUS
 62
     0
 10
-34.842712474618949
 20
248.0
 30
0.0
 11
-34.017631521105081
 21
248.8250809535138
 31
0.0
  0
LINE
  5
FB2
  8
0
  6
CONTINUOUS
 62
     0
 10
-36.256926036992013
 20
248.0
 30
0.0
 11
-34.017631521105073
 21
250.23929451588691
 31
0.0
  0
LINE
  5
FB3
  8
0
  6
CONTINUOUS
 62
     0
 10
-36.867631521105082
 20
248.80350807825999
 30
0.0
 11
-34.719385560235111
 21
250.95175403913001
 31
0.0
  0
LINE
  5
FB4
  8
0
  6
CONTINUOUS
 62
     0
 10
-36.867631521105089
 20
250.2177216406331
 30
0.0
 11
-35.426492341421657
 21
251.65886082031659
 31
0.0
  0
LINE
  5
FB5
  8
0
  6
CONTINUOUS
 62
     0
 10
-36.867631521105046
 20
251.63193520300629
 30
0.0
 11
-36.017631521105059
 21
252.4819352030062
 31
0.0
  0
ENDBLK
  5
FB7
  8
0
  0
BLOCK
  8
0
  2
*X11
 70
     1
 10
0.0
 20
0.0
 30
0.0
  3
*X11
  1

  0
LINE
  5
FB9
  8
0
  6
CONTINUOUS
 62
     0
 10
31.953752081662699
 20
245.5
 30
0.0
 11
33.132368478894939
 21
246.67861639723219
 31
0.0
  0
LINE
  5
FBA
  8
0
  6
CONTINUOUS
 62
     0
 10
30.539538519289589
 20
245.5
 30
0.0
 11
33.132368478894939
 21
248.0928299596053
 31
0.0
  0
LINE
  5
FBB
  8
0
  6
CONTINUOUS
 62
     0
 10
29.12534958962318
 20
245.50002463270661
 30
0.0
 11
33.132368478894968
 21
249.5070435219784
 31
0.0
  0
LINE
  5
FBC
  8
0
  6
CONTINUOUS
 62
     0
 10
28.246732072156899
 20
246.03562067761339
 30
0.0
 11
33.132368478894961
 21
250.92125708435151
 31
0.0
  0
LINE
  5
FBD
  8
0
  6
CONTINUOUS
 62
     0
 10
28.132368478894929
 20
247.33547064672459
 30
0.0
 11
33.132368478894932
 21
252.33547064672459
 31
0.0
  0
LINE
  5
FBE
  8
0
  6
CONTINUOUS
 62
     0
 10
27.382684269797249
 20
248.0
 30
0.0
 11
31.882684269797249
 21
252.49999999999989
 31
0.0
  0
LINE
  5
FBF
  8
0
  6
CONTINUOUS
 62
     0
 10
25.968470707424139
 20
248.0
 30
0.0
 11
30.468470707424139
 21
252.49999999999989
 31
0.0
  0
LINE
  5
FC0
  8
0
  6
CONTINUOUS
 62
     0
 10
24.554257145051029
 20
248.0
 30
0.0
 11
29.054257145051039
 21
252.49999999999989
 31
0.0
  0
LINE
  5
FC1
  8
0
  6
CONTINUOUS
 62
     0
 10
23.14004358267794
 20
248.0
 30
0.0
 11
27.640043582678
 21
252.5
 31
0.0
  0
LINE
  5
FC2
  8
0
  6
CONTINUOUS
 62
     0
 10
21.725830020304858
 20
248.0
 30
0.0
 11
26.225830020304901
 21
252.5
 31
0.0
  0
LINE
  5
FC3
  8
0
  6
CONTINUOUS
 62
     0
 10
20.31161645793177
 20
248.0
 30
0.0
 11
24.811616457931802
 21
252.5
 31
0.0
  0
LINE
  5
FC4
  8
0
  6
CONTINUOUS
 62
     0
 10
20.282368478894949
 20
249.3849655833362
 30
0.0
 11
23.397402895558692
 21
252.5
 31
0.0
  0
LINE
  5
FC5
  8
0
  6
CONTINUOUS
 62
     0
 10
14.65476220843939
 20
248.0
 30
0.0
 11
15.982368478894889
 21
249.3276062704555
 31
0.0
  0
LINE
  5
FC6
  8
0
  6
CONTINUOUS
 62
     0
 10
13.26816042565882
 20
248.02761177959249
 30
0.0
 11
15.736458562480591
 21
250.49590991641429
 31
0.0
  0
LINE
  5
FC7
  8
0
  6
CONTINUOUS
 62
     0
 10
13.132368478894939
 20
249.30603339520169
 30
0.0
 11
15.029351781294091
 21
251.2030166976009
 31
0.0
  0
LINE
  5
FC8
  8
0
  6
CONTINUOUS
 62
     0
 10
13.132368478894961
 20
250.7202469575748
 30
0.0
 11
14.32224500010755
 21
251.9101234787874
 31
0.0
  0
LINE
  5
FC9
  8
0
  6
CONTINUOUS
 62
     0
 10
13.13236847889493
 20
252.13446051994791
 30
0.0
 11
13.497907958946991
 21
252.49999999999989
 31
0.0
  0
ENDBLK
  5
FCB
  8
0
  0
BLOCK
  8
0
  2
*X12
 70
     1
 10
0.0
 20
0.0
 30
0.0
  3
*X12
  1

  0
LINE
  5
FCD
  8
0
  6
CONTINUOUS
 62
     0
 10
108.7354980121828
 20
244.49999999999989
 30
0.0
 11
109.4999999999999
 21
245.26450198781711
 31
0.0
  0
LINE
  5
FCE
  8
0
  6
CONTINUOUS
 62
     0
 10
106.6141776686232
 20
244.49999999999989
 30
0.0
 11
109.4999999999999
 21
247.38582233137669
 31
0.0
  0
LINE
  5
FCF
  8
0
  6
CONTINUOUS
 62
     0
 10
104.4928826536936
 20
244.5000253286299
 30
0.0
 11
109.5
 21
249.5071426749364
 31
0.0
  0
LINE
  5
FD0
  8
0
  6
CONTINUOUS
 62
     0
 10
103.5
 20
245.62846301849601
 30
0.0
 11
109.5
 21
251.62846301849601
 31
0.0
  0
LINE
  5
FD1
  8
0
  6
CONTINUOUS
 62
     0
 10
102.75021663794431
 20
246.99999999999989
 30
0.0
 11
108.25021663794431
 21
252.5
 31
0.0
  0
LINE
  5
FD2
  8
0
  6
CONTINUOUS
 62
     0
 10
100.6288962943846
 20
247.0
 30
0.0
 11
106.1288962943847
 21
252.49999999999989
 31
0.0
  0
LINE
  5
FD3
  8
0
  6
CONTINUOUS
 62
     0
 10
98.507575950825057
 20
247.0
 30
0.0
 11
104.007575950825
 21
252.5
 31
0.0
  0
LINE
  5
FD4
  8
0
  6
CONTINUOUS
 62
     0
 10
96.386255607265383
 20
246.99999999999989
 30
0.0
 11
101.8862556072654
 21
252.5
 31
0.0
  0
LINE
  5
FD5
  8
0
  6
CONTINUOUS
 62
     0
 10
95.150000000000034
 20
247.8850647362942
 30
0.0
 11
99.76493526370578
 21
252.49999999999989
 31
0.0
  0
LINE
  5
FD6
  8
0
  6
CONTINUOUS
 62
     0
 10
87.900974233026815
 20
247.0
 30
0.0
 11
89.849999999999966
 21
248.94902576697311
 31
0.0
  0
LINE
  5
FD7
  8
0
  6
CONTINUOUS
 62
     0
 10
86.5
 20
247.7203461105328
 30
0.0
 11
89.164826944733591
 21
250.38517305526639
 31
0.0
  0
LINE
  5
FD8
  8
0
  6
CONTINUOUS
 62
     0
 10
86.499999999999986
 20
249.8416664540924
 30
0.0
 11
88.104166772953775
 21
251.44583322704619
 31
0.0
  0
LINE
  5
FD9
  8
0
  6
CONTINUOUS
 62
     0
 10
86.5
 20
251.96298679765201
 30
0.0
 11
87.037013202347936
 21
252.5
 31
0.0
  0
ENDBLK
  5
FDB
  8
0
  0
BLOCK
  8
0
  2
*X13
 70
     1
 10
0.0
 20
0.0
 30
0.0
  3
*X13
  1

  0
LINE
  5
FDD
  8
0
  6
CONTINUOUS
 62
     0
 10
168.1324676318529
 20
244.49999999999989
 30
0.0
 11
169.49999999999989
 21
245.86753236814701
 31
0.0
  0
LINE
  5
FDE
  8
0
  6
CONTINUOUS
 62
     0
 10
166.01114728829319
 20
244.49999999999989
 30
0.0
 11
169.49999999999989
 21
247.9888527117067
 31
0.0
  0
LINE
  5
FDF
  8
0
  6
CONTINUOUS
 62
     0
 10
164.01520122568439
 20
244.62537428095081
 30
0.0
 11
169.5
 21
250.1101730552663
 31
0.0
  0
LINE
  5
FE0
  8
0
  6
CONTINUOUS
 62
     0
 10
163.5
 20
246.23149339882599
 30
0.0
 11
169.49999999999989
 21
252.2314933988259
 31
0.0
  0
LINE
  5
FE1
  8
0
  6
CONTINUOUS
 62
     0
 10
162.14718625761429
 20
246.99999999999989
 30
0.0
 11
167.64718625761429
 21
252.49999999999989
 31
0.0
  0
LINE
  5
FE2
  8
0
  6
CONTINUOUS
 62
     0
 10
160.02586591405461
 20
246.99999999999989
 30
0.0
 11
165.52586591405461
 21
252.5
 31
0.0
  0
LINE
  5
FE3
  8
0
  6
CONTINUOUS
 62
     0
 10
157.904545570495
 20
246.99999999999989
 30
0.0
 11
163.404545570495
 21
252.49999999999989
 31
0.0
  0
LINE
  5
FE4
  8
0
  6
CONTINUOUS
 62
     0
 10
155.7832252269354
 20
247.0
 30
0.0
 11
161.2832252269354
 21
252.49999999999989
 31
0.0
  0
LINE
  5
FE5
  8
0
  6
CONTINUOUS
 62
     0
 10
155.14999999999989
 20
248.48809511662421
 30
0.0
 11
159.16190488337571
 21
252.5
 31
0.0
  0
LINE
  5
FE6
  8
0
  6
CONTINUOUS
 62
     0
 10
149.41926419625639
 20
247.0
 30
0.0
 11
149.84999999999991
 21
247.43073580374349
 31
0.0
  0
LINE
  5
FE7
  8
0
  6
CONTINUOUS
 62
     0
 10
147.29794385269679
 20
247.0
 30
0.0
 11
149.84999999999991
 21
249.55205614730309
 31
0.0
  0
LINE
  5
FE8
  8
0
  6
CONTINUOUS
 62
     0
 10
146.5
 20
248.32337649086281
 30
0.0
 11
148.86331175456851
 21
250.68668824543141
 31
0.0
  0
LINE
  5
FE9
  8
0
  6
CONTINUOUS
 62
     0
 10
146.5
 20
250.44469683442239
 30
0.0
 11
147.80265158278871
 21
251.74734841721121
 31
0.0
  0
ENDBLK
  5
FEB
  8
0
  0
ENDSEC
  0
SECTION
  2
ENTITIES
  0
LINE
  5
718
  8
0
 10
87.0
 20
252.49999999999989
 30
0.0
 11
109.4999999999999
 21
252.49999999999989
 31
0.0
1001
ACAD
1000
ASC_BOUNDS
1002
{
1070
    19
1005
E4D
1005
E4D
1002
}
  0
LINE
  5
723
  8
0
  6
CENTER
 10
109.4999999999999
 20
290.5
 30
0.0
 11
109.4999999999999
 21
233.49999999999989
 31
0.0
1001
ACAD
1000
ASC_BOUNDS
1002
{
1070
    19
1005
E4D
1002
}
  0
LINE
  5
748
  8
0
 10
109.4999999999999
 20
252.49999999999989
 30
0.0
 11
132.0
 21
252.49999999999989
 31
0.0
  0
LINE
  5
74C
  8
0
  6
CONTINUOUS
 10
105.4999999999999
 20
244.49999999999989
 30
0.0
 11
105.4999999999999
 21
239.0
 31
0.0
  0
LINE
  5
74D
  8
0
  6
CONTINUOUS
 10
105.4999999999999
 20
239.0
 30
0.0
 11
106.4999999999999
 21
237.0
 31
0.0
  0
LINE
  5
74E
  8
0
  6
CONTINUOUS
 10
113.5
 20
244.49999999999989
 30
0.0
 11
113.5
 21
239.0
 31
0.0
  0
LINE
  5
74F
  8
0
  6
CONTINUOUS
 10
113.5
 20
239.0
 30
0.0
 11
112.5
 21
237.0
 31
0.0
  0
ARC
  5
750
  8
0
  6
CONTINUOUS
 10
109.4999999999999
 20
245.75
 30
0.0
 40
9.25
 50
251.07535558394861
 51
288.92464441605142
  0
LINE
  5
751
  8
0
  6
CONTINUOUS
 10
105.4999999999999
 20
239.0
 30
0.0
 11
113.5
 21
239.0
 31
0.0
  0
LINE
  5
752
  8
0
  6
CONTINUOUS
 10
112.5
 20
237.0
 30
0.0
 11
106.4999999999999
 21
237.0
 31
0.0
  0
LINE
  5
77A
  8
0
  6
CONTINUOUS
 10
-36.617631521105061
 20
252.49999999999989
 30
0.0
 11
2.8823684788949322
 21
252.49999999999989
 31
0.0
1001
ACAD
1000
ASC_BOUNDS
1002
{
1070
    19
1005
E29
1005
E29
1002
}
  0
LINE
  5
782
  8
0
  6
CENTER
 10
-16.867631521105061
 20
236.5
 30
0.0
 11
-16.867631521105061
 21
284.5
 31
0.0
1001
ACAD
1000
ASC_BOUNDS
1002
{
1070
    19
1005
E29
1002
}
  0
LINE
  5
7A1
  8
0
  6
CONTINUOUS
 10
-19.867631521105061
 20
245.5
 30
0.0
 11
-19.867631521105061
 21
242.5
 31
0.0
  0
LINE
  5
7B4
  8
0
  6
CONTINUOUS
 10
-19.867631521105061
 20
242.5
 30
0.0
 11
-19.367631521105061
 21
240.5
 31
0.0
  0
LINE
  5
7B5
  8
0
  6
CONTINUOUS
 10
-19.367631521105061
 20
240.5
 30
0.0
 11
-14.367631521105061
 21
240.5
 31
0.0
  0
LINE
  5
7B6
  8
0
  6
CONTINUOUS
 10
-19.867631521105061
 20
242.5
 30
0.0
 11
-13.867631521105061
 21
242.5
 31
0.0
  0
ARC
  5
7B7
  8
0
  6
CONTINUOUS
 10
-16.867631521105061
 20
243.12499999999989
 30
0.0
 40
3.625
 50
226.39718102729611
 51
313.6028189727038
  0
LINE
  5
7C1
  8
0
  6
CONTINUOUS
 10
86.5
 20
252.0
 30
0.0
 11
86.5
 21
247.5
 31
0.0
1001
ACAD
1000
ASC_BOUNDS
1002
{
1070
    19
1005
E4D
1002
}
  0
LINE
  5
7C2
  8
0
  6
CONTINUOUS
 10
87.0
 20
247.0
 30
0.0
 11
103.4999999999999
 21
247.0
 31
0.0
1001
ACAD
1000
ASC_BOUNDS
1002
{
1070
    19
1005
E4D
1005
E4D
1002
}
  0
LINE
  5
7C3
  8
0
  6
CONTINUOUS
 10
103.4999999999999
 20
247.0
 30
0.0
 11
103.4999999999999
 21
245.5
 31
0.0
1001
ACAD
1000
ASC_BOUNDS
1002
{
1070
    19
1005
E4D
1002
}
  0
LINE
  5
7C4
  8
0
  6
CONTINUOUS
 10
104.4999999999999
 20
244.49999999999989
 30
0.0
 11
114.5
 21
244.49999999999989
 31
0.0
1001
ACAD
1000
ASC_BOUNDS
1002
{
1070
    19
1005
E4D
1002
}
  0
LINE
  5
7C5
  8
0
  6
CONTINUOUS
 10
115.5
 20
245.5
 30
0.0
 11
115.5
 21
247.0
 31
0.0
  0
ARC
  5
7C6
  8
0
  6
CONTINUOUS
 10
114.5
 20
245.5
 30
0.0
 40
1.0
 50
270.0
 51
0.0
  0
ARC
  5
7C7
  8
0
  6
CONTINUOUS
 10
104.4999999999999
 20
245.5
 30
0.0
 40
1.0
 50
180.0
 51
270.0
1001
ACAD
1000
ASC_BOUNDS
1002
{
1070
    19
1005
E4D
1002
}
  0
LINE
  5
7C8
  8
0
  6
CONTINUOUS
 10
89.849999999999994
 20
247.0
 30
0.0
 11
89.849999999999966
 21
249.69999999999999
 31
0.0
1001
ACAD
1000
ASC_BOUNDS
1002
{
1070
    19
1005
E4D
1002
}
  0
LINE
  5
7C9
  8
0
  6
CONTINUOUS
 10
95.150000000000006
 20
247.0
 30
0.0
 11
95.150000000000006
 21
249.6999999999999
 31
0.0
1001
ACAD
1000
ASC_BOUNDS
1002
{
1070
    19
1005
E4D
1002
}
  0
LINE
  5
7CA
  8
0
  6
CENTER
 10
92.5
 20
244.0
 30
0.0
 11
92.5
 21
255.5
 31
0.0
  0
CIRCLE
  5
7CB
  8
0
  6
CONTINUOUS
 10
109.4999999999999
 20
192.5
 30
0.0
 40
15.5
  0
CIRCLE
  5
7CC
  8
0
  6
CONTINUOUS
 10
109.4999999999999
 20
192.5
 30
0.0
 40
15.5
  0
CIRCLE
  5
7CD
  8
0
  6
CONTINUOUS
 10
109.4999999999999
 20
192.5
 30
0.0
 40
12.0
  0
LINE
  5
7CE
  8
0
  6
CONTINUOUS
 10
109.4999999999999
 20
247.0
 30
0.0
 11
132.0
 21
247.0
 31
0.0
  0
LINE
  5
7CF
  8
0
  6
CONTINUOUS
 10
126.5
 20
202.49999999999989
 30
0.0
 11
121.342719282327
 21
202.49999999999989
 31
0.0
  0
LINE
  5
7D0
  8
0
  6
CONTINUOUS
 10
86.5
 20
196.5
 30
0.0
 11
86.5
 21
188.49999999999989
 31
0.0
  0
LINE
  5
7D1
  8
0
  6
CONTINUOUS
 10
92.5
 20
182.5
 30
0.0
 11
97.657280717672975
 21
182.5
 31
0.0
  0
LINE
  5
7D2
  8
0
  6
CONTINUOUS
 10
132.49999999999989
 20
188.49999999999989
 30
0.0
 11
132.49999999999989
 21
196.5
 31
0.0
  0
LINE
  5
7D3
  8
0
  6
CONTINUOUS
 10
97.657280717672975
 20
202.49999999999989
 30
0.0
 11
92.5
 21
202.49999999999989
 31
0.0
  0
LINE
  5
7D4
  8
0
  6
CONTINUOUS
 10
121.342719282327
 20
182.5
 30
0.0
 11
126.5
 21
182.5
 31
0.0
  0
ARC
  5
7D5
  8
0
  6
CONTINUOUS
 10
92.5
 20
196.5
 30
0.0
 40
6.0
 50
90.0
 51
180.0
  0
ARC
  5
7D6
  8
0
  6
CONTINUOUS
 10
92.5
 20
188.49999999999989
 30
0.0
 40
6.0
 50
180.0
 51
270.0
  0
ARC
  5
7D7
  8
0
  6
CONTINUOUS
 10
126.5
 20
188.49999999999989
 30
0.0
 40
6.0
 50
270.0
 51
0.0
  0
ARC
  5
7D8
  8
0
  6
CONTINUOUS
 10
126.5
 20
196.5
 30
0.0
 40
6.0
 50
0.0
 51
90.0
  0
LINE
  5
7D9
  8
0
  6
CENTER
 10
83.499999999999986
 20
192.5
 30
0.0
 11
135.49999999999989
 21
192.5
 31
0.0
  0
LINE
  5
7DA
  8
0
  6
CENTER
 10
126.5
 20
200.49999999999989
 30
0.0
 11
126.5
 21
184.49999999999989
 31
0.0
  0
LINE
  5
7DB
  8
0
  6
CENTER
 10
109.4999999999999
 20
174.0
 30
0.0
 11
109.4999999999999
 21
211.0
 31
0.0
  0
LINE
  5
7DC
  8
0
  6
CENTER
 10
92.5
 20
184.49999999999989
 30
0.0
 11
92.5
 21
200.49999999999989
 31
0.0
  0
LINE
  5
7DD
  8
0
  6
CONTINUOUS
 10
2.8823684788949322
 20
248.0
 30
0.0
 11
-16.867631521105061
 21
248.0
 31
0.0
  0
LINE
  5
7DE
  8
0
  6
CONTINUOUS
 10
-36.867631521105061
 20
248.24999999999989
 30
0.0
 11
-36.867631521105061
 21
252.24999999999989
 31
0.0
1001
ACAD
1000
ASC_BOUNDS
1002
{
1070
    19
1005
E29
1002
}
  0
LINE
  5
7DF
  8
0
  6
CONTINUOUS
 10
-21.867631521105061
 20
248.0
 30
0.0
 11
-21.867631521105061
 21
246.49999999999989
 31
0.0
1001
ACAD
1000
ASC_BOUNDS
1002
{
1070
    19
1005
E29
1002
}
  0
LINE
  5
7E0
  8
0
  6
CONTINUOUS
 10
-20.867631521105061
 20
245.5
 30
0.0
 11
-12.867631521105061
 21
245.5
 31
0.0
1001
ACAD
1000
ASC_BOUNDS
1002
{
1070
    19
1005
E29
1002
}
  0
LINE
  5
7E1
  8
0
  6
CONTINUOUS
 10
-11.867631521105061
 20
246.49999999999989
 30
0.0
 11
-11.867631521105061
 21
248.0
 31
0.0
  0
LINE
  5
7E2
  8
0
  6
CONTINUOUS
 10
-14.367631521105061
 20
240.5
 30
0.0
 11
-13.867631521105061
 21
242.5
 31
0.0
  0
LINE
  5
7E3
  8
0
  6
CONTINUOUS
 10
-13.867631521105061
 20
242.5
 30
0.0
 11
-13.867631521105061
 21
245.5
 31
0.0
  0
LINE
  5
7E4
  8
0
  6
CONTINUOUS
 10
-21.867631521105061
 20
248.0
 30
0.0
 11
-36.617631521105061
 21
248.0
 31
0.0
1001
ACAD
1000
ASC_BOUNDS
1002
{
1070
    19
1005
E29
1005
E29
1002
}
  0
ARC
  5
7E5
  8
0
  6
CONTINUOUS
 10
-20.867631521105061
 20
246.49999999999989
 30
0.0
 40
1.0
 50
180.0
 51
270.0
1001
ACAD
1000
ASC_BOUNDS
1002
{
1070
    19
1005
E29
1002
}
  0
ARC
  5
7E6
  8
0
  6
CONTINUOUS
 10
-12.867631521105061
 20
246.49999999999989
 30
0.0
 40
1.0
 50
270.0
 51
0.0
  0
LINE
  5
7E7
  8
0
  6
CONTINUOUS
 10
-34.017631521105059
 20
248.0
 30
0.0
 11
-34.017631521105059
 21
250.24999999999989
 31
0.0
1001
ACAD
1000
ASC_BOUNDS
1002
{
1070
    19
1005
E29
1002
}
  0
LINE
  5
7E8
  8
0
  6
CONTINUOUS
 10
-29.717631521105059
 20
248.0
 30
0.0
 11
-29.717631521105059
 21
250.24999999999989
 31
0.0
1001
ACAD
1000
ASC_BOUNDS
1002
{
1070
    19
1005
E29
1002
}
  0
LINE
  5
7E9
  8
0
  6
CONTINUOUS
 10
-29.717631521105059
 20
250.24999999999989
 30
0.0
 11
-34.017631521105059
 21
250.24999999999989
 31
0.0
  0
LINE
  5
7EA
  8
0
  6
CENTER
 10
-31.867631521105061
 20
245.0
 30
0.0
 11
-31.867631521105061
 21
255.5
 31
0.0
  0
CIRCLE
  5
7EB
  8
0
  6
CONTINUOUS
 10
-16.867631521105061
 20
192.5
 30
0.0
 40
12.5
  0
CIRCLE
  5
7EC
  8
0
  6
CONTINUOUS
 10
-16.867631521105061
 20
192.5
 30
0.0
 40
12.5
  0
LINE
  5
7ED
  8
0
  6
CONTINUOUS
 10
-36.867631521105061
 20
196.5
 30
0.0
 11
-36.867631521105061
 21
188.49999999999989
 31
0.0
  0
LINE
  5
7EE
  8
0
  6
CONTINUOUS
 10
-31.867631521105061
 20
183.49999999999989
 30
0.0
 11
-25.542307307553809
 21
183.49999999999989
 31
0.0
  0
LINE
  5
7EF
  8
0
  6
CONTINUOUS
 10
3.1323684788949322
 20
188.49999999999989
 30
0.0
 11
3.1323684788949322
 21
196.5
 31
0.0
  0
LINE
  5
7F0
  8
0
  6
CONTINUOUS
 10
-1.8676315211050669
 20
201.5
 30
0.0
 11
-8.1929557346563229
 21
201.5
 31
0.0
  0
LINE
  5
7F1
  8
0
  6
CONTINUOUS
 10
-25.542307307553809
 20
201.5
 30
0.0
 11
-31.867631521105061
 21
201.5
 31
0.0
  0
LINE
  5
7F2
  8
0
  6
CONTINUOUS
 10
-8.1929557346563229
 20
183.49999999999989
 30
0.0
 11
-1.8676315211050669
 21
183.49999999999989
 31
0.0
  0
ARC
  5
7F3
  8
0
  6
CONTINUOUS
 10
-1.8676315211050669
 20
188.49999999999989
 30
0.0
 40
5.0
 50
270.0
 51
0.0
  0
ARC
  5
7F4
  8
0
  6
CONTINUOUS
 10
-1.8676315211050669
 20
196.5
 30
0.0
 40
5.0
 50
0.0
 51
90.0
  0
ARC
  5
7F5
  8
0
  6
CONTINUOUS
 10
-31.867631521105061
 20
196.5
 30
0.0
 40
5.0
 50
90.0
 51
180.0
  0
ARC
  5
7F6
  8
0
  6
CONTINUOUS
 10
-31.867631521105061
 20
188.49999999999989
 30
0.0
 40
5.0
 50
180.0
 51
270.0
  0
LINE
  5
7F7
  8
0
  6
CENTER
 10
6.1323684788949322
 20
192.5
 30
0.0
 11
-39.867631521105068
 21
192.5
 31
0.0
  0
LINE
  5
7F8
  8
0
  6
CENTER
 10
-16.867631521105061
 20
177.0
 30
0.0
 11
-16.867631521105061
 21
208.0
 31
0.0
  0
LINE
  5
7F9
  8
0
  6
CENTER
 10
-1.8676315211050669
 20
185.5
 30
0.0
 11
-1.8676315211050669
 21
199.5
 31
0.0
  0
LINE
  5
7FA
  8
0
  6
CENTER
 10
-31.867631521105061
 20
199.5
 30
0.0
 11
-31.867631521105061
 21
185.5
 31
0.0
  0
LINE
  5
7FB
  8
0
  6
CENTER
 10
169.5
 20
174.0
 30
0.0
 11
169.5
 21
211.0
 31
0.0
  0
LINE
  5
7FC
  8
0
  6
CENTER
 10
143.5
 20
192.5
 30
0.0
 11
195.5
 21
192.5
 31
0.0
  0
CIRCLE
  5
7FD
  8
0
  6
CONTINUOUS
 10
169.5
 20
192.5
 30
0.0
 40
12.0
  0
CIRCLE
  5
7FE
  8
0
  6
CONTINUOUS
 10
169.5
 20
192.5
 30
0.0
 40
15.5
  0
CIRCLE
  5
7FF
  8
0
  6
CONTINUOUS
 10
169.5
 20
192.5
 30
0.0
 40
15.5
  0
LINE
  5
800
  8
0
  6
CENTER
 10
152.5
 20
184.49999999999989
 30
0.0
 11
152.5
 21
200.49999999999989
 31
0.0
  0
ARC
  5
801
  8
0
  6
CONTINUOUS
 10
152.5
 20
188.49999999999989
 30
0.0
 40
6.0
 50
180.0
 51
270.0
  0
LINE
  5
802
  8
0
  6
CONTINUOUS
 10
152.5
 20
182.5
 30
0.0
 11
157.6572807176729
 21
182.5
 31
0.0
  0
LINE
  5
803
  8
0
  6
CONTINUOUS
 10
157.6572807176729
 20
202.49999999999989
 30
0.0
 11
152.5
 21
202.49999999999989
 31
0.0
  0
ARC
  5
804
  8
0
  6
CONTINUOUS
 10
152.5
 20
196.5
 30
0.0
 40
6.0
 50
90.0
 51
180.0
  0
LINE
  5
805
  8
0
  6
CONTINUOUS
 10
146.5
 20
196.5
 30
0.0
 11
146.5
 21
188.49999999999989
 31
0.0
  0
LINE
  5
806
  8
0
  6
CENTER
 10
186.5
 20
200.49999999999989
 30
0.0
 11
186.5
 21
184.49999999999989
 31
0.0
  0
ARC
  5
807
  8
0
  6
CONTINUOUS
 10
186.5
 20
188.49999999999989
 30
0.0
 40
6.0
 50
270.0
 51
0.0
  0
LINE
  5
808
  8
0
  6
CONTINUOUS
 10
181.34271928232701
 20
182.5
 30
0.0
 11
186.5
 21
182.5
 31
0.0
  0
ARC
  5
809
  8
0
  6
CONTINUOUS
 10
186.5
 20
196.5
 30
0.0
 40
6.0
 50
0.0
 51
90.0
  0
LINE
  5
80A
  8
0
  6
CONTINUOUS
 10
186.5
 20
202.49999999999989
 30
0.0
 11
181.34271928232701
 21
202.49999999999989
 31
0.0
  0
LINE
  5
80B
  8
0
  6
CONTINUOUS
 10
192.5
 20
188.49999999999989
 30
0.0
 11
192.5
 21
196.5
 31
0.0
  0
LINE
  5
80C
  8
0
  6
CENTER
 10
152.5
 20
244.0
 30
0.0
 11
152.5
 21
255.5
 31
0.0
  0
LINE
  5
810
  8
0
  6
CENTER
 10
169.5
 20
290.5
 30
0.0
 11
169.5
 21
223.49999999999989
 31
0.0
1001
ACAD
1000
ASC_BOUNDS
1002
{
1070
    19
1005
E5F
1002
}
  0
LINE
  5
813
  8
0
  6
CONTINUOUS
 10
169.5
 20
247.0
 30
0.0
 11
191.5
 21
247.0
 31
0.0
  0
LINE
  5
814
  8
0
  6
CONTINUOUS
 10
164.5
 20
244.49999999999989
 30
0.0
 11
174.5
 21
244.49999999999989
 31
0.0
1001
ACAD
1000
ASC_BOUNDS
1002
{
1070
    19
1005
E5F
1002
}
  0
LINE
  5
815
  8
0
  6
CONTINUOUS
 10
172.5
 20
227.0
 30
0.0
 11
166.5
 21
227.0
 31
0.0
  0
LINE
  5
816
  8
0
  6
CONTINUOUS
 10
165.5
 20
229.0
 30
0.0
 11
173.5
 21
229.0
 31
0.0
  0
ARC
  5
817
  8
0
  6
CONTINUOUS
 10
169.5
 20
235.74999999999989
 30
0.0
 40
9.25
 50
251.07535558394861
 51
288.92464441605142
  0
LINE
  5
818
  8
0
 10
169.5
 20
252.49999999999989
 30
0.0
 11
191.5
 21
252.49999999999989
 31
0.0
  0
LINE
  5
819
  8
0
  6
CONTINUOUS
 10
147.0
 20
247.0
 30
0.0
 11
163.49999999999989
 21
247.0
 31
0.0
1001
ACAD
1000
ASC_BOUNDS
1002
{
1070
    19
1005
E5F
1005
E5F
1002
}
  0
LINE
  5
81A
  8
0
 10
147.0
 20
252.49999999999989
 30
0.0
 11
169.5
 21
252.49999999999989
 31
0.0
1001
ACAD
1000
ASC_BOUNDS
1002
{
1070
    19
1005
E5F
1005
E5F
1002
}
  0
LINE
  5
81B
  8
0
  6
CONTINUOUS
 10
165.5
 20
244.49999999999989
 30
0.0
 11
165.5
 21
229.0
 31
0.0
  0
LINE
  5
81C
  8
0
  6
CONTINUOUS
 10
165.5
 20
229.0
 30
0.0
 11
166.5
 21
227.0
 31
0.0
  0
ARC
  5
81D
  8
0
  6
CONTINUOUS
 10
164.5
 20
245.5
 30
0.0
 40
1.0
 50
180.0
 51
270.0
1001
ACAD
1000
ASC_BOUNDS
1002
{
1070
    19
1005
E5F
1002
}
  0
LINE
  5
822
  8
0
  6
CONTINUOUS
 10
163.49999999999989
 20
247.0
 30
0.0
 11
163.49999999999989
 21
245.5
 31
0.0
1001
ACAD
1000
ASC_BOUNDS
1002
{
1070
    19
1005
E5F
1002
}
  0
LINE
  5
824
  8
0
  6
CONTINUOUS
 10
173.5
 20
244.49999999999989
 30
0.0
 11
173.5
 21
229.0
 31
0.0
  0
LINE
  5
825
  8
0
  6
CONTINUOUS
 10
173.5
 20
229.0
 30
0.0
 11
172.5
 21
227.0
 31
0.0
  0
ARC
  5
826
  8
0
  6
CONTINUOUS
 10
174.5
 20
245.5
 30
0.0
 40
1.0
 50
270.0
 51
0.0
  0
LINE
  5
827
  8
0
  6
CONTINUOUS
 10
175.5
 20
245.5
 30
0.0
 11
175.5
 21
247.0
 31
0.0
  0
LINE
  5
828
  8
0
  6
CONTINUOUS
 10
192.5
 20
251.5
 30
0.0
 11
192.5
 21
248.0
 31
0.0
  0
ARC
  5
829
  8
0
  6
CONTINUOUS
 10
191.5
 20
248.0
 30
0.0
 40
1.0
 50
270.0
 51
0.0
  0
ARC
  5
82A
  8
0
  6
CONTINUOUS
 10
191.5
 20
251.5
 30
0.0
 40
1.0
 50
0.0
 51
90.0
  0
CIRCLE
  5
87E
  8
0
  6
CONTINUOUS
 10
33.132368478894932
 20
192.5
 30
0.0
 40
12.5
  0
CIRCLE
  5
87F
  8
0
  6
CONTINUOUS
 10
33.132368478894932
 20
192.5
 30
0.0
 40
12.5
  0
LINE
  5
880
  8
0
  6
CENTER
 10
56.132368478894932
 20
192.5
 30
0.0
 11
10.13236847889493
 21
192.5
 31
0.0
  0
LINE
  5
881
  8
0
  6
CENTER
 10
33.132368478894932
 20
177.0
 30
0.0
 11
33.132368478894932
 21
208.0
 31
0.0
  0
ARC
  5
882
  8
0
  6
CONTINUOUS
 10
18.132368478894929
 20
188.49999999999989
 30
0.0
 40
5.0
 50
180.0
 51
270.0
  0
LINE
  5
883
  8
0
  6
CONTINUOUS
 10
18.132368478894929
 20
183.49999999999989
 30
0.0
 11
24.45769269244618
 21
183.49999999999989
 31
0.0
  0
LINE
  5
884
  8
0
  6
CONTINUOUS
 10
24.45769269244618
 20
201.5
 30
0.0
 11
18.132368478894929
 21
201.5
 31
0.0
  0
LINE
  5
885
  8
0
  6
CENTER
 10
18.132368478894929
 20
199.5
 30
0.0
 11
18.132368478894929
 21
185.5
 31
0.0
  0
ARC
  5
886
  8
0
  6
CONTINUOUS
 10
18.132368478894929
 20
196.5
 30
0.0
 40
5.0
 50
90.0
 51
180.0
  0
LINE
  5
887
  8
0
  6
CONTINUOUS
 10
13.13236847889493
 20
196.5
 30
0.0
 11
13.13236847889493
 21
188.49999999999989
 31
0.0
  0
ARC
  5
888
  8
0
  6
CONTINUOUS
 10
48.132368478894932
 20
188.49999999999989
 30
0.0
 40
5.0
 50
270.0
 51
0.0
  0
LINE
  5
889
  8
0
  6
CONTINUOUS
 10
41.807044265343677
 20
183.49999999999989
 30
0.0
 11
48.132368478894932
 21
183.49999999999989
 31
0.0
  0
ARC
  5
88A
  8
0
  6
CONTINUOUS
 10
48.132368478894932
 20
196.5
 30
0.0
 40
5.0
 50
0.0
 51
90.0
  0
LINE
  5
88B
  8
0
  6
CENTER
 10
48.132368478894932
 20
185.5
 30
0.0
 11
48.132368478894932
 21
199.5
 31
0.0
  0
LINE
  5
88C
  8
0
  6
CONTINUOUS
 10
53.132368478894932
 20
188.49999999999989
 30
0.0
 11
53.132368478894932
 21
196.5
 31
0.0
  0
LINE
  5
88D
  8
0
  6
CONTINUOUS
 10
48.132368478894932
 20
201.5
 30
0.0
 11
41.807044265343677
 21
201.5
 31
0.0
  0
LINE
  5
88E
  8
0
  6
CENTER
 10
18.132368478894929
 20
245.0
 30
0.0
 11
18.132368478894929
 21
255.5
 31
0.0
  0
LINE
  5
891
  8
0
  6
CENTER
 10
33.132368478894932
 20
228.5
 30
0.0
 11
33.132368478894932
 21
284.5
 31
0.0
1001
ACAD
1000
ASC_BOUNDS
1002
{
1070
    19
1005
E3B
1002
}
  0
ARC
  5
894
  8
0
  6
CONTINUOUS
 10
37.132368478894932
 20
246.49999999999989
 30
0.0
 40
1.0
 50
270.0
 51
0.0
  0
LINE
  5
895
  8
0
  6
CONTINUOUS
 10
52.882368478894932
 20
248.0
 30
0.0
 11
33.132368478894932
 21
248.0
 31
0.0
  0
LINE
  5
896
  8
0
  6
CONTINUOUS
 10
13.38236847889493
 20
252.49999999999989
 30
0.0
 11
52.882368478894932
 21
252.49999999999989
 31
0.0
1001
ACAD
1000
ASC_BOUNDS
1002
{
1070
    19
1005
E3B
1005
E3B
1002
}
  0
LINE
  5
897
  8
0
  6
CONTINUOUS
 10
28.132368478894929
 20
248.0
 30
0.0
 11
13.38236847889493
 21
248.0
 31
0.0
1001
ACAD
1000
ASC_BOUNDS
1002
{
1070
    19
1005
E3B
1005
E3B
1002
}
  0
LINE
  5
898
  8
0
  6
CONTINUOUS
 10
35.632368478894932
 20
232.5
 30
0.0
 11
36.132368478894932
 21
234.5
 31
0.0
  0
LINE
  5
899
  8
0
  6
CONTINUOUS
 10
30.132368478894929
 20
234.5
 30
0.0
 11
30.632368478894929
 21
232.5
 31
0.0
  0
ARC
  5
89A
  8
0
  6
CONTINUOUS
 10
33.132368478894932
 20
235.12499999999989
 30
0.0
 40
3.625
 50
226.39718102729611
 51
313.6028189727038
  0
LINE
  5
89B
  8
0
  6
CONTINUOUS
 10
30.632368478894929
 20
232.5
 30
0.0
 11
35.632368478894932
 21
232.5
 31
0.0
  0
LINE
  5
89E
  8
0
  6
CONTINUOUS
 10
29.132368478894929
 20
245.5
 30
0.0
 11
37.132368478894932
 21
245.5
 31
0.0
1001
ACAD
1000
ASC_BOUNDS
1002
{
1070
    19
1005
E3B
1002
}
  0
ARC
  5
89F
  8
0
  6
CONTINUOUS
 10
29.132368478894929
 20
246.49999999999989
 30
0.0
 40
1.0
 50
180.0
 51
270.0
1001
ACAD
1000
ASC_BOUNDS
1002
{
1070
    19
1005
E3B
1002
}
  0
LINE
  5
8A0
  8
0
  6
CONTINUOUS
 10
28.132368478894929
 20
248.0
 30
0.0
 11
28.132368478894929
 21
246.49999999999989
 31
0.0
1001
ACAD
1000
ASC_BOUNDS
1002
{
1070
    19
1005
E3B
1002
}
  0
LINE
  5
8A5
  8
0
  6
CONTINUOUS
 10
30.132368478894929
 20
234.5
 30
0.0
 11
36.132368478894932
 21
234.5
 31
0.0
  0
LINE
  5
8A6
  8
0
  6
CONTINUOUS
 10
30.132368478894929
 20
245.5
 30
0.0
 11
30.132368478894929
 21
234.5
 31
0.0
  0
LINE
  5
8A7
  8
0
  6
CONTINUOUS
 10
36.132368478894932
 20
234.5
 30
0.0
 11
36.132368478894932
 21
245.5
 31
0.0
  0
LINE
  5
8A8
  8
0
  6
CONTINUOUS
 10
38.132368478894932
 20
246.49999999999989
 30
0.0
 11
38.132368478894932
 21
248.0
 31
0.0
  0
LINE
  5
8DA
  8
0
  6
CENTER
 10
126.5
 20
244.0
 30
0.0
 11
126.5
 21
255.5
 31
0.0
  0
LINE
  5
8DB
  8
0
 10
-34.017631521105059
 20
250.24999999999989
 30
0.0
 11
-36.017631521105059
 21
252.25
 31
0.0
1001
ACAD
1000
ASC_BOUNDS
1002
{
1070
    19
1005
E29
1002
}
  0
CIRCLE
  5
8DC
  8
0
 10
-31.867631521105061
 20
192.5
 30
0.0
 40
2.149999999999999
  0
CIRCLE
  5
8DD
  8
0
 10
-1.8676315211050669
 20
192.5
 30
0.0
 40
2.149999999999999
  0
CIRCLE
  5
8DE
  8
0
 10
48.132368478894932
 20
192.5
 30
0.0
 40
2.149999999999999
  0
CIRCLE
  5
8DF
  8
0
 10
18.132368478894929
 20
192.5
 30
0.0
 40
2.149999999999999
  0
LINE
  5
8E0
  8
0
  6
CONTINUOUS
 10
-36.017631521105073
 20
252.25
 30
0.0
 11
-36.017631521105059
 21
252.4886859966642
 31
0.0
  0
LINE
  5
8E1
  8
0
 10
-36.017631521105059
 20
252.25
 30
0.0
 11
-36.017631521105059
 21
252.48167842892769
 31
0.0
  0
LINE
  5
8E2
  8
0
 10
-36.017631521105059
 20
252.25
 30
0.0
 11
-36.017631521105059
 21
252.4886859966642
 31
0.0
1001
ACAD
1000
ASC_BOUNDS
1002
{
1070
    19
1005
E29
1002
}
  0
LINE
  5
8E3
  8
0
  6
CONTINUOUS
 10
-27.717631521105059
 20
252.25
 30
0.0
 11
-27.717631521105069
 21
252.4886859966642
 31
0.0
  0
LINE
  5
8E4
  8
0
 10
-27.717631521105069
 20
252.25
 30
0.0
 11
-27.717631521105069
 21
252.4886859966642
 31
0.0
  0
LINE
  5
8E5
  8
0
 10
-27.717631521105069
 20
252.25
 30
0.0
 11
-27.717631521105069
 21
252.48167842892769
 31
0.0
1001
ACAD
1000
ASC_BOUNDS
1002
{
1070
    19
1005
E29
1002
}
  0
LINE
  5
8E6
  8
0
 10
-29.717631521105059
 20
250.24999999999989
 30
0.0
 11
-27.717631521105069
 21
252.25
 31
0.0
1001
ACAD
1000
ASC_BOUNDS
1002
{
1070
    19
1005
E29
1002
}
  0
LINE
  5
8E7
  8
0
 10
-36.017631521105073
 20
252.25
 30
0.0
 11
-27.717631521105069
 21
252.25
 31
0.0
  0
LINE
  5
8E8
  8
0
 10
13.982368478894919
 20
252.25
 30
0.0
 11
22.282368478894931
 21
252.25
 31
0.0
  0
LINE
  5
8E9
  8
0
 10
15.98236847889493
 20
250.24999999999989
 30
0.0
 11
13.98236847889493
 21
252.25
 31
0.0
1001
ACAD
1000
ASC_BOUNDS
1002
{
1070
    19
1005
E3B
1002
}
  0
LINE
  5
8EA
  8
0
  6
CONTINUOUS
 10
13.982368478894919
 20
252.25
 30
0.0
 11
13.98236847889493
 21
252.4886859966642
 31
0.0
  0
LINE
  5
8EB
  8
0
 10
13.98236847889493
 20
252.25
 30
0.0
 11
13.98236847889493
 21
252.4886859966642
 31
0.0
  0
LINE
  5
8EC
  8
0
 10
13.98236847889493
 20
252.25
 30
0.0
 11
13.98236847889493
 21
252.48167842892769
 31
0.0
1001
ACAD
1000
ASC_BOUNDS
1002
{
1070
    19
1005
E3B
1002
}
  0
LINE
  5
8ED
  8
0
  6
CONTINUOUS
 10
20.28236847889492
 20
248.0
 30
0.0
 11
20.28236847889492
 21
250.24999999999989
 31
0.0
1001
ACAD
1000
ASC_BOUNDS
1002
{
1070
    19
1005
E3B
1002
}
  0
LINE
  5
8EE
  8
0
  6
CONTINUOUS
 10
15.98236847889493
 20
248.0
 30
0.0
 11
15.98236847889493
 21
250.24999999999989
 31
0.0
1001
ACAD
1000
ASC_BOUNDS
1002
{
1070
    19
1005
E3B
1002
}
  0
LINE
  5
8EF
  8
0
  6
CONTINUOUS
 10
20.28236847889492
 20
250.24999999999989
 30
0.0
 11
15.98236847889493
 21
250.24999999999989
 31
0.0
  0
LINE
  5
8F0
  8
0
 10
20.28236847889492
 20
250.24999999999989
 30
0.0
 11
22.282368478894931
 21
252.25
 31
0.0
1001
ACAD
1000
ASC_BOUNDS
1002
{
1070
    19
1005
E3B
1002
}
  0
LINE
  5
8F1
  8
0
 10
22.282368478894931
 20
252.25
 30
0.0
 11
22.282368478894931
 21
252.48167842892769
 31
0.0
  0
LINE
  5
8F2
  8
0
 10
22.282368478894931
 20
252.25
 30
0.0
 11
22.282368478894931
 21
252.4886859966642
 31
0.0
  0
LINE
  5
8F3
  8
0
  6
CONTINUOUS
 10
22.282368478894941
 20
252.25
 30
0.0
 11
22.282368478894931
 21
252.4886859966642
 31
0.0
1001
ACAD
1000
ASC_BOUNDS
1002
{
1070
    19
1005
E3B
1002
}
  0
LINE
  5
8F4
  8
0
 10
87.300000000000026
 20
252.25
 30
0.0
 11
87.299999999999997
 21
252.5
 31
0.0
1001
ACAD
1000
ASC_BOUNDS
1002
{
1070
    19
1005
E4D
1002
}
  0
LINE
  5
8F5
  8
0
  6
CENTER
 10
186.5
 20
244.0
 30
0.0
 11
186.5
 21
255.5
 31
0.0
  0
ARC
  5
8F6
  8
0
 10
87.0
 20
252.0
 30
0.0
 40
0.5
 50
89.999999999999915
 51
180.0
1001
ACAD
1000
ASC_BOUNDS
1002
{
1070
    19
1005
E4D
1002
}
  0
ARC
  5
8F7
  8
0
  6
CONTINUOUS
 10
87.0
 20
247.5
 30
0.0
 40
0.5
 50
180.0
 51
270.0
1001
ACAD
1000
ASC_BOUNDS
1002
{
1070
    19
1005
E4D
1002
}
  0
LINE
  5
8F8
  8
0
  6
CONTINUOUS
 10
132.49999999999989
 20
252.0
 30
0.0
 11
132.49999999999989
 21
247.5
 31
0.0
  0
ARC
  5
8F9
  8
0
  6
CONTINUOUS
 10
132.0
 20
247.5
 30
0.0
 40
0.5
 50
270.0
 51
0.0
  0
ARC
  5
8FA
  8
0
 10
132.0
 20
252.0
 30
0.0
 40
0.5
 50
0.0
 51
90.000000000000057
  0
LINE
  5
8FB
  8
0
 10
87.299999999999983
 20
252.25
 30
0.0
 11
97.699999999999989
 21
252.24999999999989
 31
0.0
  0
LINE
  5
8FC
  8
0
 10
87.299999999999997
 20
252.24999999999989
 30
0.0
 11
89.849999999999966
 21
249.69999999999999
 31
0.0
1001
ACAD
1000
ASC_BOUNDS
1002
{
1070
    19
1005
E4D
1002
}
  0
LINE
  5
8FD
  8
0
 10
89.849999999999966
 20
249.6999999999999
 30
0.0
 11
95.150000000000006
 21
249.6999999999999
 31
0.0
  0
LINE
  5
8FE
  8
0
 10
97.699999999999989
 20
252.25
 30
0.0
 11
97.700000000000017
 21
252.5
 31
0.0
1001
ACAD
1000
ASC_BOUNDS
1002
{
1070
    19
1005
E4D
1002
}
  0
LINE
  5
8FF
  8
0
 10
97.700000000000017
 20
252.24999999999989
 30
0.0
 11
95.150000000000034
 21
249.69999999999999
 31
0.0
1001
ACAD
1000
ASC_BOUNDS
1002
{
1070
    19
1005
E4D
1002
}
  0
LINE
  5
900
  8
0
 10
147.2999999999999
 20
252.25
 30
0.0
 11
157.6999999999999
 21
252.24999999999989
 31
0.0
  0
LINE
  5
901
  8
0
 10
149.84999999999991
 20
249.6999999999999
 30
0.0
 11
155.15000000000001
 21
249.6999999999999
 31
0.0
  0
LINE
  5
902
  8
0
  6
CONTINUOUS
 10
149.84999999999991
 20
247.0
 30
0.0
 11
149.84999999999991
 21
249.69999999999999
 31
0.0
1001
ACAD
1000
ASC_BOUNDS
1002
{
1070
    19
1005
E5F
1002
}
  0
LINE
  5
903
  8
0
  6
CONTINUOUS
 10
146.5
 20
252.0
 30
0.0
 11
146.5
 21
247.5
 31
0.0
1001
ACAD
1000
ASC_BOUNDS
1002
{
1070
    19
1005
E5F
1002
}
  0
ARC
  5
904
  8
0
  6
CONTINUOUS
 10
147.0
 20
247.5
 30
0.0
 40
0.5
 50
180.0
 51
270.0
1001
ACAD
1000
ASC_BOUNDS
1002
{
1070
    19
1005
E5F
1002
}
  0
ARC
  5
905
  8
0
 10
147.0
 20
252.0
 30
0.0
 40
0.5
 50
89.999999999999915
 51
180.0
1001
ACAD
1000
ASC_BOUNDS
1002
{
1070
    19
1005
E5F
1002
}
  0
LINE
  5
906
  8
0
 10
147.30000000000001
 20
252.25
 30
0.0
 11
147.30000000000001
 21
252.5
 31
0.0
1001
ACAD
1000
ASC_BOUNDS
1002
{
1070
    19
1005
E5F
1002
}
  0
LINE
  5
907
  8
0
 10
147.30000000000001
 20
252.24999999999989
 30
0.0
 11
149.84999999999991
 21
249.69999999999999
 31
0.0
1001
ACAD
1000
ASC_BOUNDS
1002
{
1070
    19
1005
E5F
1002
}
  0
LINE
  5
908
  8
0
  6
CONTINUOUS
 10
155.15000000000001
 20
247.0
 30
0.0
 11
155.15000000000001
 21
249.6999999999999
 31
0.0
1001
ACAD
1000
ASC_BOUNDS
1002
{
1070
    19
1005
E5F
1002
}
  0
LINE
  5
909
  8
0
 10
157.6999999999999
 20
252.24999999999989
 30
0.0
 11
155.15000000000001
 21
249.69999999999999
 31
0.0
1001
ACAD
1000
ASC_BOUNDS
1002
{
1070
    19
1005
E5F
1002
}
  0
LINE
  5
90A
  8
0
 10
157.6999999999999
 20
252.25
 30
0.0
 11
157.6999999999999
 21
252.5
 31
0.0
1001
ACAD
1000
ASC_BOUNDS
1002
{
1070
    19
1005
E5F
1002
}
  0
ARC
  5
90B
  8
0
 10
92.5
 20
192.5
 30
0.0
 40
5.2000000000000171
 50
64.616405071900161
 51
295.3835949280998
  0
ARC
  5
90C
  8
0
 10
126.5
 20
192.5
 30
0.0
 40
5.2000000000000171
 50
244.61640507190009
 51
115.3835949280998
  0
ARC
  5
90D
  8
0
 10
152.5
 20
192.5
 30
0.0
 40
5.2000000000000171
 50
64.616405071900161
 51
295.3835949280998
  0
ARC
  5
90E
  8
0
 10
186.5
 20
192.5
 30
0.0
 40
5.2000000000000171
 50
244.61640507190009
 51
115.3835949280998
  0
ARC
  5
90F
  8
0
 10
92.5
 20
192.5
 30
0.0
 40
2.6500000000000048
 50
51.756368297600503
 51
308.24363170239951
  0
ARC
  5
910
  8
0
 10
126.5
 20
192.5
 30
0.0
 40
2.6500000000000048
 50
231.75636829760049
 51
128.2436317023994
  0
ARC
  5
911
  8
0
 10
152.5
 20
192.5
 30
0.0
 40
2.6500000000000048
 50
51.756368297600503
 51
308.24363170239951
  0
ARC
  5
912
  8
0
 10
186.5
 20
192.5
 30
0.0
 40
2.6500000000000048
 50
231.75636829760049
 51
128.2436317023994
  0
ARC
  5
913
  8
0
 10
-31.867631521105061
 20
192.5
 30
0.0
 40
4.1499999999999906
 50
46.326958448662417
 51
313.67304155133752
  0
ARC
  5
914
  8
0
 10
-1.8676315211050669
 20
192.5
 30
0.0
 40
4.1499999999999906
 50
226.3269584486624
 51
133.67304155133749
  0
ARC
  5
915
  8
0
 10
18.132368478894929
 20
192.5
 30
0.0
 40
4.1499999999999906
 50
46.326958448662417
 51
313.67304155133752
  0
ARC
  5
916
  8
0
 10
48.132368478894932
 20
192.5
 30
0.0
 40
4.1499999999999906
 50
226.3269584486624
 51
133.67304155133749
  0
LINE
  5
917
  8
0
  6
CENTER
 10
-1.8676315211050669
 20
245.0
 30
0.0
 11
-1.8676315211050669
 21
255.5
 31
0.0
  0
LINE
  5
918
  8
0
  6
CENTER
 10
48.132368478894932
 20
245.0
 30
0.0
 11
48.132368478894932
 21
255.5
 31
0.0
  0
CIRCLE
  5
919
  8
0
  6
CONTINUOUS
 10
-16.867631521105061
 20
192.5
 30
0.0
 40
10.0
  0
CIRCLE
  5
91A
  8
0
  6
CONTINUOUS
 10
33.132368478894932
 20
192.5
 30
0.0
 40
10.0
  0
ARC
  5
91F
  8
0
  6
CONTINUOUS
 10
-36.617631521105061
 20
252.24999999999989
 30
0.0
 40
0.25
 50
90.0
 51
180.0
1001
ACAD
1000
ASC_BOUNDS
1002
{
1070
    19
1005
E29
1002
}
  0
ARC
  5
920
  8
0
  6
CONTINUOUS
 10
-36.617631521105061
 20
248.24999999999989
 30
0.0
 40
0.25
 50
180.0
 51
270.0
1001
ACAD
1000
ASC_BOUNDS
1002
{
1070
    19
1005
E29
1002
}
  0
LINE
  5
921
  8
0
  6
CONTINUOUS
 10
3.1323684788949322
 20
248.24999999999989
 30
0.0
 11
3.1323684788949322
 21
252.24999999999989
 31
0.0
  0
ARC
  5
922
  8
0
  6
CONTINUOUS
 10
2.8823684788949322
 20
248.24999999999989
 30
0.0
 40
0.25
 50
270.0
 51
0.0
  0
ARC
  5
923
  8
0
  6
CONTINUOUS
 10
2.8823684788949322
 20
252.24999999999989
 30
0.0
 40
0.25
 50
0.0
 51
90.0
  0
LINE
  5
924
  8
0
  6
CONTINUOUS
 10
13.13236847889493
 20
248.24999999999989
 30
0.0
 11
13.13236847889493
 21
252.24999999999989
 31
0.0
1001
ACAD
1000
ASC_BOUNDS
1002
{
1070
    19
1005
E3B
1002
}
  0
ARC
  5
925
  8
0
  6
CONTINUOUS
 10
13.38236847889493
 20
248.24999999999989
 30
0.0
 40
0.25
 50
180.0
 51
270.0
1001
ACAD
1000
ASC_BOUNDS
1002
{
1070
    19
1005
E3B
1002
}
  0
ARC
  5
926
  8
0
  6
CONTINUOUS
 10
13.38236847889493
 20
252.24999999999989
 30
0.0
 40
0.25
 50
90.0
 51
180.0
1001
ACAD
1000
ASC_BOUNDS
1002
{
1070
    19
1005
E3B
1002
}
  0
LINE
  5
927
  8
0
  6
CONTINUOUS
 10
53.132368478894932
 20
248.24999999999989
 30
0.0
 11
53.132368478894932
 21
252.24999999999989
 31
0.0
  0
ARC
  5
928
  8
0
  6
CONTINUOUS
 10
52.882368478894932
 20
248.24999999999989
 30
0.0
 40
0.25
 50
270.0
 51
0.0
  0
ARC
  5
929
  8
0
  6
CONTINUOUS
 10
52.882368478894932
 20
252.24999999999989
 30
0.0
 40
0.25
 50
0.0
 51
90.0
  0
LINE
  5
960
  8
0
 10
185.0
 20
280.5
 30
0.0
 11
154.0
 21
280.5
 31
0.0
  0
LINE
  5
961
  8
0
  6
CONTINUOUS
 10
169.5
 20
278.0
 30
0.0
 11
185.0
 21
278.0
 31
0.0
  0
LINE
  5
962
  8
0
  6
CONTINUOUS
 10
179.0
 20
271.49999999999989
 30
0.0
 11
169.5
 21
271.49999999999989
 31
0.0
  0
LINE
  5
963
  8
0
  6
CONTINUOUS
 10
185.0
 20
275.49999999999989
 30
0.0
 11
169.5
 21
275.49999999999989
 31
0.0
  0
LINE
  5
964
  8
0
  6
DASHED
 10
154.0
 20
287.5
 30
0.0
 11
185.0
 21
287.5
 31
0.0
  0
LINE
  5
965
  8
0
 10
154.0
 20
280.5
 30
0.0
 11
154.0
 21
275.46494480934058
 31
0.0
  0
LINE
  5
966
  8
0
  6
CONTINUOUS
 62
     0
 10
160.0
 20
269.47056274847711
 30
0.0
 11
169.03239219464871
 21
278.50295494312581
 31
0.0
  0
LINE
  5
967
  8
0
  6
CONTINUOUS
 62
     0
 10
159.31515153723711
 20
271.61414141046038
 30
0.0
 11
166.33649799062241
 21
278.6354878638457
 31
0.0
  0
LINE
  5
968
  8
0
  6
CONTINUOUS
 62
     0
 10
156.89093033758309
 20
272.01834733555262
 30
0.0
 11
163.812349996275
 21
278.93976699424451
 31
0.0
  0
LINE
  5
969
  8
0
  6
CONTINUOUS
 62
     0
 10
155.02968079233099
 20
272.98552491504671
 30
0.0
 11
161.43404203042601
 21
279.38988615314167
 31
0.0
  0
LINE
  5
96A
  8
0
  6
CONTINUOUS
 62
     0
 10
154.05616628444039
 20
274.8404375319023
 30
0.0
 11
159.18316686747721
 21
279.96743811493911
 31
0.0
  0
LINE
  5
96B
  8
0
  6
CONTINUOUS
 62
     0
 10
169.5
 20
269.27416997969522
 30
0.0
 11
158.64649605781781
 21
280.12767392187732
 31
0.0
  0
LINE
  5
96C
  8
0
  6
CONTINUOUS
 62
     0
 10
169.5
 20
272.10259710444132
 30
0.0
 11
162.41862920730739
 21
279.18396789713393
 31
0.0
  0
LINE
  5
96D
  8
0
  6
CONTINUOUS
 62
     0
 10
169.5
 20
274.93102422918753
 30
0.0
 11
165.73942058767619
 21
278.69160364151122
 31
0.0
  0
LINE
  5
96E
  8
0
  6
CONTINUOUS
 10
155.49999999999989
 20
280.5
 30
0.0
 11
164.5
 21
271.49999999999989
 31
0.0
  0
LINE
  5
96F
  8
0
  6
CONTINUOUS
 62
     0
 10
162.5
 20
270.61731573020279
 30
0.0
 11
154.0
 21
279.11731573020268
 31
0.0
  0
LINE
  5
970
  8
0
  6
CONTINUOUS
 62
     0
 10
160.0
 20
266.64213562373089
 30
0.0
 11
162.5
 21
269.14213562373089
 31
0.0
  0
LINE
  5
971
  8
0
  6
CONTINUOUS
 62
     0
 10
162.5
 20
267.78888860545652
 30
0.0
 11
160.0
 21
270.28888860545658
 31
0.0
  0
LINE
  5
972
  8
0
  6
CONTINUOUS
 62
     0
 10
162.5
 20
262.13203435596421
 30
0.0
 11
160.0
 21
264.63203435596421
 31
0.0
  0
LINE
  5
973
  8
0
  6
CONTINUOUS
 62
     0
 10
160.0
 20
263.81370849898468
 30
0.0
 11
162.5
 21
266.31370849898468
 31
0.0
  0
LINE
  5
974
  8
0
  6
CONTINUOUS
 62
     0
 10
162.5
 20
264.96046148071042
 30
0.0
 11
160.0
 21
267.46046148071042
 31
0.0
  0
LINE
  5
975
  8
0
 10
156.92460354443119
 20
272.01256607592808
 30
0.0
 11
160.0
 21
271.49999999999989
 31
0.0
  0
ARC
  5
976
  8
0
 10
157.5
 20
275.46494480934058
 30
0.0
 40
3.5
 50
180.0
 51
260.53767779197432
  0
LINE
  5
977
  8
0
  6
CONTINUOUS
 62
     0
 10
158.54666632654789
 20
271.74222227890863
 30
0.0
 11
154.0
 21
276.28888860545658
 31
0.0
  0
LINE
  5
978
  8
0
  6
CONTINUOUS
 10
163.49999999999989
 20
263.34159499879462
 30
0.0
 11
163.49999999999989
 21
269.27561225510408
 31
0.0
  0
LINE
  5
979
  8
0
  6
CONTINUOUS
 10
167.0
 20
271.49999999999989
 30
0.0
 11
167.0
 21
263.5
 31
0.0
  0
LINE
  5
97A
  8
0
  6
CONTINUOUS
 62
     0
 10
167.0
 20
265.15685424949231
 30
0.0
 11
169.5
 21
267.65685424949231
 31
0.0
  0
LINE
  5
97B
  8
0
  6
CONTINUOUS
 62
     0
 10
168.17157287525379
 20
263.5
 30
0.0
 11
169.5
 21
264.8284271247461
 31
0.0
  0
LINE
  5
97C
  8
0
  6
CONTINUOUS
 62
     0
 10
169.5
 20
263.61731573020279
 30
0.0
 11
167.0
 21
266.11731573020279
 31
0.0
  0
LINE
  5
97D
  8
0
  6
CONTINUOUS
 10
167.0
 20
263.5
 30
0.0
 11
169.5
 21
263.5
 31
0.0
  0
ARC
  5
97E
  8
0
  6
CONTINUOUS
 10
163.0
 20
263.0
 30
0.0
 40
0.5
 50
68.680997264227827
 51
249.229830840235
  0
LINE
  5
97F
  8
0
  6
CONTINUOUS
 10
162.6999999999999
 20
263.39999999999992
 30
0.0
 11
163.49999999999989
 21
264.0
 31
0.0
  0
LINE
  5
980
  8
0
  6
CONTINUOUS
 62
     0
 10
167.0
 20
267.98528137423853
 30
0.0
 11
169.5
 21
270.48528137423853
 31
0.0
  0
LINE
  5
981
  8
0
  6
CONTINUOUS
 10
167.0
 20
269.0
 30
0.0
 11
169.5
 21
266.5
 31
0.0
  0
LINE
  5
982
  8
0
  6
CONTINUOUS
 62
     0
 10
164.85786437626899
 20
271.49999999999989
 30
0.0
 11
169.5
 21
276.14213562373089
 31
0.0
  0
LINE
  5
983
  8
0
  6
CONTINUOUS
 62
     0
 10
167.0
 20
270.81370849898468
 30
0.0
 11
169.5
 21
273.31370849898468
 31
0.0
  0
LINE
  5
984
  8
0
  6
CONTINUOUS
 10
162.5
 20
271.49999999999989
 30
0.0
 11
167.0
 21
271.49999999999989
 31
0.0
  0
LINE
  5
985
  8
0
  6
CONTINUOUS
 10
167.0
 20
270.5
 30
0.0
 11
162.5
 21
270.5
 31
0.0
  0
LINE
  5
986
  8
0
  6
CONTINUOUS
 10
162.8226898996524
 20
269.53249478258022
 30
0.0
 11
167.0
 21
267.94817177295999
 31
0.0
  0
LINE
  5
987
  8
0
  6
CONTINUOUS
 10
163.18178010774321
 20
270.4657853501655
 30
0.0
 11
167.0
 21
268.97566458283097
 31
0.0
  0
LINE
  5
988
  8
0
  6
CONTINUOUS
 10
163.49999999999989
 20
270.34159499879462
 30
0.0
 11
163.49999999999989
 21
270.5
 31
0.0
  0
ARC
  5
989
  8
0
  6
CONTINUOUS
 10
163.0
 20
270.0
 30
0.0
 40
0.5
 50
68.680997264227827
 51
249.229830840235
  0
ARC
  5
98A
  8
0
 10
169.5
 20
315.5
 30
0.0
 40
37.0
 50
251.07535558394869
 51
270.0
  0
LINE
  5
98B
  8
0
  6
DASHED
 10
154.0
 20
280.5
 30
0.0
 11
154.0
 21
287.5
 31
0.0
  0
LINE
  5
98C
  8
0
  6
CONTINUOUS
 10
154.0
 20
278.0
 30
0.0
 11
156.49999999999989
 21
280.5
 31
0.0
  0
LINE
  5
98D
  8
0
  6
CONTINUOUS
 10
172.5
 20
278.0
 30
0.0
 11
172.5
 21
280.5
 31
0.0
  0
LINE
  5
98E
  8
0
  6
CONTINUOUS
 10
170.5
 20
278.0
 30
0.0
 11
170.5
 21
280.5
 31
0.0
  0
LINE
  5
98F
  8
0
  6
CONTINUOUS
 10
171.5
 20
280.5
 30
0.0
 11
171.5
 21
278.0
 31
0.0
  0
LINE
  5
990
  8
0
  6
CONTINUOUS
 10
176.5
 20
278.0
 30
0.0
 11
176.5
 21
280.5
 31
0.0
  0
LINE
  5
991
  8
0
  6
CONTINUOUS
 10
173.5
 20
280.5
 30
0.0
 11
173.5
 21
278.0
 31
0.0
  0
LINE
  5
992
  8
0
  6
CONTINUOUS
 10
174.5
 20
278.0
 30
0.0
 11
174.5
 21
280.5
 31
0.0
  0
LINE
  5
993
  8
0
  6
CONTINUOUS
 10
175.5
 20
280.5
 30
0.0
 11
175.5
 21
278.0
 31
0.0
  0
LINE
  5
994
  8
0
 10
185.0
 20
275.46494480934058
 30
0.0
 11
185.0
 21
280.5
 31
0.0
  0
ARC
  5
995
  8
0
 10
181.49999999999989
 20
275.46494480934058
 30
0.0
 40
3.5
 50
279.46232220802563
 51
0.0
  0
LINE
  5
996
  8
0
 10
179.0
 20
271.49999999999989
 30
0.0
 11
182.07539645556869
 21
272.01256607592808
 31
0.0
  0
LINE
  5
997
  8
0
  6
DASHED
 10
185.0
 20
287.5
 30
0.0
 11
185.0
 21
280.5
 31
0.0
  0
LINE
  5
998
  8
0
  6
CONTINUOUS
 10
180.49999999999989
 20
280.5
 30
0.0
 11
180.49999999999989
 21
278.0
 31
0.0
  0
LINE
  5
999
  8
0
  6
CONTINUOUS
 10
181.0
 20
280.5
 30
0.0
 11
181.0
 21
278.0
 31
0.0
  0
LINE
  5
99A
  8
0
  6
CONTINUOUS
 10
180.0
 20
278.0
 30
0.0
 11
180.0
 21
278.0
 31
0.0
  0
LINE
  5
99B
  8
0
  6
CONTINUOUS
 10
180.0
 20
278.0
 30
0.0
 11
180.0
 21
280.5
 31
0.0
  0
LINE
  5
99C
  8
0
  6
CONTINUOUS
 10
177.5
 20
280.5
 30
0.0
 11
177.5
 21
278.0
 31
0.0
  0
LINE
  5
99D
  8
0
  6
CONTINUOUS
 10
178.5
 20
280.5
 30
0.0
 11
178.5
 21
278.0
 31
0.0
  0
LINE
  5
99E
  8
0
  6
CONTINUOUS
 10
179.49999999999989
 20
280.5
 30
0.0
 11
179.49999999999989
 21
278.0
 31
0.0
  0
LINE
  5
99F
  8
0
  6
CONTINUOUS
 10
179.0
 20
280.5
 30
0.0
 11
179.0
 21
278.0
 31
0.0
  0
LINE
  5
9A0
  8
0
  6
CONTINUOUS
 10
180.0
 20
280.5
 30
0.0
 11
179.0
 21
280.5
 31
0.0
  0
LINE
  5
9A1
  8
0
  6
CONTINUOUS
 10
184.49999999999989
 20
280.5
 30
0.0
 11
184.49999999999989
 21
278.0
 31
0.0
  0
LINE
  5
9A2
  8
0
  6
CONTINUOUS
 10
184.0
 20
278.0
 30
0.0
 11
184.0
 21
280.5
 31
0.0
  0
LINE
  5
9A3
  8
0
  6
CONTINUOUS
 10
181.49999999999989
 20
280.5
 30
0.0
 11
181.49999999999989
 21
278.0
 31
0.0
  0
LINE
  5
9A4
  8
0
  6
CONTINUOUS
 10
182.5
 20
280.5
 30
0.0
 11
182.5
 21
278.0
 31
0.0
  0
LINE
  5
9A5
  8
0
  6
CONTINUOUS
 10
183.49999999999989
 20
280.5
 30
0.0
 11
183.49999999999989
 21
278.0
 31
0.0
  0
LINE
  5
9A6
  8
0
  6
CONTINUOUS
 10
183.0
 20
280.5
 30
0.0
 11
183.0
 21
278.0
 31
0.0
  0
LINE
  5
9A7
  8
0
  6
CONTINUOUS
 10
182.0
 20
278.0
 30
0.0
 11
182.0
 21
280.5
 31
0.0
  0
LINE
  5
9A8
  8
0
  6
CONTINUOUS
 62
     0
 10
160.0
 20
260.98528137423853
 30
0.0
 11
162.5
 21
263.48528137423853
 31
0.0
  0
LINE
  5
9A9
  8
0
  6
CONTINUOUS
 62
     0
 10
162.5
 20
259.303607231218
 30
0.0
 11
160.0
 21
261.803607231218
 31
0.0
  0
LINE
  5
9AA
  8
0
  6
CONTINUOUS
 10
162.8226898996524
 20
262.53249478258022
 30
0.0
 11
169.5
 21
260.0
 31
0.0
  0
LINE
  5
9AB
  8
0
  6
CONTINUOUS
 10
163.18178010774321
 20
263.4657853501655
 30
0.0
 11
169.5
 21
261.0
 31
0.0
  0
LINE
  5
9AC
  8
0
  6
CONTINUOUS
 62
     0
 10
160.0
 20
255.32842712474621
 30
0.0
 11
162.5
 21
257.82842712474621
 31
0.0
  0
LINE
  5
9AD
  8
0
  6
CONTINUOUS
 62
     0
 10
162.5
 20
256.47518010647178
 30
0.0
 11
160.0
 21
258.97518010647178
 31
0.0
  0
LINE
  5
9AE
  8
0
  6
CONTINUOUS
 62
     0
 10
160.0
 20
258.15685424949231
 30
0.0
 11
162.5
 21
260.65685424949231
 31
0.0
  0
LINE
  5
9AF
  8
0
  6
CONTINUOUS
 10
162.0
 20
255.5
 30
0.0
 11
169.5
 21
255.5
 31
0.0
  0
LINE
  5
9B0
  8
0
  6
CONTINUOUS
 10
163.0
 20
256.49999999999989
 30
0.0
 11
169.5
 21
256.49999999999989
 31
0.0
  0
LINE
  5
9B1
  8
0
  6
CONTINUOUS
 10
163.49999999999989
 20
256.49999999999989
 30
0.0
 11
163.49999999999989
 21
262.27561225510402
 31
0.0
  0
ARC
  5
9B2
  8
0
  6
CONTINUOUS
 10
163.0
 20
256.0
 30
0.0
 40
0.5
 50
90.0
 51
270.0
  0
LINE
  5
9B3
  8
0
  6
CONTINUOUS
 10
162.6999999999999
 20
256.39999999999992
 30
0.0
 11
163.49999999999989
 21
257.0
 31
0.0
  0
LINE
  5
9B4
  8
0
 10
179.0
 20
252.49999999999989
 30
0.0
 11
179.0
 21
271.49999999999989
 31
0.0
  0
LINE
  5
9B5
  8
0
 10
160.0
 20
271.49999999999989
 30
0.0
 11
160.0
 21
252.49999999999989
 31
0.0
  0
LINE
  5
9B6
  8
0
  6
CONTINUOUS
 10
162.5
 20
271.49999999999989
 30
0.0
 11
162.5
 21
255.5
 31
0.0
  0
LINE
  5
9B7
  8
0
  6
CONTINUOUS
 10
162.5
 20
255.5
 30
0.0
 11
162.5
 21
271.49999999999989
 31
0.0
  0
LINE
  5
9B8
  8
0
  6
CONTINUOUS
 10
162.0
 20
254.49999999999989
 30
0.0
 11
162.0
 21
255.5
 31
0.0
  0
LINE
  5
9B9
  8
0
  6
CONTINUOUS
 62
     0
 10
162.5
 20
253.6467529817256
 30
0.0
 11
160.0
 21
256.14675298172563
 31
0.0
  0
LINE
  5
9BA
  8
0
  6
CONTINUOUS
 10
160.0
 20
253.0
 30
0.0
 11
162.0
 21
255.0
 31
0.0
  0
LINE
  5
9BB
  8
0
  6
CONTINUOUS
 10
169.5
 20
254.49999999999989
 30
0.0
 11
162.0
 21
254.49999999999989
 31
0.0
  0
LINE
  5
9BC
  8
0
  6
CONTINUOUS
 10
163.49999999999989
 20
252.49999999999989
 30
0.0
 11
163.49999999999989
 21
254.49999999999989
 31
0.0
  0
LINE
  5
9BD
  8
0
  6
CONTINUOUS
 10
162.5
 20
252.49999999999989
 30
0.0
 11
162.5
 21
254.49999999999989
 31
0.0
  0
LINE
  5
9BE
  8
0
  6
CONTINUOUS
 10
162.5
 20
254.49999999999989
 30
0.0
 11
162.5
 21
252.49999999999989
 31
0.0
  0
LINE
  5
9F5
  8
0
  6
CONTINUOUS
 10
107.0
 20
270.5
 30
0.0
 11
102.4999999999999
 21
270.5
 31
0.0
  0
LINE
  5
9F6
  8
0
  6
CONTINUOUS
 10
102.4999999999999
 20
271.49999999999989
 30
0.0
 11
107.0
 21
271.49999999999989
 31
0.0
  0
LINE
  5
9F7
  8
0
  6
CONTINUOUS
 10
102.8226898996524
 20
269.53249478258022
 30
0.0
 11
107.0
 21
267.94817177295999
 31
0.0
  0
LINE
  5
9F8
  8
0
  6
CONTINUOUS
 10
103.18178010774319
 20
270.4657853501655
 30
0.0
 11
107.0
 21
268.97566458283097
 31
0.0
  0
LINE
  5
9F9
  8
0
  6
CONTINUOUS
 62
     0
 10
109.4999999999999
 20
272.10259710444132
 30
0.0
 11
102.4186292073074
 21
279.18396789713393
 31
0.0
  0
ARC
  5
9FA
  8
0
 10
109.4999999999999
 20
315.5
 30
0.0
 40
37.0
 50
251.07535558394869
 51
270.0
  0
LINE
  5
9FB
  8
0
  6
CONTINUOUS
 10
95.5
 20
280.5
 30
0.0
 11
104.4999999999999
 21
271.49999999999989
 31
0.0
  0
LINE
  5
9FC
  8
0
  6
CONTINUOUS
 62
     0
 10
109.4999999999999
 20
269.27416997969522
 30
0.0
 11
98.646496057817856
 21
280.12767392187732
 31
0.0
  0
LINE
  5
9FD
  8
0
  6
CONTINUOUS
 62
     0
 10
99.315151537237156
 20
271.61414141046038
 30
0.0
 11
106.33649799062241
 21
278.6354878638457
 31
0.0
  0
LINE
  5
9FE
  8
0
  6
CONTINUOUS
 62
     0
 10
100.0
 20
269.47056274847711
 30
0.0
 11
109.03239219464869
 21
278.50295494312581
 31
0.0
  0
LINE
  5
9FF
  8
0
  6
DASHED
 10
94.0
 20
287.5
 30
0.0
 11
125.0
 21
287.5
 31
0.0
  0
LINE
  5
A00
  8
0
 10
125.0
 20
280.5
 30
0.0
 11
94.0
 21
280.5
 31
0.0
  0
LINE
  5
A01
  8
0
  6
CONTINUOUS
 62
     0
 10
98.546666326547964
 20
271.74222227890863
 30
0.0
 11
94.0
 21
276.28888860545658
 31
0.0
  0
LINE
  5
A02
  8
0
  6
CONTINUOUS
 62
     0
 10
94.056166284440408
 20
274.8404375319023
 30
0.0
 11
99.18316686747724
 21
279.96743811493911
 31
0.0
  0
LINE
  5
A03
  8
0
 10
94.0
 20
280.5
 30
0.0
 11
94.0
 21
275.46494480934058
 31
0.0
  0
LINE
  5
A04
  8
0
  6
CONTINUOUS
 62
     0
 10
102.4999999999999
 20
270.61731573020279
 30
0.0
 11
94.0
 21
279.11731573020268
 31
0.0
  0
LINE
  5
A05
  8
0
  6
CONTINUOUS
 62
     0
 10
95.029680792331078
 20
272.98552491504671
 30
0.0
 11
101.434042030426
 21
279.38988615314167
 31
0.0
  0
LINE
  5
A06
  8
0
  6
CONTINUOUS
 62
     0
 10
96.890930337583143
 20
272.01834733555262
 30
0.0
 11
103.812349996275
 21
278.93976699424451
 31
0.0
  0
ARC
  5
A07
  8
0
 10
97.5
 20
275.46494480934058
 30
0.0
 40
3.5
 50
180.0
 51
260.53767779197432
  0
ARC
  5
A08
  8
0
  6
CONTINUOUS
 10
103.0
 20
270.0
 30
0.0
 40
0.5
 50
68.680997264227827
 51
249.229830840235
  0
LINE
  5
A09
  8
0
  6
CONTINUOUS
 62
     0
 10
102.4999999999999
 20
264.96046148071042
 30
0.0
 11
100.0
 21
267.46046148071042
 31
0.0
  0
LINE
  5
A0A
  8
0
  6
CONTINUOUS
 62
     0
 10
102.4999999999999
 20
267.78888860545652
 30
0.0
 11
100.0
 21
270.28888860545658
 31
0.0
  0
LINE
  5
A0B
  8
0
  6
CONTINUOUS
 62
     0
 10
100.0
 20
266.64213562373089
 30
0.0
 11
102.4999999999999
 21
269.14213562373089
 31
0.0
  0
LINE
  5
A0C
  8
0
 10
96.924603544431264
 20
272.01256607592808
 30
0.0
 11
100.0
 21
271.49999999999989
 31
0.0
  0
LINE
  5
A0D
  8
0
  6
CONTINUOUS
 10
103.4999999999999
 20
270.34159499879462
 30
0.0
 11
103.4999999999999
 21
270.5
 31
0.0
  0
LINE
  5
A0E
  8
0
  6
DASHED
 10
94.0
 20
280.5
 30
0.0
 11
94.0
 21
287.5
 31
0.0
  0
LINE
  5
A0F
  8
0
  6
CONTINUOUS
 10
94.0
 20
278.0
 30
0.0
 11
96.5
 21
280.5
 31
0.0
  0
LINE
  5
A10
  8
0
 10
125.0
 20
275.46494480934058
 30
0.0
 11
125.0
 21
280.5
 31
0.0
  0
LINE
  5
A11
  8
0
  6
CONTINUOUS
 62
     0
 10
104.85786437626901
 20
271.49999999999989
 30
0.0
 11
109.4999999999999
 21
276.14213562373089
 31
0.0
  0
LINE
  5
A12
  8
0
  6
CONTINUOUS
 62
     0
 10
109.4999999999999
 20
274.93102422918753
 30
0.0
 11
105.73942058767631
 21
278.69160364151122
 31
0.0
  0
LINE
  5
A13
  8
0
  6
CONTINUOUS
 10
125.0
 20
275.49999999999989
 30
0.0
 11
109.4999999999999
 21
275.49999999999989
 31
0.0
  0
LINE
  5
A14
  8
0
  6
CONTINUOUS
 10
119.0
 20
271.49999999999989
 30
0.0
 11
109.4999999999999
 21
271.49999999999989
 31
0.0
  0
LINE
  5
A15
  8
0
  6
CONTINUOUS
 62
     0
 10
107.0
 20
267.98528137423853
 30
0.0
 11
109.4999999999999
 21
270.48528137423853
 31
0.0
  0
LINE
  5
A16
  8
0
  6
CONTINUOUS
 10
107.0
 20
269.0
 30
0.0
 11
109.4999999999999
 21
266.5
 31
0.0
  0
LINE
  5
A17
  8
0
  6
CONTINUOUS
 62
     0
 10
107.0
 20
265.15685424949231
 30
0.0
 11
109.4999999999999
 21
267.65685424949231
 31
0.0
  0
LINE
  5
A18
  8
0
  6
CONTINUOUS
 62
     0
 10
107.0
 20
270.81370849898468
 30
0.0
 11
109.4999999999999
 21
273.31370849898468
 31
0.0
  0
LINE
  5
A19
  8
0
 10
119.0
 20
271.49999999999989
 30
0.0
 11
122.07539645556869
 21
272.01256607592808
 31
0.0
  0
ARC
  5
A1A
  8
0
 10
121.5
 20
275.46494480934058
 30
0.0
 40
3.5
 50
279.46232220802563
 51
0.0
  0
LINE
  5
A1B
  8
0
  6
CONTINUOUS
 10
109.4999999999999
 20
278.0
 30
0.0
 11
125.0
 21
278.0
 31
0.0
  0
LINE
  5
A1C
  8
0
  6
CONTINUOUS
 10
114.5
 20
278.0
 30
0.0
 11
114.5
 21
280.5
 31
0.0
  0
LINE
  5
A1D
  8
0
  6
CONTINUOUS
 10
113.5
 20
280.5
 30
0.0
 11
113.5
 21
278.0
 31
0.0
  0
LINE
  5
A1E
  8
0
  6
CONTINUOUS
 10
111.4999999999999
 20
280.5
 30
0.0
 11
111.4999999999999
 21
278.0
 31
0.0
  0
LINE
  5
A1F
  8
0
  6
CONTINUOUS
 10
110.4999999999999
 20
278.0
 30
0.0
 11
110.4999999999999
 21
280.5
 31
0.0
  0
LINE
  5
A20
  8
0
  6
CONTINUOUS
 10
112.5
 20
278.0
 30
0.0
 11
112.5
 21
280.5
 31
0.0
  0
LINE
  5
A21
  8
0
  6
DASHED
 10
125.0
 20
287.5
 30
0.0
 11
125.0
 21
280.5
 31
0.0
  0
LINE
  5
A22
  8
0
  6
CONTINUOUS
 10
120.0
 20
280.5
 30
0.0
 11
119.0
 21
280.5
 31
0.0
  0
LINE
  5
A23
  8
0
  6
CONTINUOUS
 10
119.0
 20
280.5
 30
0.0
 11
119.0
 21
278.0
 31
0.0
  0
LINE
  5
A24
  8
0
  6
CONTINUOUS
 10
119.5
 20
280.5
 30
0.0
 11
119.5
 21
278.0
 31
0.0
  0
LINE
  5
A25
  8
0
  6
CONTINUOUS
 10
118.5
 20
280.5
 30
0.0
 11
118.5
 21
278.0
 31
0.0
  0
LINE
  5
A26
  8
0
  6
CONTINUOUS
 10
117.5
 20
280.5
 30
0.0
 11
117.5
 21
278.0
 31
0.0
  0
LINE
  5
A27
  8
0
  6
CONTINUOUS
 10
120.0
 20
278.0
 30
0.0
 11
120.0
 21
280.5
 31
0.0
  0
LINE
  5
A28
  8
0
  6
CONTINUOUS
 10
120.0
 20
278.0
 30
0.0
 11
120.0
 21
278.0
 31
0.0
  0
LINE
  5
A29
  8
0
  6
CONTINUOUS
 10
115.5
 20
280.5
 30
0.0
 11
115.5
 21
278.0
 31
0.0
  0
LINE
  5
A2A
  8
0
  6
CONTINUOUS
 10
116.5
 20
278.0
 30
0.0
 11
116.5
 21
280.5
 31
0.0
  0
LINE
  5
A2B
  8
0
  6
CONTINUOUS
 10
122.0
 20
278.0
 30
0.0
 11
122.0
 21
280.5
 31
0.0
  0
LINE
  5
A2C
  8
0
  6
CONTINUOUS
 10
123.0
 20
280.5
 30
0.0
 11
123.0
 21
278.0
 31
0.0
  0
LINE
  5
A2D
  8
0
  6
CONTINUOUS
 10
123.5
 20
280.5
 30
0.0
 11
123.5
 21
278.0
 31
0.0
  0
LINE
  5
A2E
  8
0
  6
CONTINUOUS
 10
122.5
 20
280.5
 30
0.0
 11
122.5
 21
278.0
 31
0.0
  0
LINE
  5
A2F
  8
0
  6
CONTINUOUS
 10
121.5
 20
280.5
 30
0.0
 11
121.5
 21
278.0
 31
0.0
  0
LINE
  5
A30
  8
0
  6
CONTINUOUS
 10
124.0
 20
278.0
 30
0.0
 11
124.0
 21
280.5
 31
0.0
  0
LINE
  5
A31
  8
0
  6
CONTINUOUS
 10
124.5
 20
280.5
 30
0.0
 11
124.5
 21
278.0
 31
0.0
  0
LINE
  5
A32
  8
0
  6
CONTINUOUS
 10
121.0
 20
280.5
 30
0.0
 11
121.0
 21
278.0
 31
0.0
  0
LINE
  5
A33
  8
0
  6
CONTINUOUS
 10
120.5
 20
280.5
 30
0.0
 11
120.5
 21
278.0
 31
0.0
  0
LINE
  5
A34
  8
0
 10
119.0
 20
252.49999999999989
 30
0.0
 11
119.0
 21
271.49999999999989
 31
0.0
  0
LINE
  5
A35
  8
0
  6
CONTINUOUS
 10
102.4999999999999
 20
255.5
 30
0.0
 11
102.4999999999999
 21
271.49999999999989
 31
0.0
  0
LINE
  5
A36
  8
0
  6
CONTINUOUS
 10
102.4999999999999
 20
271.49999999999989
 30
0.0
 11
102.4999999999999
 21
255.5
 31
0.0
  0
LINE
  5
A37
  8
0
 10
100.0
 20
271.49999999999989
 30
0.0
 11
100.0
 21
252.49999999999989
 31
0.0
  0
LINE
  5
A38
  8
0
  6
CONTINUOUS
 62
     0
 10
109.4999999999999
 20
263.61731573020279
 30
0.0
 11
107.0
 21
266.11731573020279
 31
0.0
  0
LINE
  5
A39
  8
0
  6
CONTINUOUS
 10
107.0
 20
271.49999999999989
 30
0.0
 11
107.0
 21
263.5
 31
0.0
  0
LINE
  5
A3A
  8
0
  6
CONTINUOUS
 10
103.4999999999999
 20
263.34159499879462
 30
0.0
 11
103.4999999999999
 21
269.27561225510408
 31
0.0
  0
LINE
  5
A3B
  8
0
  6
CONTINUOUS
 62
     0
 10
100.0
 20
263.81370849898468
 30
0.0
 11
102.4999999999999
 21
266.31370849898468
 31
0.0
  0
LINE
  5
A3C
  8
0
  6
CONTINUOUS
 62
     0
 10
102.4999999999999
 20
262.13203435596421
 30
0.0
 11
100.0
 21
264.63203435596421
 31
0.0
  0
LINE
  5
A3D
  8
0
  6
CONTINUOUS
 10
109.4999999999999
 20
254.49999999999989
 30
0.0
 11
102.0
 21
254.49999999999989
 31
0.0
  0
LINE
  5
A3E
  8
0
  6
CONTINUOUS
 10
103.0
 20
256.49999999999989
 30
0.0
 11
109.4999999999999
 21
256.49999999999989
 31
0.0
  0
LINE
  5
A3F
  8
0
  6
CONTINUOUS
 10
102.0
 20
255.5
 30
0.0
 11
109.4999999999999
 21
255.5
 31
0.0
  0
LINE
  5
A40
  8
0
  6
CONTINUOUS
 10
103.18178010774319
 20
263.4657853501655
 30
0.0
 11
109.4999999999999
 21
261.0
 31
0.0
  0
LINE
  5
A41
  8
0
  6
CONTINUOUS
 10
102.8226898996524
 20
262.53249478258022
 30
0.0
 11
109.4999999999999
 21
260.0
 31
0.0
  0
LINE
  5
A42
  8
0
  6
CONTINUOUS
 10
102.4999999999999
 20
254.49999999999989
 30
0.0
 11
102.4999999999999
 21
252.49999999999989
 31
0.0
  0
LINE
  5
A43
  8
0
  6
CONTINUOUS
 10
102.4999999999999
 20
252.49999999999989
 30
0.0
 11
102.4999999999999
 21
254.49999999999989
 31
0.0
  0
LINE
  5
A44
  8
0
  6
CONTINUOUS
 10
103.4999999999999
 20
252.49999999999989
 30
0.0
 11
103.4999999999999
 21
254.49999999999989
 31
0.0
  0
LINE
  5
A45
  8
0
  6
CONTINUOUS
 10
103.4999999999999
 20
256.49999999999989
 30
0.0
 11
103.4999999999999
 21
262.27561225510402
 31
0.0
  0
LINE
  5
A46
  8
0
  6
CONTINUOUS
 62
     0
 10
100.0
 20
258.15685424949231
 30
0.0
 11
102.4999999999999
 21
260.65685424949231
 31
0.0
  0
LINE
  5
A47
  8
0
  6
CONTINUOUS
 62
     0
 10
102.4999999999999
 20
256.47518010647178
 30
0.0
 11
100.0
 21
258.97518010647178
 31
0.0
  0
LINE
  5
A48
  8
0
  6
CONTINUOUS
 10
102.0
 20
254.49999999999989
 30
0.0
 11
102.0
 21
255.5
 31
0.0
  0
LINE
  5
A49
  8
0
  6
CONTINUOUS
 10
102.6999999999999
 20
256.39999999999992
 30
0.0
 11
103.4999999999999
 21
257.0
 31
0.0
  0
ARC
  5
A4A
  8
0
  6
CONTINUOUS
 10
103.0
 20
256.0
 30
0.0
 40
0.5
 50
90.0
 51
270.0
  0
LINE
  5
A4B
  8
0
  6
CONTINUOUS
 10
100.0
 20
253.0
 30
0.0
 11
102.0
 21
255.0
 31
0.0
  0
LINE
  5
A4C
  8
0
  6
CONTINUOUS
 62
     0
 10
102.4999999999999
 20
253.6467529817256
 30
0.0
 11
100.0
 21
256.14675298172563
 31
0.0
  0
LINE
  5
A4D
  8
0
  6
CONTINUOUS
 62
     0
 10
100.0
 20
255.32842712474621
 30
0.0
 11
102.4999999999999
 21
257.82842712474621
 31
0.0
  0
LINE
  5
A4E
  8
0
  6
CONTINUOUS
 10
102.6999999999999
 20
263.39999999999992
 30
0.0
 11
103.4999999999999
 21
264.0
 31
0.0
  0
ARC
  5
A4F
  8
0
  6
CONTINUOUS
 10
103.0
 20
263.0
 30
0.0
 40
0.5
 50
68.680997264227827
 51
249.229830840235
  0
LINE
  5
A50
  8
0
  6
CONTINUOUS
 62
     0
 10
102.4999999999999
 20
259.303607231218
 30
0.0
 11
100.0
 21
261.803607231218
 31
0.0
  0
LINE
  5
A51
  8
0
  6
CONTINUOUS
 62
     0
 10
100.0
 20
260.98528137423853
 30
0.0
 11
102.4999999999999
 21
263.48528137423853
 31
0.0
  0
LINE
  5
A52
  8
0
  6
CONTINUOUS
 10
107.0
 20
263.5
 30
0.0
 11
109.4999999999999
 21
263.5
 31
0.0
  0
LINE
  5
A53
  8
0
  6
CONTINUOUS
 62
     0
 10
108.1715728752538
 20
263.5
 30
0.0
 11
109.4999999999999
 21
264.8284271247461
 31
0.0
  0
LINE
  5
B45
  8
0
  6
DASHED
 10
-4.3676315211050669
 20
281.49999999999989
 30
0.0
 11
-29.367631521105061
 21
281.49999999999989
 31
0.0
  0
LINE
  5
B46
  8
0
  6
CONTINUOUS
 10
-4.3676315211050669
 20
276.5
 30
0.0
 11
-29.367631521105061
 21
276.5
 31
0.0
  0
LINE
  5
B47
  8
0
  6
CONTINUOUS
 10
-8.3676315211050678
 20
252.49999999999989
 30
0.0
 11
-8.3676315211050678
 21
267.5
 31
0.0
  0
LINE
  5
B48
  8
0
  6
CONTINUOUS
 10
-6.8676315211050669
 20
274.0
 30
0.0
 11
-6.8676315211050669
 21
276.5
 31
0.0
  0
LINE
  5
B49
  8
0
  6
CONTINUOUS
 10
-5.8676315211050669
 20
274.0
 30
0.0
 11
-5.8676315211050669
 21
276.5
 31
0.0
  0
LINE
  5
B4A
  8
0
  6
CONTINUOUS
 10
-6.3676315211050669
 20
274.0
 30
0.0
 11
-6.3676315211050669
 21
276.5
 31
0.0
  0
LINE
  5
B4B
  8
0
  6
CONTINUOUS
 10
-4.8676315211050669
 20
274.0
 30
0.0
 11
-4.8676315211050669
 21
276.5
 31
0.0
  0
LINE
  5
B4C
  8
0
  6
CONTINUOUS
 10
-5.3676315211050669
 20
274.0
 30
0.0
 11
-5.3676315211050669
 21
276.5
 31
0.0
  0
LINE
  5
B4D
  8
0
  6
CONTINUOUS
 10
-7.3676315211050669
 20
274.0
 30
0.0
 11
-7.3676315211050669
 21
276.5
 31
0.0
  0
LINE
  5
B4E
  8
0
  6
CONTINUOUS
 10
-7.8676315211050669
 20
274.0
 30
0.0
 11
-7.8676315211050669
 21
276.5
 31
0.0
  0
LINE
  5
B4F
  8
0
  6
CONTINUOUS
 10
-8.8676315211050678
 20
274.0
 30
0.0
 11
-8.8676315211050678
 21
276.5
 31
0.0
  0
LINE
  5
B50
  8
0
  6
CONTINUOUS
 10
-8.3676315211050678
 20
274.0
 30
0.0
 11
-8.3676315211050678
 21
276.5
 31
0.0
  0
LINE
  5
B51
  8
0
  6
CONTINUOUS
 10
-4.3676315211050669
 20
271.38561910376768
 30
0.0
 11
-4.3676315211050669
 21
276.5
 31
0.0
  0
LINE
  5
B52
  8
0
  6
CONTINUOUS
 10
-10.867631521105061
 20
274.0
 30
0.0
 11
-10.867631521105061
 21
276.5
 31
0.0
  0
LINE
  5
B53
  8
0
  6
CONTINUOUS
 10
-11.867631521105061
 20
274.0
 30
0.0
 11
-11.867631521105061
 21
276.5
 31
0.0
  0
LINE
  5
B54
  8
0
  6
CONTINUOUS
 10
-9.8676315211050678
 20
274.0
 30
0.0
 11
-9.8676315211050678
 21
276.5
 31
0.0
  0
LINE
  5
B55
  8
0
  6
CONTINUOUS
 10
-10.367631521105061
 20
274.0
 30
0.0
 11
-10.367631521105061
 21
276.5
 31
0.0
  0
LINE
  5
B56
  8
0
  6
CONTINUOUS
 10
-9.3676315211050678
 20
274.0
 30
0.0
 11
-9.3676315211050678
 21
276.5
 31
0.0
  0
LINE
  5
B57
  8
0
  6
CONTINUOUS
 10
-8.3676315211050678
 20
267.5
 30
0.0
 11
-16.867631521105061
 21
267.5
 31
0.0
  0
LINE
  5
B58
  8
0
  6
CONTINUOUS
 10
-4.3676315211050669
 20
274.0
 30
0.0
 11
-16.867631521105061
 21
274.0
 31
0.0
  0
LINE
  5
B59
  8
0
  6
CONTINUOUS
 10
-4.3676315211050669
 20
271.49999999999989
 30
0.0
 11
-16.867631521105061
 21
271.49999999999989
 31
0.0
  0
ARC
  5
B5A
  8
0
  6
CONTINUOUS
 10
-6.8676315211050669
 20
271.38561910376768
 30
0.0
 40
2.5
 50
302.00538320808357
 51
0.0
  0
LINE
  5
B5B
  8
0
  6
CONTINUOUS
 10
-8.3676315211050678
 20
267.5
 30
0.0
 11
-5.5426341710971201
 21
269.26562334375501
 31
0.0
  0
LINE
  5
B5C
  8
0
  6
DASHED
 10
-4.3676315211050669
 20
276.5
 30
0.0
 11
-4.3676315211050669
 21
281.49999999999989
 31
0.0
  0
LINE
  5
B5D
  8
0
  6
CONTINUOUS
 10
-22.367631521105061
 20
255.5
 30
0.0
 11
-16.867631521105061
 21
255.5
 31
0.0
  0
LINE
  5
B5E
  8
0
  6
CONTINUOUS
 10
-22.571262017859109
 20
260.54334408928412
 30
0.0
 11
-16.867631521105061
 21
258.0
 31
0.0
  0
LINE
  5
B5F
  8
0
  6
CONTINUOUS
 10
-22.157238765051201
 20
261.4535800791482
 30
0.0
 11
-16.867631521105061
 21
259.0
 31
0.0
  0
LINE
  5
B60
  8
0
  6
CONTINUOUS
 10
-23.367631521105061
 20
254.49999999999989
 30
0.0
 11
-16.867631521105061
 21
254.49999999999989
 31
0.0
  0
LINE
  5
B61
  8
0
  6
CONTINUOUS
 10
-16.867631521105061
 20
253.5
 30
0.0
 11
-23.367631521105061
 21
253.5
 31
0.0
  0
LINE
  5
B62
  8
0
  6
CONTINUOUS
 10
-22.157238765051201
 20
266.45358007914808
 30
0.0
 11
-19.367631521105061
 21
265.15962299561852
 31
0.0
  0
LINE
  5
B63
  8
0
  6
CONTINUOUS
 10
-22.867631521105061
 20
266.5
 30
0.0
 11
-19.367631521105061
 21
266.5
 31
0.0
  0
LINE
  5
B64
  8
0
  6
CONTINUOUS
 10
-22.571262017859109
 20
265.54334408928412
 30
0.0
 11
-19.367631521105061
 21
264.11479175006667
 31
0.0
  0
LINE
  5
B65
  8
0
  6
CONTINUOUS
 10
-22.867631521105061
 20
267.5
 30
0.0
 11
-19.367631521105061
 21
267.5
 31
0.0
  0
ARC
  5
B66
  8
0
  6
CONTINUOUS
 10
-16.867631521105061
 20
298.06249999999989
 30
0.0
 40
23.5625
 50
246.222683920744
 51
270.0
  0
LINE
  5
B67
  8
0
  6
CONTINUOUS
 10
-21.867631521105061
 20
265.2295835001334
 30
0.0
 11
-21.867631521105061
 21
261.3192459912371
 31
0.0
  0
LINE
  5
B68
  8
0
  6
CONTINUOUS
 10
-22.867631521105061
 20
254.49999999999989
 30
0.0
 11
-22.867631521105061
 21
267.5
 31
0.0
  0
LINE
  5
B69
  8
0
  6
CONTINUOUS
 10
-21.867631521105061
 20
260.2295835001334
 30
0.0
 11
-21.867631521105061
 21
255.5
 31
0.0
  0
LINE
  5
B6A
  8
0
  6
CONTINUOUS
 10
-22.667631521105069
 20
255.40000000000001
 30
0.0
 11
-21.867631521105061
 21
256.0
 31
0.0
  0
ARC
  5
B6B
  8
0
  6
CONTINUOUS
 10
-22.367631521105061
 20
255.0
 30
0.0
 40
0.5
 50
90.0
 51
270.0
  0
LINE
  5
B6C
  8
0
  6
CONTINUOUS
 10
-23.367631521105061
 20
253.5
 30
0.0
 11
-23.367631521105061
 21
254.49999999999989
 31
0.0
  0
LINE
  5
B6D
  8
0
  6
CONTINUOUS
 10
-22.667631521105069
 20
261.39999999999992
 30
0.0
 11
-21.867631521105061
 21
262.0
 31
0.0
  0
ARC
  5
B6E
  8
0
  6
CONTINUOUS
 10
-22.367631521105061
 20
261.0
 30
0.0
 40
0.5
 50
65.115809913698001
 51
245.9671095643009
  0
LINE
  5
B6F
  8
0
  6
CONTINUOUS
 10
-29.367631521105061
 20
276.5
 30
0.0
 11
-29.367631521105061
 21
271.38561910376768
 31
0.0
  0
ARC
  5
B70
  8
0
  6
CONTINUOUS
 10
-26.867631521105061
 20
271.38561910376768
 30
0.0
 40
2.5
 50
180.0
 51
237.99461679191629
  0
LINE
  5
B71
  8
0
  6
CONTINUOUS
 10
-28.192628871113008
 20
269.26562334375501
 30
0.0
 11
-25.367631521105061
 21
267.5
 31
0.0
  0
LINE
  5
B72
  8
0
  6
CONTINUOUS
 10
-21.867631521105061
 20
266.5
 30
0.0
 11
-21.867631521105061
 21
266.31924599123698
 31
0.0
  0
ARC
  5
B73
  8
0
  6
CONTINUOUS
 10
-22.367631521105061
 20
266.0
 30
0.0
 40
0.5
 50
65.115809913695742
 51
245.96710956430019
  0
LINE
  5
B74
  8
0
  6
DASHED
 10
-29.367631521105061
 20
281.49999999999989
 30
0.0
 11
-29.367631521105061
 21
276.5
 31
0.0
  0
LINE
  5
B75
  8
0
  6
CONTINUOUS
 10
-19.367631521105061
 20
267.5
 30
0.0
 11
-19.367631521105061
 21
262.5
 31
0.0
  0
LINE
  5
B76
  8
0
  6
CONTINUOUS
 10
-16.867631521105061
 20
262.5
 30
0.0
 11
-19.367631521105061
 21
262.5
 31
0.0
  0
LINE
  5
B77
  8
0
  6
CONTINUOUS
 10
-12.867631521105061
 20
274.0
 30
0.0
 11
-12.867631521105061
 21
276.5
 31
0.0
  0
LINE
  5
B78
  8
0
  6
CONTINUOUS
 10
-13.867631521105061
 20
274.0
 30
0.0
 11
-13.867631521105061
 21
276.5
 31
0.0
  0
LINE
  5
B79
  8
0
  6
CONTINUOUS
 10
-14.867631521105061
 20
274.0
 30
0.0
 11
-14.867631521105061
 21
276.5
 31
0.0
  0
LINE
  5
B7A
  8
0
  6
CONTINUOUS
 10
-15.867631521105061
 20
274.0
 30
0.0
 11
-15.867631521105061
 21
276.5
 31
0.0
  0
INSERT
  5
B7B
  8
0
  6
CONTINUOUS
  2
*X8
 10
0.0
 20
0.0
 30
0.0
1001
ACAD
1000
HATCH
1002
{
1070
    19
1000
_USER
1040
1.5
1040
0.7853981633974483
1000
R14_HATCH_DATA
1000
B7B
1011
1.0
1021
0.0
1031
0.0
1021
0.0
1031
0.0
1011
0.0
1021
0.0
1031
0.0
1021
1.0
1031
0.0
1011
0.0
1021
0.0
1031
0.0
1021
0.0
1031
1.0
1040
0.0
1010
0.0
1020
0.0
1030
1.0
1000
_USER
1070
     0
1070
     0
1071
        1
1071
        7
1070
     1
1070
     1
1071
       16
1040
-19.367631521105061
1040
267.5
1040
0.0
1040
-19.367631521105061
1040
262.5
1040
0.0
1040
-16.867631521105061
1040
262.5
1040
0.0
1040
-16.867631521105061
1040
274.5
1040
-0.1041219597369
1040
-26.367631521105089
1040
276.5
1040
0.0
1040
-29.367631521105061
1040
276.5
1040
0.0
1040
-29.367631521105061
1040
271.38561910376768
1040
0.258592524837332
1040
-28.192628871113001
1040
269.26562334375501
1040
0.0
1040
-25.367631521105078
1040
267.5
1040
0.0
1040
-25.367631521105061
1040
252.49999999999989
1040
0.0
1040
-22.867631521105061
1040
252.49999999999989
1040
0.0
1040
-22.867631521105061
1040
253.5
1040
0.0
1040
-23.367631521105061
1040
253.5
1040
0.0
1040
-23.367631521105061
1040
254.49999999999989
1040
0.0
1040
-22.867631521105061
1040
254.49999999999989
1040
0.0
1040
-22.867631521105061
1040
267.5
1040
0.0
1071
        0
1070
     0
1070
     0
1040
0.7853981633974483
1040
1.5
1070
     1
1070
     2
1040
0.7853981633974483
1040
54.227997817020992
1040
1.5373377412289519
1040
-1.060660171779821
1040
1.060660171779821
1070
     0
1040
2.3561944901923439
1040
54.227997817020992
1040
1.5373377412289519
1040
-1.060660171779821
1040
-1.060660171779821
1070
     0
1040
0.054153028512175
1071
        1
1040
-21.012301904133889
1040
269.05512114648639
1040
0.0
1002
}
  0
LINE
  5
B7C
  8
0
  6
CONTINUOUS
 10
-25.367631521105061
 20
267.5
 30
0.0
 11
-25.367631521105061
 21
252.49999999999989
 31
0.0
  0
LINE
  5
B7D
  8
0
  6
CONTINUOUS
 10
-22.367631521105061
 20
252.49999999999989
 30
0.0
 11
-22.367631521105061
 21
253.5
 31
0.0
  0
LINE
  5
B7E
  8
0
  6
CONTINUOUS
 10
-22.867631521105061
 20
252.49999999999989
 30
0.0
 11
-22.867631521105061
 21
253.5
 31
0.0
  0
LINE
  5
BB7
  8
0
  6
CONTINUOUS
 10
30.632368478894929
 20
267.5
 30
0.0
 11
30.632368478894929
 21
262.5
 31
0.0
  0
LINE
  5
BB8
  8
0
  6
CONTINUOUS
 10
27.428737982140881
 20
265.54334408928412
 30
0.0
 11
30.632368478894929
 21
264.11479175006667
 31
0.0
  0
LINE
  5
BB9
  8
0
  6
CONTINUOUS
 10
33.132368478894932
 20
262.5
 30
0.0
 11
30.632368478894929
 21
262.5
 31
0.0
  0
LINE
  5
BBA
  8
0
  6
CONTINUOUS
 10
45.632368478894932
 20
271.49999999999989
 30
0.0
 11
33.132368478894932
 21
271.49999999999989
 31
0.0
  0
LINE
  5
BBB
  8
0
  6
CONTINUOUS
 10
45.632368478894932
 20
274.0
 30
0.0
 11
33.132368478894932
 21
274.0
 31
0.0
  0
LINE
  5
BBC
  8
0
  6
CONTINUOUS
 10
41.632368478894932
 20
267.5
 30
0.0
 11
33.132368478894932
 21
267.5
 31
0.0
  0
LINE
  5
BBD
  8
0
  6
CONTINUOUS
 10
45.632368478894932
 20
276.5
 30
0.0
 11
20.632368478894929
 21
276.5
 31
0.0
  0
LINE
  5
BBE
  8
0
  6
DASHED
 10
45.632368478894932
 20
281.49999999999989
 30
0.0
 11
20.632368478894929
 21
281.49999999999989
 31
0.0
  0
LINE
  5
BBF
  8
0
  6
CONTINUOUS
 10
34.132368478894932
 20
274.0
 30
0.0
 11
34.132368478894932
 21
276.5
 31
0.0
  0
LINE
  5
BC0
  8
0
  6
CONTINUOUS
 10
35.132368478894932
 20
274.0
 30
0.0
 11
35.132368478894932
 21
276.5
 31
0.0
  0
LINE
  5
BC1
  8
0
  6
CONTINUOUS
 10
36.132368478894932
 20
274.0
 30
0.0
 11
36.132368478894932
 21
276.5
 31
0.0
  0
LINE
  5
BC2
  8
0
  6
CONTINUOUS
 10
37.132368478894932
 20
274.0
 30
0.0
 11
37.132368478894932
 21
276.5
 31
0.0
  0
LINE
  5
BC3
  8
0
  6
CONTINUOUS
 10
20.632368478894929
 20
276.5
 30
0.0
 11
20.632368478894929
 21
271.38561910376768
 31
0.0
  0
ARC
  5
BC4
  8
0
  6
CONTINUOUS
 10
33.132368478894932
 20
298.06249999999989
 30
0.0
 40
23.5625
 50
246.222683920744
 51
270.0
  0
LINE
  5
BC5
  8
0
  6
CONTINUOUS
 10
40.632368478894932
 20
274.0
 30
0.0
 11
40.632368478894932
 21
276.5
 31
0.0
  0
LINE
  5
BC6
  8
0
  6
CONTINUOUS
 10
39.632368478894932
 20
274.0
 30
0.0
 11
39.632368478894932
 21
276.5
 31
0.0
  0
LINE
  5
BC7
  8
0
  6
CONTINUOUS
 10
40.132368478894932
 20
274.0
 30
0.0
 11
40.132368478894932
 21
276.5
 31
0.0
  0
LINE
  5
BC8
  8
0
  6
CONTINUOUS
 10
38.132368478894932
 20
274.0
 30
0.0
 11
38.132368478894932
 21
276.5
 31
0.0
  0
LINE
  5
BC9
  8
0
  6
CONTINUOUS
 10
39.132368478894932
 20
274.0
 30
0.0
 11
39.132368478894932
 21
276.5
 31
0.0
  0
LINE
  5
BCA
  8
0
  6
CONTINUOUS
 10
27.132368478894929
 20
267.5
 30
0.0
 11
30.632368478894929
 21
267.5
 31
0.0
  0
LINE
  5
BCB
  8
0
  6
CONTINUOUS
 10
27.132368478894929
 20
266.5
 30
0.0
 11
30.632368478894929
 21
266.5
 31
0.0
  0
LINE
  5
BCC
  8
0
  6
CONTINUOUS
 10
27.842761234948789
 20
266.45358007914808
 30
0.0
 11
30.632368478894929
 21
265.15962299561852
 31
0.0
  0
ARC
  5
BCD
  8
0
  6
CONTINUOUS
 10
23.132368478894929
 20
271.38561910376768
 30
0.0
 40
2.5
 50
180.0
 51
237.99461679191629
  0
LINE
  5
BCE
  8
0
  6
CONTINUOUS
 10
21.807371128886981
 20
269.26562334375501
 30
0.0
 11
24.632368478894929
 21
267.5
 31
0.0
  0
ARC
  5
BCF
  8
0
  6
CONTINUOUS
 10
27.632368478894929
 20
266.0
 30
0.0
 40
0.5
 50
65.115809913695742
 51
245.96710956430019
  0
LINE
  5
BD0
  8
0
  6
CONTINUOUS
 10
28.132368478894929
 20
266.5
 30
0.0
 11
28.132368478894929
 21
266.31924599123698
 31
0.0
  0
LINE
  5
BD1
  8
0
  6
DASHED
 10
20.632368478894929
 20
281.49999999999989
 30
0.0
 11
20.632368478894929
 21
276.5
 31
0.0
  0
LINE
  5
BD2
  8
0
  6
CONTINUOUS
 10
45.632368478894932
 20
271.38561910376768
 30
0.0
 11
45.632368478894932
 21
276.5
 31
0.0
  0
LINE
  5
BD3
  8
0
  6
CONTINUOUS
 10
41.632368478894932
 20
274.0
 30
0.0
 11
41.632368478894932
 21
276.5
 31
0.0
  0
LINE
  5
BD4
  8
0
  6
CONTINUOUS
 10
41.132368478894932
 20
274.0
 30
0.0
 11
41.132368478894932
 21
276.5
 31
0.0
  0
LINE
  5
BD5
  8
0
  6
CONTINUOUS
 10
42.132368478894932
 20
274.0
 30
0.0
 11
42.132368478894932
 21
276.5
 31
0.0
  0
LINE
  5
BD6
  8
0
  6
CONTINUOUS
 10
42.632368478894932
 20
274.0
 30
0.0
 11
42.632368478894932
 21
276.5
 31
0.0
  0
LINE
  5
BD7
  8
0
  6
CONTINUOUS
 10
44.632368478894932
 20
274.0
 30
0.0
 11
44.632368478894932
 21
276.5
 31
0.0
  0
LINE
  5
BD8
  8
0
  6
CONTINUOUS
 10
45.132368478894932
 20
274.0
 30
0.0
 11
45.132368478894932
 21
276.5
 31
0.0
  0
LINE
  5
BD9
  8
0
  6
CONTINUOUS
 10
43.632368478894932
 20
274.0
 30
0.0
 11
43.632368478894932
 21
276.5
 31
0.0
  0
LINE
  5
BDA
  8
0
  6
CONTINUOUS
 10
44.132368478894932
 20
274.0
 30
0.0
 11
44.132368478894932
 21
276.5
 31
0.0
  0
LINE
  5
BDB
  8
0
  6
CONTINUOUS
 10
43.132368478894932
 20
274.0
 30
0.0
 11
43.132368478894932
 21
276.5
 31
0.0
  0
ARC
  5
BDC
  8
0
  6
CONTINUOUS
 10
43.132368478894932
 20
271.38561910376768
 30
0.0
 40
2.5
 50
302.00538320808357
 51
0.0
  0
LINE
  5
BDD
  8
0
  6
CONTINUOUS
 10
41.632368478894932
 20
267.5
 30
0.0
 11
44.45736582890288
 21
269.26562334375501
 31
0.0
  0
LINE
  5
BDE
  8
0
  6
DASHED
 10
45.632368478894932
 20
276.5
 30
0.0
 11
45.632368478894932
 21
281.49999999999989
 31
0.0
  0
LINE
  5
BDF
  8
0
  6
CONTINUOUS
 10
41.632368478894932
 20
252.49999999999989
 30
0.0
 11
41.632368478894932
 21
267.5
 31
0.0
  0
INSERT
  5
BE0
  8
0
  6
CONTINUOUS
  2
*X9
 10
0.0
 20
0.0
 30
0.0
1001
ACAD
1000
HATCH
1002
{
1070
    19
1000
_USER
1040
1.5
1040
0.7853981633974483
1000
R14_HATCH_DATA
1000
BE0
1011
1.0
1021
0.0
1031
0.0
1021
0.0
1031
0.0
1011
0.0
1021
0.0
1031
0.0
1021
1.0
1031
0.0
1011
0.0
1021
0.0
1031
0.0
1021
0.0
1031
1.0
1040
0.0
1010
0.0
1020
0.0
1030
1.0
1000
_USER
1070
     0
1070
     0
1071
        1
1071
        7
1070
     1
1070
     1
1071
       16
1040
30.632368478894929
1040
267.5
1040
0.0
1040
30.632368478894929
1040
262.5
1040
0.0
1040
33.132368478894932
1040
262.5
1040
0.0
1040
33.132368478894932
1040
274.5
1040
-0.1041219597369
1040
23.6323684788949
1040
276.5
1040
0.0
1040
20.632368478894929
1040
276.5
1040
0.0
1040
20.632368478894929
1040
271.38561910376768
1040
0.258592524837332
1040
21.807371128886992
1040
269.26562334375501
1040
0.0
1040
24.632368478894922
1040
267.5
1040
0.0
1040
24.632368478894929
1040
252.49999999999989
1040
0.0
1040
27.132368478894929
1040
252.49999999999989
1040
0.0
1040
27.132368478894929
1040
253.5
1040
0.0
1040
26.632368478894929
1040
253.5
1040
0.0
1040
26.632368478894929
1040
254.49999999999989
1040
0.0
1040
27.132368478894929
1040
254.49999999999989
1040
0.0
1040
27.132368478894929
1040
267.5
1040
0.0
1071
        0
1070
     0
1070
     0
1040
0.7853981633974483
1040
1.5
1070
     1
1070
     2
1040
0.7853981633974483
1040
104.22799781702091
1040
1.5373377412289519
1040
-1.060660171779821
1040
1.060660171779821
1070
     0
1040
2.3561944901923439
1040
104.22799781702091
1040
1.5373377412289519
1040
-1.060660171779821
1040
-1.060660171779821
1070
     0
1040
0.054153028512175
1071
        1
1040
28.987698095866101
1040
269.05512114648639
1040
0.0
1002
}
  0
LINE
  5
BE1
  8
0
  6
CONTINUOUS
 10
24.632368478894929
 20
267.5
 30
0.0
 11
24.632368478894929
 21
252.49999999999989
 31
0.0
  0
LINE
  5
BE2
  8
0
  6
CONTINUOUS
 10
27.132368478894929
 20
254.49999999999989
 30
0.0
 11
27.132368478894929
 21
267.5
 31
0.0
  0
LINE
  5
BE3
  8
0
  6
CONTINUOUS
 10
28.132368478894929
 20
265.2295835001334
 30
0.0
 11
28.132368478894929
 21
261.3192459912371
 31
0.0
  0
LINE
  5
BE4
  8
0
  6
CONTINUOUS
 10
27.842761234948789
 20
261.4535800791482
 30
0.0
 11
33.132368478894932
 21
259.0
 31
0.0
  0
LINE
  5
BE5
  8
0
  6
CONTINUOUS
 10
27.428737982140881
 20
260.54334408928412
 30
0.0
 11
33.132368478894932
 21
258.0
 31
0.0
  0
LINE
  5
BE6
  8
0
  6
CONTINUOUS
 10
28.132368478894929
 20
260.2295835001334
 30
0.0
 11
28.132368478894929
 21
255.5
 31
0.0
  0
ARC
  5
BE7
  8
0
  6
CONTINUOUS
 10
27.632368478894929
 20
261.0
 30
0.0
 40
0.5
 50
65.115809913698001
 51
245.9671095643009
  0
LINE
  5
BE8
  8
0
  6
CONTINUOUS
 10
27.332368478894921
 20
261.39999999999992
 30
0.0
 11
28.132368478894929
 21
262.0
 31
0.0
  0
LINE
  5
BE9
  8
0
  6
CONTINUOUS
 10
33.132368478894932
 20
253.5
 30
0.0
 11
26.632368478894929
 21
253.5
 31
0.0
  0
LINE
  5
BEA
  8
0
  6
CONTINUOUS
 10
26.632368478894929
 20
254.49999999999989
 30
0.0
 11
33.132368478894932
 21
254.49999999999989
 31
0.0
  0
LINE
  5
BEB
  8
0
  6
CONTINUOUS
 10
27.632368478894929
 20
255.5
 30
0.0
 11
33.132368478894932
 21
255.5
 31
0.0
  0
LINE
  5
BEC
  8
0
  6
CONTINUOUS
 10
26.632368478894929
 20
253.5
 30
0.0
 11
26.632368478894929
 21
254.49999999999989
 31
0.0
  0
ARC
  5
BED
  8
0
  6
CONTINUOUS
 10
27.632368478894929
 20
255.0
 30
0.0
 40
0.5
 50
90.0
 51
270.0
  0
LINE
  5
BEE
  8
0
  6
CONTINUOUS
 10
27.332368478894921
 20
255.40000000000001
 30
0.0
 11
28.132368478894929
 21
256.0
 31
0.0
  0
LINE
  5
BEF
  8
0
  6
CONTINUOUS
 10
27.132368478894929
 20
252.49999999999989
 30
0.0
 11
27.132368478894929
 21
253.5
 31
0.0
  0
LINE
  5
BF0
  8
0
  6
CONTINUOUS
 10
27.632368478894929
 20
252.49999999999989
 30
0.0
 11
27.632368478894929
 21
253.5
 31
0.0
  0
INSERT
  5
E29
  8
0
  6
CONTINUOUS
  2
*X10
 10
0.0
 20
0.0
 30
0.0
1001
ACAD
1000
HATCH
1002
{
1070
    19
1000
_USER
1040
1.0
1040
0.7853981633974483
1000
ASC_BOUNDS
1070
     2
1070
     1
1070
     8
1005
7E7
1005
7E4
1005
920
1005
7DE
1005
91F
1005
77A
1005
8E2
1005
8DB
1070
     1
1070
     9
1005
782
1005
7E0
1005
7E5
1005
7DF
1005
7E4
1005
7E8
1005
8E6
1005
8E5
1005
77A
1000
ASC_SEEDPOINT
1011
-24.31486803379266
1021
0.0
1031
0.0
1021
249.47155096469771
1031
0.0
1000
R14_HATCH_DATA
1000
E29
1011
1.0
1021
0.0
1031
0.0
1021
0.0
1031
0.0
1011
0.0
1021
0.0
1031
0.0
1021
1.0
1031
0.0
1011
0.0
1021
0.0
1031
0.0
1021
0.0
1031
1.0
1040
0.0
1010
0.0
1020
0.0
1030
1.0
1000
_USER
1070
     0
1070
     1
1071
        2
1071
        7
1070
     1
1070
     1
1071
        9
1040
-16.867631521105071
1040
252.49999999999989
1040
0.0
1040
-27.717631521105069
1040
252.49999999999989
1040
0.0
1040
-27.717631521105069
1040
252.25
1040
0.0
1040
-29.717631521105069
1040
250.24999999999989
1040
0.0
1040
-29.717631521105059
1040
248.0
1040
0.0
1040
-21.867631521105061
1040
248.0
1040
0.0
1040
-21.867631521105061
1040
246.49999999999989
1040
0.4142135623730951
1040
-20.867631521105061
1040
245.5
1040
0.0
1040
-16.867631521105061
1040
245.5
1040
0.0
1071
        9
1005
77A
1005
8E5
1005
8E6
1005
7E8
1005
7E4
1005
7DF
1005
7E5
1005
7E0
1005
782
1071
        7
1070
     1
1070
     1
1071
        8
1040
-34.017631521105059
1040
250.24999999999989
1040
0.0
1040
-36.017631521105059
1040
252.24999999999989
1040
0.0
1040
-36.017631521105059
1040
252.49999999999989
1040
0.0
1040
-36.617631521105061
1040
252.49999999999989
1040
0.4142135623730951
1040
-36.867631521105061
1040
252.24999999999989
1040
0.0
1040
-36.867631521105061
1040
248.24999999999989
1040
0.4142135623730951
1040
-36.617631521105061
1040
248.0
1040
0.0
1040
-34.017631521105059
1040
248.0
1040
0.0
1071
        8
1005
8DB
1005
8E2
1005
77A
1005
91F
1005
7DE
1005
920
1005
7E4
1005
7E7
1070
     0
1070
     0
1040
0.7853981633974483
1040
1.0
1070
     0
1070
     1
1040
0.7853981633974483
1040
0.0
1040
0.0
1040
-0.7071067811865475
1040
0.7071067811865476
1070
     0
1040
0.1935142767818138
1071
        2
1040
-24.31486803379266
1040
249.47155096469771
1040
0.0
1040
-35.34993229949896
1040
249.47155096469771
1040
0.0
1002
}
  0
INSERT
  5
E3B
  8
0
  6
CONTINUOUS
  2
*X11
 10
0.0
 20
0.0
 30
0.0
1001
ACAD
1000
HATCH
1002
{
1070
    19
1000
_USER
1040
1.0
1040
0.7853981633974483
1000
ASC_BOUNDS
1070
     2
1070
     1
1070
     8
1005
8EE
1005
897
1005
925
1005
924
1005
926
1005
896
1005
8EC
1005
8E9
1070
     1
1070
     9
1005
891
1005
89E
1005
89F
1005
8A0
1005
897
1005
8ED
1005
8F0
1005
8F3
1005
896
1000
ASC_SEEDPOINT
1011
26.988500356723311
1021
0.0
1031
0.0
1021
250.63263654698349
1031
0.0
1000
R14_HATCH_DATA
1000
E3B
1011
1.0
1021
0.0
1031
0.0
1021
0.0
1031
0.0
1011
0.0
1021
0.0
1031
0.0
1021
1.0
1031
0.0
1011
0.0
1021
0.0
1031
0.0
1021
0.0
1031
1.0
1040
0.0
1010
0.0
1020
0.0
1030
1.0
1000
_USER
1070
     0
1070
     1
1071
        2
1071
        7
1070
     1
1070
     1
1071
        9
1040
33.132368478894932
1040
252.5
1040
0.0
1040
22.282368478894931
1040
252.5
1040
0.0
1040
22.282368478894941
1040
252.25
1040
0.0
1040
20.28236847889492
1040
250.25
1040
0.0
1040
20.28236847889492
1040
248.0
1040
0.0
1040
28.132368478894929
1040
248.0
1040
0.0
1040
28.132368478894929
1040
246.49999999999989
1040
0.4142135623730951
1040
29.132368478894929
1040
245.5
1040
0.0
1040
33.132368478894932
1040
245.5
1040
0.0
1071
        9
1005
896
1005
8F3
1005
8F0
1005
8ED
1005
897
1005
8A0
1005
89F
1005
89E
1005
891
1071
        7
1070
     1
1070
     1
1071
        8
1040
15.98236847889493
1040
250.24999999999989
1040
0.0
1040
13.98236847889493
1040
252.25
1040
0.0
1040
13.98236847889493
1040
252.49999999999989
1040
0.0
1040
13.382368478894939
1040
252.49999999999989
1040
0.4142135623731097
1040
13.13236847889493
1040
252.24999999999989
1040
0.0
1040
13.13236847889493
1040
248.24999999999989
1040
0.4142135623730951
1040
13.38236847889493
1040
248.0
1040
0.0
1040
15.98236847889493
1040
248.0
1040
0.0
1071
        8
1005
8E9
1005
8EC
1005
896
1005
926
1005
924
1005
925
1005
897
1005
8EE
1070
     0
1070
     0
1040
0.7853981633974483
1040
1.0
1070
     0
1070
     1
1040
0.7853981633974483
1040
0.0
1040
0.0
1040
-0.7071067811865475
1040
0.7071067811865476
1070
     0
1040
0.1935142767818138
1071
        2
1040
26.988500356723311
1040
250.63263654698349
1040
0.0
1040
14.79185000865743
1040
249.27803659126189
1040
0.0
1002
}
  0
INSERT
  5
E4D
  8
0
  6
CONTINUOUS
  2
*X12
 10
0.0
 20
0.0
 30
0.0
1001
ACAD
1000
HATCH
1002
{
1070
    19
1000
_USER
1040
1.5
1040
0.7853981633974483
1000
ASC_BOUNDS
1070
     2
1070
     1
1070
     8
1005
7C8
1005
7C2
1005
8F7
1005
7C1
1005
8F6
1005
718
1005
8F4
1005
8FC
1070
     1
1070
     9
1005
723
1005
7C4
1005
7C7
1005
7C3
1005
7C2
1005
7C9
1005
8FF
1005
8FE
1005
718
1000
ASC_SEEDPOINT
1011
104.2339482071193
1021
0.0
1031
0.0
1021
248.1169510089762
1031
0.0
1000
R14_HATCH_DATA
1000
E4D
1011
1.0
1021
0.0
1031
0.0
1021
0.0
1031
0.0
1011
0.0
1021
0.0
1031
0.0
1021
1.0
1031
0.0
1011
0.0
1021
0.0
1031
0.0
1021
0.0
1031
1.0
1040
0.0
1010
0.0
1020
0.0
1030
1.0
1000
_USER
1070
     0
1070
     1
1071
        2
1071
        7
1070
     1
1070
     1
1071
        9
1040
109.5
1040
252.49999999999989
1040
0.0
1040
97.700000000000017
1040
252.49999999999989
1040
0.0
1040
97.699999999999974
1040
252.24999999999989
1040
0.0
1040
95.150000000000006
1040
249.69999999999999
1040
0.0
1040
95.150000000000006
1040
247.0
1040
0.0
1040
103.4999999999999
1040
246.99999999999989
1040
0.0
1040
103.4999999999999
1040
245.5
1040
0.4142135623730951
1040
104.4999999999999
1040
244.49999999999989
1040
0.0
1040
109.4999999999999
1040
244.49999999999989
1040
0.0
1071
        9
1005
718
1005
8FE
1005
8FF
1005
7C9
1005
7C2
1005
7C3
1005
7C7
1005
7C4
1005
723
1071
        7
1070
     1
1070
     1
1071
        8
1040
89.849999999999994
1040
249.69999999999999
1040
0.0
1040
87.299999999999997
1040
252.24999999999989
1040
0.0
1040
87.299999999999997
1040
252.49999999999989
1040
0.0
1040
87.0
1040
252.49999999999989
1040
0.4142135623730955
1040
86.5
1040
252.0
1040
0.0
1040
86.5
1040
247.5
1040
0.4142135623730951
1040
87.0
1040
247.0
1040
0.0
1040
89.849999999999994
1040
247.0
1040
0.0
1071
        8
1005
8FC
1005
8F4
1005
718
1005
8F6
1005
7C1
1005
8F7
1005
7C2
1005
7C8
1070
     0
1070
     0
1040
0.7853981633974483
1040
1.5
1070
     0
1070
     1
1040
0.7853981633974483
1040
0.0
1040
0.0
1040
-1.060660171779821
1040
1.060660171779821
1070
     0
1040
0.1935142767818138
1071
        2
1040
104.2339482071193
1040
248.1169510089762
1040
0.0
1040
88.746138464604755
1040
247.9234366355403
1040
0.0
1002
}
  0
INSERT
  5
E5F
  8
0
  6
CONTINUOUS
  2
*X13
 10
0.0
 20
0.0
 30
0.0
1001
ACAD
1000
HATCH
1002
{
1070
    19
1000
_USER
1040
1.5
1040
0.7853981633974483
1000
ASC_BOUNDS
1070
     2
1070
     1
1070
     8
1005
902
1005
819
1005
904
1005
903
1005
905
1005
81A
1005
906
1005
907
1070
     1
1070
     9
1005
810
1005
814
1005
81D
1005
822
1005
819
1005
908
1005
909
1005
90A
1005
81A
1000
ASC_SEEDPOINT
1011
165.99158731977499
1021
0.0
1031
0.0
1021
247.53640788866889
1031
0.0
1000
R14_HATCH_DATA
1000
E5F
1011
1.0
1021
0.0
1031
0.0
1021
0.0
1031
0.0
1011
0.0
1021
0.0
1031
0.0
1021
1.0
1031
0.0
1011
0.0
1021
0.0
1031
0.0
1021
0.0
1031
1.0
1040
0.0
1010
0.0
1020
0.0
1030
1.0
1000
_USER
1070
     0
1070
     1
1071
        2
1071
        7
1070
     1
1070
     1
1071
        9
1040
169.5
1040
252.49999999999989
1040
0.0
1040
157.6999999999999
1040
252.49999999999989
1040
0.0
1040
157.6999999999999
1040
252.25
1040
0.0
1040
155.15000000000001
1040
249.69999999999999
1040
0.0
1040
155.15000000000001
1040
247.0
1040
0.0
1040
163.49999999999989
1040
246.99999999999989
1040
0.0
1040
163.49999999999989
1040
245.5
1040
0.4142135623730951
1040
164.5
1040
244.49999999999989
1040
0.0
1040
169.5
1040
244.49999999999989
1040
0.0
1071
        9
1005
81A
1005
90A
1005
909
1005
908
1005
819
1005
822
1005
81D
1005
814
1005
810
1071
        7
1070
     1
1070
     1
1071
        8
1040
149.84999999999991
1040
249.69999999999999
1040
0.0
1040
147.30000000000001
1040
252.25
1040
0.0
1040
147.30000000000001
1040
252.49999999999989
1040
0.0
1040
147.0
1040
252.49999999999989
1040
0.4142135623730955
1040
146.5
1040
252.0
1040
0.0
1040
146.5
1040
247.5
1040
0.4142135623730951
1040
147.0
1040
247.0
1040
0.0
1040
149.84999999999991
1040
247.0
1040
0.0
1071
        8
1005
907
1005
906
1005
81A
1005
905
1005
903
1005
904
1005
819
1005
902
1070
     0
1070
     0
1040
0.7853981633974483
1040
1.5
1070
     0
1070
     1
1040
0.7853981633974483
1040
0.0
1040
0.0
1040
-1.060660171779821
1040
1.060660171779821
1070
     0
1040
0.1935142767818138
1071
        2
1040
165.99158731977499
1040
247.53640788866889
1040
0.0
1040
147.59981387852241
1040
248.31046472408329
1040
0.0
1002
}
  0
ENDSEC
  0
EOF
