  0
SECTION
  2
HEADER
  9
$ACADVER
  1
AC1009
  9
$INSBASE
 10
0.0
 20
0.0
 30
0.0
  9
$EXTMIN
 10
-39.867631521105068
 20
21.499999999999989
 30
0.0
  9
$EXTMAX
 10
195.5
 20
138.0
 30
0.0
  9
$LIMMIN
 10
0.0
 20
0.0
  9
$LIMMAX
 10
420.0
 20
297.0
  9
$ORTHOMODE
 70
     1
  9
$REGENMODE
 70
     1
  9
$FILLMODE
 70
     1
  9
$QTEXTMODE
 70
     0
  9
$MIRRTEXT
 70
     1
  9
$DRAGMODE
 70
     2
  9
$LTSCALE
 40
1.0
  9
$OSMODE
 70
    40
  9
$ATTMODE
 70
     1
  9
$TEXTSIZE
 40
3.5
  9
$TRACEWID
 40
1.0
  9
$TEXTSTYLE
  7
STANDARD
  9
$CLAYER
  8
0
  9
$CELTYPE
  6
BYLAYER
  9
$CECOLOR
 62
   256
  9
$DIMSCALE
 40
1.0
  9
$DIMASZ
 40
2.5
  9
$DIMEXO
 40
0.625
  9
$DIMDLI
 40
3.75
  9
$DIMRND
 40
0.0
  9
$DIMDLE
 40
0.0
  9
$DIMEXE
 40
1.25
  9
$DIMTP
 40
0.0
  9
$DIMTM
 40
0.0
  9
$DIMTXT
 40
2.5
  9
$DIMCEN
 40
2.5
  9
$DIMTSZ
 40
0.0
  9
$DIMTOL
 70
     0
  9
$DIMLIM
 70
     0
  9
$DIMTIH
 70
     1
  9
$DIMTOH
 70
     0
  9
$DIMSE1
 70
     0
  9
$DIMSE2
 70
     0
  9
$DIMTAD
 70
     1
  9
$DIMZIN
 70
     8
  9
$DIMBLK
  1

  9
$DIMASO
 70
     1
  9
$DIMSHO
 70
     1
  9
$DIMPOST
  1

  9
$DIMAPOST
  1

  9
$DIMALT
 70
     0
  9
$DIMALTD
 70
     2
  9
$DIMALTF
 40
0.0394
  9
$DIMLFAC
 40
1.0
  9
$DIMTOFL
 70
     1
  9
$DIMTVP
 40
1.0
  9
$DIMTIX
 70
     0
  9
$DIMSOXD
 70
     0
  9
$DIMSAH
 70
     0
  9
$DIMBLK1
  1

  9
$DIMBLK2
  1

  9
$DIMSTYLE
  2
STANDARD
  9
$DIMCLRD
 70
     0
  9
$DIMCLRE
 70
     0
  9
$DIMCLRT
 70
     0
  9
$DIMTFAC
 40
1.0
  9
$DIMGAP
 40
0.625
  9
$LUNITS
 70
     2
  9
$LUPREC
 70
     4
  9
$SKETCHINC
 40
1.0
  9
$FILLETRAD
 40
0.25
  9
$AUNITS
 70
     0
  9
$AUPREC
 70
     0
  9
$MENU
  1
acad
  9
$ELEVATION
 40
0.0
  9
$PELEVATION
 40
0.0
  9
$THICKNESS
 40
0.0
  9
$LIMCHECK
 70
     0
  9
$BLIPMODE
 70
     0
  9
$CHAMFERA
 40
10.0
  9
$CHAMFERB
 40
10.0
  9
$SKPOLY
 70
     0
  9
$TDCREATE
 40
2450490.407696527
  9
$TDUPDATE
 40
2452898.4176795599
  9
$TDINDWG
 40
0.0558315625
  9
$TDUSRTIMER
 40
0.0558315625
  9
$USRTIMER
 70
     1
  9
$ANGBASE
 50
0.0
  9
$ANGDIR
 70
     0
  9
$PDMODE
 70
     0
  9
$PDSIZE
 40
0.0
  9
$PLINEWID
 40
0.0
  9
$COORDS
 70
     2
  9
$SPLFRAME
 70
     0
  9
$SPLINETYPE
 70
     6
  9
$SPLINESEGS
 70
     8
  9
$ATTDIA
 70
     0
  9
$ATTREQ
 70
     1
  9
$HANDLING
 70
-16383
  9
$HANDSEED
  5
1233
  9
$SURFTAB1
 70
     6
  9
$SURFTAB2
 70
     6
  9
$SURFTYPE
 70
     6
  9
$SURFU
 70
     6
  9
$SURFV
 70
     6
  9
$UCSNAME
  2

  9
$UCSORG
 10
0.0
 20
0.0
 30
0.0
  9
$UCSXDIR
 10
1.0
 20
0.0
 30
0.0
  9
$UCSYDIR
 10
0.0
 20
1.0
 30
0.0
  9
$PUCSNAME
  2

  9
$PUCSORG
 10
0.0
 20
0.0
 30
0.0
  9
$PUCSXDIR
 10
1.0
 20
0.0
 30
0.0
  9
$PUCSYDIR
 10
0.0
 20
1.0
 30
0.0
  9
$USERI1
 70
     0
  9
$USERI2
 70
     0
  9
$USERI3
 70
     0
  9
$USERI4
 70
     0
  9
$USERI5
 70
     0
  9
$USERR1
 40
0.0
  9
$USERR2
 40
0.0
  9
$USERR3
 40
0.0
  9
$USERR4
 40
0.0
  9
$USERR5
 40
0.0
  9
$WORLDVIEW
 70
     1
  9
$SHADEDGE
 70
     3
  9
$SHADEDIF
 70
    70
  9
$TILEMODE
 70
     1
  9
$MAXACTVP
 70
    16
  9
$PLIMCHECK
 70
     0
  9
$PEXTMIN
 10
1.0000000000000000E+020
 20
1.0000000000000000E+020
 30
1.0000000000000000E+020
  9
$PEXTMAX
 10
-1.0000000000000000E+020
 20
-1.0000000000000000E+020
 30
-1.0000000000000000E+020
  9
$PLIMMIN
 10
0.0
 20
0.0
  9
$PLIMMAX
 10
420.0
 20
297.0
  9
$UNITMODE
 70
     0
  9
$VISRETAIN
 70
     0
  9
$PLINEGEN
 70
     0
  9
$PSLTSCALE
 70
     1
  0
ENDSEC
  0
SECTION
  2
TABLES
  0
TABLE
  2
VPORT
 70
     8
  0
VPORT
  2
*ACTIVE
 70
     0
 10
0.0
 20
0.0
 11
1.0
 21
1.0
 12
77.811356760611162
 22
79.751679078270342
 13
0.0
 23
0.0
 14
0.5
 24
0.5
 15
10.0
 25
10.0
 16
0.0
 26
0.0
 36
1.0
 17
0.0
 27
0.0
 37
0.0
 40
154.9820059814883
 41
1.5262500000000001
 42
50.0
 43
0.0
 44
0.0
 50
0.0
 51
0.0
 71
     0
 72
   100
 73
     1
 74
     0
 75
     0
 76
     0
 77
     0
 78
     0
  0
ENDTAB
  0
TABLE
  2
LTYPE
 70
    25
  0
LTYPE
  2
CONTINUOUS
 70
     0
  3
Solid line
 72
    65
 73
     0
 40
0.0
  0
LTYPE
  2
CENTER
 70
     0
  3
____ _ ____ _ ____ _ ____ _ ____ _ ____ _ ____ 
 72
    65
 73
     4
 40
2.0
 49
1.25
 49
-0.25
 49
0.25
 49
-0.25
  0
LTYPE
  2
DASHED
 70
     0
  3
__ __ __ __ __ __ __ __ __ __ __ __ __ __ __ __
 72
    65
 73
     2
 40
0.75
 49
0.5
 49
-0.25
  0
ENDTAB
  0
TABLE
  2
LAYER
 70
     1
  0
LAYER
  2
0
 70
     0
 62
     7
  6
CONTINUOUS
  0
ENDTAB
  0
TABLE
  2
STYLE
 70
     1
  0
STYLE
  2
STANDARD
 70
     0
 40
0.0
 41
1.0
 50
0.0
 71
     0
 42
3.5
  3
txt
  4

  0
ENDTAB
  0
TABLE
  2
VIEW
 70
     0
  0
ENDTAB
  0
TABLE
  2
UCS
 70
     0
  0
ENDTAB
  0
TABLE
  2
APPID
 70
     1
  0
APPID
  2
ACAD
 70
     0
  0
ENDTAB
  0
TABLE
  2
DIMSTYLE
 70
     1
  0
DIMSTYLE
  2
STANDARD
 70
     0
  3

  4

  5

  6

  7

 40
1.0
 41
0.18
 42
0.0625
 43
0.38
 44
0.18
 45
0.0
 46
0.0
 47
0.0
 48
0.0
140
0.18
141
0.09
142
0.0
143
25.399999999999999
144
1.0
145
0.0
146
1.0
147
0.09
 71
     0
 72
     0
 73
     1
 74
     1
 75
     0
 76
     0
 77
     0
 78
     0
170
     0
171
     2
172
     0
173
     0
174
     0
175
     0
176
     0
177
     0
178
     0
  0
ENDTAB
  0
ENDSEC
  0
SECTION
  2
BLOCKS
  0
BLOCK
  8
0
  2
$MODEL_SPACE
 70
     0
 10
0.0
 20
0.0
 30
0.0
  3
$MODEL_SPACE
  1

  0
ENDBLK
  5
439
  8
0
  0
BLOCK
 67
     1
  8
0
  2
$PAPER_SPACE
 70
     0
 10
0.0
 20
0.0
 30
0.0
  3
$PAPER_SPACE
  1

  0
ENDBLK
  5
437
 67
     1
  8
0
  0
BLOCK
  8
0
  2
*X0
 70
     1
 10
0.0
 20
0.0
 30
0.0
  3
*X0
  1

  0
LINE
  5
119E
  8
0
 62
     0
 10
-16.867631521105061
 20
120.8123283555275
 30
0.0
 11
-18.083760462093551
 21
122.028457296516
 31
0.0
  0
LINE
  5
119F
  8
0
 62
     0
 10
-16.867631521105071
 20
118.6910080119679
 30
0.0
 11
-20.420517399405089
 21
122.2438938902679
 31
0.0
  0
LINE
  5
11A0
  8
0
 62
     0
 10
-18.797943852696779
 20
118.5
 30
0.0
 11
-23.041620741256988
 21
122.7436768885602
 31
0.0
  0
LINE
  5
11A1
  8
0
 62
     0
 10
-19.867631521105061
 20
117.4483673248486
 30
0.0
 11
-26.122012742432702
 21
123.7027485461762
 31
0.0
  0
LINE
  5
11A2
  8
0
 62
     0
 10
-17.867631521105061
 20
115.4483673248486
 30
0.0
 11
-18.919264196256421
 21
116.5
 31
0.0
  0
LINE
  5
11A3
  8
0
 62
     0
 10
-19.540584539816049
 20
115.0
 30
0.0
 11
-28.54058453981607
 21
124.0
 31
0.0
  0
LINE
  5
11A4
  8
0
 62
     0
 10
-21.661904883375708
 20
114.9999999999999
 30
0.0
 11
-29.367631521105061
 21
122.7057266377293
 31
0.0
  0
LINE
  5
11A5
  8
0
 62
     0
 10
-22.867631521105061
 20
114.0844062941696
 30
0.0
 11
-29.367631521105071
 21
120.5844062941697
 31
0.0
  0
LINE
  5
11A6
  8
0
 62
     0
 10
-26.799402319478219
 20
115.8948567489832
 30
0.0
 11
-29.323734763762101
 21
118.4191891932671
 31
0.0
  0
LINE
  5
11A7
  8
0
 62
     0
 10
-22.86763152110505
 20
111.96308595060999
 30
0.0
 11
-25.36763152110505
 21
114.46308595060999
 31
0.0
  0
LINE
  5
11A8
  8
0
 62
     0
 10
-22.867631521105071
 20
109.84176560705041
 30
0.0
 11
-25.367631521105061
 21
112.34176560705041
 31
0.0
  0
LINE
  5
11A9
  8
0
 62
     0
 10
-22.867631521105061
 20
107.7204452634907
 30
0.0
 11
-25.367631521105061
 21
110.2204452634907
 31
0.0
  0
LINE
  5
11AA
  8
0
 62
     0
 10
-22.867631521105061
 20
105.5991249199311
 30
0.0
 11
-25.367631521105061
 21
108.0991249199311
 31
0.0
  0
LINE
  5
11AB
  8
0
 62
     0
 10
-22.867631521105061
 20
103.4778045763715
 30
0.0
 11
-25.367631521105061
 21
105.9778045763714
 31
0.0
  0
LINE
  5
11AC
  8
0
 62
     0
 10
-23.367631521105061
 20
101.85648423281179
 30
0.0
 11
-25.36763152110505
 21
103.85648423281179
 31
0.0
  0
LINE
  5
11AD
  8
0
 62
     0
 10
-23.632467631852851
 20
100.0
 30
0.0
 11
-25.367631521105061
 21
101.73516388925221
 31
0.0
  0
LINE
  5
11AE
  8
0
 62
     0
 10
-23.157900270018899
 20
102.0
 30
0.0
 11
-22.867631521105071
 21
102.2902687489138
 31
0.0
  0
LINE
  5
11AF
  8
0
 62
     0
 10
-25.157900270018899
 20
100.0
 30
0.0
 11
-23.367631521105061
 21
101.7902687489138
 31
0.0
  0
LINE
  5
11B0
  8
0
 62
     0
 10
-25.367631521105061
 20
101.91158909247341
 30
0.0
 11
-22.867631521105061
 21
104.41158909247351
 31
0.0
  0
LINE
  5
11B1
  8
0
 62
     0
 10
-25.367631521105061
 20
104.03290943603309
 30
0.0
 11
-22.867631521105061
 21
106.53290943603309
 31
0.0
  0
LINE
  5
11B2
  8
0
 62
     0
 10
-25.367631521105061
 20
106.1542297795927
 30
0.0
 11
-22.867631521105061
 21
108.6542297795927
 31
0.0
  0
LINE
  5
11B3
  8
0
 62
     0
 10
-18.643181644257471
 20
115.0
 30
0.0
 11
-17.867631521105071
 21
115.7755501231524
 31
0.0
  0
LINE
  5
11B4
  8
0
 62
     0
 10
-25.367631521105061
 20
108.2755501231524
 30
0.0
 11
-22.867631521105061
 21
110.7755501231524
 31
0.0
  0
LINE
  5
11B5
  8
0
 62
     0
 10
-20.764501987817109
 20
115.0
 30
0.0
 11
-19.264501987817098
 21
116.5
 31
0.0
  0
LINE
  5
11B6
  8
0
 62
     0
 10
-17.264501987817091
 20
118.5
 30
0.0
 11
-16.867631521105061
 21
118.896870466712
 31
0.0
  0
LINE
  5
11B7
  8
0
 62
     0
 10
-25.367631521105071
 20
110.396870466712
 30
0.0
 11
-22.867631521105071
 21
112.896870466712
 31
0.0
  0
LINE
  5
11B8
  8
0
 62
     0
 10
-19.385822331376751
 20
118.5
 30
0.0
 11
-16.867631521105071
 21
121.01819081027161
 31
0.0
  0
LINE
  5
11B9
  8
0
 62
     0
 10
-25.367631521105061
 20
112.5181908102717
 30
0.0
 11
-19.867631521105029
 21
118.0181908102717
 31
0.0
  0
LINE
  5
11BA
  8
0
 62
     0
 10
-25.367631521105061
 20
114.63951115383129
 30
0.0
 11
-17.983199129138729
 21
122.02394354579759
 31
0.0
  0
LINE
  5
11BB
  8
0
 62
     0
 10
-26.451220134884132
 20
115.6772428836119
 30
0.0
 11
-19.945626788615758
 21
122.18283622988019
 31
0.0
  0
LINE
  5
11BC
  8
0
 62
     0
 10
-27.75664803861314
 20
116.4931353234425
 30
0.0
 11
-21.781259275047599
 21
122.46852408700811
 31
0.0
  0
LINE
  5
11BD
  8
0
 62
     0
 10
-28.917122450591052
 20
117.4539812550242
 30
0.0
 11
-23.50866006748489
 21
122.8624436381304
 31
0.0
  0
LINE
  5
11BE
  8
0
 62
     0
 10
-29.367631521105061
 20
119.1247925280698
 30
0.0
 11
-25.140985991235169
 21
123.3514380579397
 31
0.0
  0
LINE
  5
11BF
  8
0
 62
     0
 10
-29.367631521105071
 20
121.24611287162951
 30
0.0
 11
-26.687861037788501
 21
123.92588335494609
 31
0.0
  0
LINE
  5
11C0
  8
0
 62
     0
 10
-29.367631521105061
 20
123.3674332151891
 30
0.0
 11
-28.73506473629423
 21
124.0
 31
0.0
  0
ENDBLK
  5
11C2
  8
0
  0
BLOCK
  8
0
  2
*X1
 70
     1
 10
0.0
 20
0.0
 30
0.0
  3
*X1
  1

  0
LINE
  5
11C4
  8
0
 62
     0
 10
33.132368478894939
 20
120.8123283555275
 30
0.0
 11
31.916239537906449
 21
122.028457296516
 31
0.0
  0
LINE
  5
11C5
  8
0
 62
     0
 10
33.132368478894961
 20
118.6910080119679
 30
0.0
 11
29.579482600594901
 21
122.2438938902679
 31
0.0
  0
LINE
  5
11C6
  8
0
 62
     0
 10
31.20205614730321
 20
118.5
 30
0.0
 11
26.958379258743001
 21
122.7436768885602
 31
0.0
  0
LINE
  5
11C7
  8
0
 62
     0
 10
30.132368478894911
 20
117.4483673248486
 30
0.0
 11
23.87798725756727
 21
123.7027485461762
 31
0.0
  0
LINE
  5
11C8
  8
0
 62
     0
 10
32.132368478894932
 20
115.4483673248486
 30
0.0
 11
31.080735803743561
 21
116.5
 31
0.0
  0
LINE
  5
11C9
  8
0
 62
     0
 10
30.459415460183941
 20
115.0
 30
0.0
 11
21.45941546018393
 21
124.0
 31
0.0
  0
LINE
  5
11CA
  8
0
 62
     0
 10
28.338095116624281
 20
114.9999999999999
 30
0.0
 11
20.632368478894929
 21
122.7057266377293
 31
0.0
  0
LINE
  5
11CB
  8
0
 62
     0
 10
27.132368478894929
 20
114.0844062941697
 30
0.0
 11
20.632368478894911
 21
120.5844062941697
 31
0.0
  0
LINE
  5
11CC
  8
0
 62
     0
 10
23.200597680521749
 20
115.8948567489832
 30
0.0
 11
20.676265236237889
 21
118.4191891932671
 31
0.0
  0
LINE
  5
11CD
  8
0
 62
     0
 10
27.132368478894929
 20
111.96308595060999
 30
0.0
 11
24.632368478894939
 21
114.46308595060999
 31
0.0
  0
LINE
  5
11CE
  8
0
 62
     0
 10
27.132368478894929
 20
109.84176560705041
 30
0.0
 11
24.632368478894939
 21
112.34176560705041
 31
0.0
  0
LINE
  5
11CF
  8
0
 62
     0
 10
27.132368478894929
 20
107.7204452634907
 30
0.0
 11
24.632368478894929
 21
110.2204452634907
 31
0.0
  0
LINE
  5
11D0
  8
0
 62
     0
 10
27.132368478894929
 20
105.5991249199311
 30
0.0
 11
24.632368478894939
 21
108.0991249199311
 31
0.0
  0
LINE
  5
11D1
  8
0
 62
     0
 10
27.132368478894929
 20
103.4778045763715
 30
0.0
 11
24.632368478894939
 21
105.9778045763714
 31
0.0
  0
LINE
  5
11D2
  8
0
 62
     0
 10
26.632368478894939
 20
101.85648423281179
 30
0.0
 11
24.632368478894939
 21
103.85648423281179
 31
0.0
  0
LINE
  5
11D3
  8
0
 62
     0
 10
26.367532368147131
 20
100.0
 30
0.0
 11
24.632368478894929
 21
101.73516388925211
 31
0.0
  0
LINE
  5
11D4
  8
0
 62
     0
 10
26.84209972998109
 20
102.0
 30
0.0
 11
27.132368478894922
 21
102.2902687489138
 31
0.0
  0
LINE
  5
11D5
  8
0
 62
     0
 10
24.84209972998109
 20
100.0
 30
0.0
 11
26.632368478894939
 21
101.7902687489138
 31
0.0
  0
LINE
  5
11D6
  8
0
 62
     0
 10
24.632368478894929
 20
101.91158909247341
 30
0.0
 11
27.132368478894929
 21
104.41158909247351
 31
0.0
  0
LINE
  5
11D7
  8
0
 62
     0
 10
24.632368478894929
 20
104.03290943603309
 30
0.0
 11
27.132368478894929
 21
106.53290943603309
 31
0.0
  0
LINE
  5
11D8
  8
0
 62
     0
 10
24.632368478894929
 20
106.1542297795927
 30
0.0
 11
27.132368478894929
 21
108.6542297795927
 31
0.0
  0
LINE
  5
11D9
  8
0
 62
     0
 10
31.356818355742512
 20
115.0
 30
0.0
 11
32.132368478894918
 21
115.7755501231524
 31
0.0
  0
LINE
  5
11DA
  8
0
 62
     0
 10
24.632368478894929
 20
108.2755501231524
 30
0.0
 11
27.132368478894929
 21
110.7755501231524
 31
0.0
  0
LINE
  5
11DB
  8
0
 62
     0
 10
29.23549801218288
 20
115.0
 30
0.0
 11
30.735498012182891
 21
116.5
 31
0.0
  0
LINE
  5
11DC
  8
0
 62
     0
 10
32.735498012182887
 20
118.5
 30
0.0
 11
33.132368478894932
 21
118.896870466712
 31
0.0
  0
LINE
  5
11DD
  8
0
 62
     0
 10
24.632368478894922
 20
110.396870466712
 30
0.0
 11
27.132368478894922
 21
112.896870466712
 31
0.0
  0
LINE
  5
11DE
  8
0
 62
     0
 10
30.614177668623238
 20
118.5
 30
0.0
 11
33.132368478894918
 21
121.01819081027161
 31
0.0
  0
LINE
  5
11DF
  8
0
 62
     0
 10
24.632368478894929
 20
112.5181908102717
 30
0.0
 11
30.132368478894929
 21
118.01819081027161
 31
0.0
  0
LINE
  5
11E0
  8
0
 62
     0
 10
24.632368478894929
 20
114.63951115383129
 30
0.0
 11
32.016800870861282
 21
122.02394354579759
 31
0.0
  0
LINE
  5
11E1
  8
0
 62
     0
 10
23.548779865115861
 20
115.6772428836119
 30
0.0
 11
30.054373211384249
 21
122.18283622988019
 31
0.0
  0
LINE
  5
11E2
  8
0
 62
     0
 10
22.24335196138685
 20
116.4931353234425
 30
0.0
 11
28.218740724952401
 21
122.46852408700811
 31
0.0
  0
LINE
  5
11E3
  8
0
 62
     0
 10
21.082877549408941
 20
117.4539812550242
 30
0.0
 11
26.49133993251511
 21
122.8624436381304
 31
0.0
  0
LINE
  5
11E4
  8
0
 62
     0
 10
20.632368478894929
 20
119.1247925280698
 30
0.0
 11
24.859014008764841
 21
123.3514380579397
 31
0.0
  0
LINE
  5
11E5
  8
0
 62
     0
 10
20.632368478894922
 20
121.24611287162951
 30
0.0
 11
23.31213896221151
 21
123.92588335494609
 31
0.0
  0
LINE
  5
11E6
  8
0
 62
     0
 10
20.632368478894929
 20
123.3674332151891
 30
0.0
 11
21.264935263705748
 21
124.0
 31
0.0
  0
ENDBLK
  5
11E8
  8
0
  0
BLOCK
  8
0
  2
*X2
 70
     1
 10
0.0
 20
0.0
 30
0.0
  3
*X2
  1

  0
LINE
  5
11EA
  8
0
 62
     0
 10
-17.308657865101381
 20
93.0
 30
0.0
 11
-16.867631521105061
 21
93.441026343996313
 31
0.0
  0
LINE
  5
11EB
  8
0
 62
     0
 10
-18.72287142747448
 20
93.0
 30
0.0
 11
-16.867631521105071
 21
94.855239906369405
 31
0.0
  0
LINE
  5
11EC
  8
0
 62
     0
 10
-20.13708498984758
 20
93.0
 30
0.0
 11
-16.867631521105071
 21
96.269453468742512
 31
0.0
  0
LINE
  5
11ED
  8
0
 62
     0
 10
-21.398655404557829
 20
93.152643147662843
 30
0.0
 11
-16.867631521105071
 21
97.683667031115604
 31
0.0
  0
LINE
  5
11EE
  8
0
 62
     0
 10
-21.86763152110505
 20
94.097880593488696
 30
0.0
 11
-16.867631521105071
 21
99.097880593488696
 31
0.0
  0
LINE
  5
11EF
  8
0
 62
     0
 10
-21.87972567696686
 20
95.5
 30
0.0
 11
-17.37972567696686
 21
100.0
 31
0.0
  0
LINE
  5
11F0
  8
0
 62
     0
 10
-23.293939239339949
 20
95.5
 30
0.0
 11
-18.793939239339959
 21
100.0
 31
0.0
  0
LINE
  5
11F1
  8
0
 62
     0
 10
-24.708152801713052
 20
95.5
 30
0.0
 11
-20.208152801713059
 21
100.0
 31
0.0
  0
LINE
  5
11F2
  8
0
 62
     0
 10
-26.12236636408614
 20
95.5
 30
0.0
 11
-21.622366364086151
 21
100.0
 31
0.0
  0
LINE
  5
11F3
  8
0
 62
     0
 10
-27.536579926459229
 20
95.5
 30
0.0
 11
-23.03657992645924
 21
100.0
 31
0.0
  0
LINE
  5
11F4
  8
0
 62
     0
 10
-28.950793488832321
 20
95.5
 30
0.0
 11
-24.450793488832339
 21
100.0
 31
0.0
  0
LINE
  5
11F5
  8
0
 62
     0
 10
-29.717631521105059
 20
96.147375530100376
 30
0.0
 11
-25.865007051205438
 21
100.0
 31
0.0
  0
LINE
  5
11F6
  8
0
 62
     0
 10
-29.717631521105069
 20
97.561589092473454
 30
0.0
 11
-27.279220613578531
 21
100.0
 31
0.0
  0
LINE
  5
11F7
  8
0
 62
     0
 10
-34.607647738324708
 20
95.5
 30
0.0
 11
-34.017631521105059
 21
96.090016217219656
 31
0.0
  0
LINE
  5
11F8
  8
0
 62
     0
 10
-36.0218613006978
 20
95.5
 30
0.0
 11
-34.017631521105059
 21
97.504229779592734
 31
0.0
  0
LINE
  5
11F9
  8
0
 62
     0
 10
-36.867631521105061
 20
96.068443341965832
 30
0.0
 11
-34.601853192087987
 21
98.334221670982927
 31
0.0
  0
LINE
  5
11FA
  8
0
 62
     0
 10
-36.867631521105061
 20
97.482656904338938
 30
0.0
 11
-35.30895997327454
 21
99.041328452169466
 31
0.0
  0
LINE
  5
11FB
  8
0
 62
     0
 10
-36.867631521105061
 20
98.896870466712016
 30
0.0
 11
-36.016066754461058
 21
99.748435233356034
 31
0.0
  0
ENDBLK
  5
11FD
  8
0
  0
BLOCK
  8
0
  2
*X3
 70
     1
 10
0.0
 20
0.0
 30
0.0
  3
*X3
  1

  0
LINE
  5
11FF
  8
0
 62
     0
 10
32.188816817956933
 20
93.0
 30
0.0
 11
33.132368478894932
 21
93.943551660937999
 31
0.0
  0
LINE
  5
1200
  8
0
 62
     0
 10
30.774603255583841
 20
93.0
 30
0.0
 11
33.132368478894911
 21
95.357765223311077
 31
0.0
  0
LINE
  5
1201
  8
0
 62
     0
 10
29.360389693210742
 20
93.0
 30
0.0
 11
33.132368478894932
 21
96.771978785684183
 31
0.0
  0
LINE
  5
1202
  8
0
 62
     0
 10
28.338320735653959
 20
93.392144604816309
 30
0.0
 11
33.132368478894911
 21
98.186192348057304
 31
0.0
  0
LINE
  5
1203
  8
0
 62
     0
 10
28.132368478894929
 20
94.600405910430368
 30
0.0
 11
33.132368478894918
 21
99.600405910430368
 31
0.0
  0
LINE
  5
1204
  8
0
 62
     0
 10
27.617749006091451
 20
95.5
 30
0.0
 11
32.117749006091458
 21
100.0
 31
0.0
  0
LINE
  5
1205
  8
0
 62
     0
 10
26.203535443718359
 20
95.5
 30
0.0
 11
30.703535443718351
 21
100.0
 31
0.0
  0
LINE
  5
1206
  8
0
 62
     0
 10
24.789321881345259
 20
95.5
 30
0.0
 11
29.289321881345259
 21
100.0
 31
0.0
  0
LINE
  5
1207
  8
0
 62
     0
 10
23.37510831897217
 20
95.5
 30
0.0
 11
27.87510831897217
 21
100.0
 31
0.0
  0
LINE
  5
1208
  8
0
 62
     0
 10
21.960894756599071
 20
95.5
 30
0.0
 11
26.460894756599071
 21
100.0
 31
0.0
  0
LINE
  5
1209
  8
0
 62
     0
 10
20.546681194225979
 20
95.5
 30
0.0
 11
25.046681194225979
 21
100.0
 31
0.0
  0
LINE
  5
120A
  8
0
 62
     0
 10
20.282368478894909
 20
96.649900847042034
 30
0.0
 11
23.632467631852879
 21
100.0
 31
0.0
  0
LINE
  5
120B
  8
0
 62
     0
 10
14.88982694473359
 20
95.5
 30
0.0
 11
15.98236847889493
 21
96.592541534161327
 31
0.0
  0
LINE
  5
120C
  8
0
 62
     0
 10
13.4756133823605
 20
95.5
 30
0.0
 11
15.85399093062771
 21
97.87837754826721
 31
0.0
  0
LINE
  5
120D
  8
0
 62
     0
 10
13.132368478894939
 20
96.570968658907518
 30
0.0
 11
15.146884149441171
 21
98.585484329453763
 31
0.0
  0
LINE
  5
120E
  8
0
 62
     0
 10
13.13236847889492
 20
97.98518222128061
 30
0.0
 11
14.43977736825464
 21
99.292591110640302
 31
0.0
  0
LINE
  5
120F
  8
0
 62
     0
 10
13.13236847889493
 20
99.399395783653674
 30
0.0
 11
13.732972695241219
 21
100.0
 31
0.0
  0
ENDBLK
  5
1211
  8
0
  0
BLOCK
  8
0
  2
*X4
 70
     1
 10
0.0
 20
0.0
 30
0.0
  3
*X4
  1

  0
LINE
  5
1213
  8
0
 62
     0
 10
108.97056274847709
 20
92.000000000000014
 30
0.0
 11
109.4999999999999
 21
92.529437251522836
 31
0.0
  0
LINE
  5
1214
  8
0
 62
     0
 10
106.8492424049175
 20
92.000000000000014
 30
0.0
 11
109.4999999999999
 21
94.650757595082467
 31
0.0
  0
LINE
  5
1215
  8
0
 62
     0
 10
104.7279220613578
 20
92.000000000000014
 30
0.0
 11
109.4999999999999
 21
96.772077938642127
 31
0.0
  0
LINE
  5
1216
  8
0
 62
     0
 10
103.5051586535
 20
92.898556935701833
 30
0.0
 11
109.4999999999999
 21
98.893398282201758
 31
0.0
  0
LINE
  5
1217
  8
0
 62
     0
 10
102.9852813742385
 20
94.499999999999986
 30
0.0
 11
108.4852813742386
 21
100.0
 31
0.0
  0
LINE
  5
1218
  8
0
 62
     0
 10
100.86396103067889
 20
94.500000000000014
 30
0.0
 11
106.36396103067889
 21
100.0
 31
0.0
  0
LINE
  5
1219
  8
0
 62
     0
 10
98.742640687119305
 20
94.499999999999986
 30
0.0
 11
104.24264068711931
 21
100.0
 31
0.0
  0
LINE
  5
121A
  8
0
 62
     0
 10
96.621320343559645
 20
94.500000000000014
 30
0.0
 11
102.1213203435596
 21
100.0
 31
0.0
  0
LINE
  5
121B
  8
0
 62
     0
 10
95.149999999999977
 20
95.149999999999977
 30
0.0
 11
100.0
 21
100.0
 31
0.0
  0
LINE
  5
121C
  8
0
 62
     0
 10
97.699999999999989
 20
99.821320343559606
 30
0.0
 11
97.878679656440383
 21
100.0
 31
0.0
  0
LINE
  5
121D
  8
0
 62
     0
 10
88.136038969321106
 20
94.500000000000014
 30
0.0
 11
89.849999999999966
 21
96.213961030678888
 31
0.0
  0
LINE
  5
121E
  8
0
 62
     0
 10
86.500210529188692
 20
94.985491903427274
 30
0.0
 11
89.282359312880686
 21
97.767640687119254
 31
0.0
  0
LINE
  5
121F
  8
0
 62
     0
 10
86.499999999999986
 20
97.106601717798185
 30
0.0
 11
88.221699141100885
 21
98.828300858899084
 31
0.0
  0
LINE
  5
1220
  8
0
 62
     0
 10
86.5
 20
99.22792206135783
 30
0.0
 11
87.272077938642198
 21
100.0
 31
0.0
  0
ENDBLK
  5
1222
  8
0
  0
BLOCK
  8
0
  2
*X5
 70
     1
 10
0.0
 20
0.0
 30
0.0
  3
*X5
  1

  0
LINE
  5
1224
  8
0
 62
     0
 10
168.3675323681471
 20
92.0
 30
0.0
 11
169.5
 21
93.132467631852847
 31
0.0
  0
LINE
  5
1225
  8
0
 62
     0
 10
166.24621202458741
 20
92.000000000000014
 30
0.0
 11
169.49999999999989
 21
95.253787975412479
 31
0.0
  0
LINE
  5
1226
  8
0
 62
     0
 10
164.17811343810521
 20
92.053221757077381
 30
0.0
 11
169.5
 21
97.37510831897211
 31
0.0
  0
LINE
  5
1227
  8
0
 62
     0
 10
163.49999999999989
 20
93.496428662531756
 30
0.0
 11
169.5
 21
99.496428662531784
 31
0.0
  0
LINE
  5
1228
  8
0
 62
     0
 10
162.38225099390851
 20
94.499999999999986
 30
0.0
 11
167.88225099390851
 21
100.0
 31
0.0
  0
LINE
  5
1229
  8
0
 62
     0
 10
160.26093065034891
 20
94.500000000000014
 30
0.0
 11
165.76093065034891
 21
99.999999999999986
 31
0.0
  0
LINE
  5
122A
  8
0
 62
     0
 10
158.13961030678919
 20
94.499999999999986
 30
0.0
 11
163.63961030678919
 21
100.0
 31
0.0
  0
LINE
  5
122B
  8
0
 62
     0
 10
156.01828996322959
 20
94.499999999999986
 30
0.0
 11
161.51828996322959
 21
100.0
 31
0.0
  0
LINE
  5
122C
  8
0
 62
     0
 10
155.14999999999989
 20
95.753030380329974
 30
0.0
 11
159.39696961966999
 21
99.999999999999986
 31
0.0
  0
LINE
  5
122D
  8
0
 62
     0
 10
149.6543289325507
 20
94.500000000000014
 30
0.0
 11
149.84999999999991
 21
94.695671067449268
 31
0.0
  0
LINE
  5
122E
  8
0
 62
     0
 10
147.53300858899101
 20
94.500000000000014
 30
0.0
 11
149.84999999999991
 21
96.816991411008871
 31
0.0
  0
LINE
  5
122F
  8
0
 62
     0
 10
146.5
 20
95.588311754568565
 30
0.0
 11
148.98084412271569
 21
98.069155877284246
 31
0.0
  0
LINE
  5
1230
  8
0
 62
     0
 10
146.5
 20
97.709632098128196
 30
0.0
 11
147.92018395093581
 21
99.12981604906409
 31
0.0
  0
ENDBLK
  5
1232
  8
0
  0
ENDSEC
  0
SECTION
  2
ENTITIES
  0
LINE
  5
80
  8
0
 10
87.0
 20
100.0
 30
0.0
 11
109.4999999999999
 21
100.0
 31
0.0
1001
ACAD
1000
ASC_BOUNDS
1002
{
1070
    19
1005
FEA
1005
FEA
1002
}
  0
LINE
  5
81
  8
0
 10
119.0
 20
100.0
 30
0.0
 11
119.0
 21
119.0
 31
0.0
  0
LINE
  5
82
  8
0
 10
119.0
 20
119.0
 30
0.0
 11
122.07539645556869
 21
119.51256607592811
 31
0.0
  0
LINE
  5
83
  8
0
 10
125.0
 20
122.96494480934059
 30
0.0
 11
125.0
 21
128.0
 31
0.0
  0
LINE
  5
84
  8
0
 10
125.0
 20
128.0
 30
0.0
 11
94.0
 21
128.0
 31
0.0
  0
LINE
  5
85
  8
0
 10
94.0
 20
128.0
 30
0.0
 11
94.0
 21
122.96494480934059
 31
0.0
  0
LINE
  5
86
  8
0
 10
96.924603544431264
 20
119.51256607592811
 30
0.0
 11
100.0
 21
119.0
 31
0.0
  0
LINE
  5
87
  8
0
 10
100.0
 20
119.0
 30
0.0
 11
100.0
 21
100.0
 31
0.0
  0
ARC
  5
88
  8
0
 10
121.5
 20
122.96494480934059
 30
0.0
 40
3.5
 50
279.46232220802563
 51
0.0
  0
ARC
  5
89
  8
0
 10
97.5
 20
122.96494480934059
 30
0.0
 40
3.5
 50
180.0
 51
260.53767779197432
  0
ARC
  5
8A
  8
0
 10
109.4999999999999
 20
163.0
 30
0.0
 40
37.0
 50
251.07535558394869
 51
270.0
  0
LINE
  5
8B
  8
0
  6
CENTER
 10
109.4999999999999
 20
138.0
 30
0.0
 11
109.4999999999999
 21
81.0
 31
0.0
1001
ACAD
1000
ASC_BOUNDS
1002
{
1070
    19
1005
FEA
1002
}
  0
LINE
  5
8C
  8
0
  6
CONTINUOUS
 10
109.4999999999999
 20
125.5
 30
0.0
 11
125.0
 21
125.5
 31
0.0
  0
LINE
  5
8D
  8
0
  6
CONTINUOUS
 10
110.4999999999999
 20
125.5
 30
0.0
 11
110.4999999999999
 21
128.0
 31
0.0
  0
LINE
  5
8E
  8
0
  6
CONTINUOUS
 10
111.4999999999999
 20
128.0
 30
0.0
 11
111.4999999999999
 21
125.5
 31
0.0
  0
LINE
  5
8F
  8
0
  6
CONTINUOUS
 10
112.5
 20
125.5
 30
0.0
 11
112.5
 21
128.0
 31
0.0
  0
LINE
  5
90
  8
0
  6
CONTINUOUS
 10
113.5
 20
128.0
 30
0.0
 11
113.5
 21
125.5
 31
0.0
  0
LINE
  5
91
  8
0
  6
CONTINUOUS
 10
114.5
 20
125.5
 30
0.0
 11
114.5
 21
128.0
 31
0.0
  0
LINE
  5
92
  8
0
  6
CONTINUOUS
 10
115.5
 20
128.0
 30
0.0
 11
115.5
 21
125.5
 31
0.0
  0
LINE
  5
93
  8
0
  6
CONTINUOUS
 10
116.5
 20
125.5
 30
0.0
 11
116.5
 21
128.0
 31
0.0
  0
LINE
  5
94
  8
0
  6
CONTINUOUS
 10
117.5
 20
128.0
 30
0.0
 11
117.5
 21
125.5
 31
0.0
  0
LINE
  5
95
  8
0
  6
CONTINUOUS
 10
118.5
 20
128.0
 30
0.0
 11
118.5
 21
125.5
 31
0.0
  0
LINE
  5
96
  8
0
  6
CONTINUOUS
 10
119.5
 20
128.0
 30
0.0
 11
119.5
 21
125.5
 31
0.0
  0
LINE
  5
97
  8
0
  6
CONTINUOUS
 10
120.5
 20
128.0
 30
0.0
 11
120.5
 21
125.5
 31
0.0
  0
LINE
  5
98
  8
0
  6
CONTINUOUS
 10
121.5
 20
128.0
 30
0.0
 11
121.5
 21
125.5
 31
0.0
  0
LINE
  5
99
  8
0
  6
CONTINUOUS
 10
122.5
 20
128.0
 30
0.0
 11
122.5
 21
125.5
 31
0.0
  0
LINE
  5
9A
  8
0
  6
CONTINUOUS
 10
123.5
 20
128.0
 30
0.0
 11
123.5
 21
125.5
 31
0.0
  0
LINE
  5
9B
  8
0
  6
CONTINUOUS
 10
124.5
 20
128.0
 30
0.0
 11
124.5
 21
125.5
 31
0.0
  0
LINE
  5
9C
  8
0
  6
CONTINUOUS
 10
124.0
 20
125.5
 30
0.0
 11
124.0
 21
128.0
 31
0.0
  0
LINE
  5
9D
  8
0
  6
CONTINUOUS
 10
123.0
 20
128.0
 30
0.0
 11
123.0
 21
125.5
 31
0.0
  0
LINE
  5
9E
  8
0
  6
CONTINUOUS
 10
122.0
 20
125.5
 30
0.0
 11
122.0
 21
128.0
 31
0.0
  0
LINE
  5
9F
  8
0
  6
CONTINUOUS
 10
121.0
 20
128.0
 30
0.0
 11
121.0
 21
125.5
 31
0.0
  0
LINE
  5
A0
  8
0
  6
CONTINUOUS
 10
120.0
 20
125.5
 30
0.0
 11
120.0
 21
125.5
 31
0.0
  0
LINE
  5
A1
  8
0
  6
CONTINUOUS
 10
120.0
 20
125.5
 30
0.0
 11
120.0
 21
128.0
 31
0.0
  0
LINE
  5
A2
  8
0
  6
CONTINUOUS
 10
120.0
 20
128.0
 30
0.0
 11
119.0
 21
128.0
 31
0.0
  0
LINE
  5
A3
  8
0
  6
CONTINUOUS
 10
119.0
 20
128.0
 30
0.0
 11
119.0
 21
125.5
 31
0.0
  0
LINE
  5
A4
  8
0
  6
CONTINUOUS
 10
102.4999999999999
 20
119.0
 30
0.0
 11
102.4999999999999
 21
103.0
 31
0.0
  0
LINE
  5
A5
  8
0
  6
CONTINUOUS
 10
102.4999999999999
 20
100.0
 30
0.0
 11
102.4999999999999
 21
102.0
 31
0.0
  0
LINE
  5
A6
  8
0
  6
CONTINUOUS
 10
102.4999999999999
 20
119.0
 30
0.0
 11
109.4999999999999
 21
119.0
 31
0.0
  0
LINE
  5
A7
  8
0
  6
CONTINUOUS
 10
109.4999999999999
 20
102.0
 30
0.0
 11
102.0
 21
102.0
 31
0.0
  0
LINE
  5
A8
  8
0
  6
CONTINUOUS
 10
102.0
 20
102.0
 30
0.0
 11
102.0
 21
103.0
 31
0.0
  0
LINE
  5
A9
  8
0
  6
CONTINUOUS
 10
102.0
 20
103.0
 30
0.0
 11
109.4999999999999
 21
103.0
 31
0.0
  0
LINE
  5
AA
  8
0
  6
CONTINUOUS
 10
102.4999999999999
 20
103.0
 30
0.0
 11
102.4999999999999
 21
119.0
 31
0.0
  0
LINE
  5
AB
  8
0
  6
CONTINUOUS
 10
107.4999999999999
 20
119.0
 30
0.0
 11
107.4999999999999
 21
121.5
 31
0.0
  0
LINE
  5
AC
  8
0
  6
CONTINUOUS
 10
109.4999999999999
 20
121.5
 30
0.0
 11
105.4999999999999
 21
121.5
 31
0.0
  0
LINE
  5
AD
  8
0
  6
CONTINUOUS
 10
105.4999999999999
 20
121.5
 30
0.0
 11
105.4999999999999
 21
124.5
 31
0.0
  0
LINE
  5
AE
  8
0
  6
CONTINUOUS
 10
105.4999999999999
 20
124.5
 30
0.0
 11
109.4999999999999
 21
124.5
 31
0.0
  0
LINE
  5
AF
  8
0
  6
CONTINUOUS
 10
102.4999999999999
 20
102.0
 30
0.0
 11
102.4999999999999
 21
100.0
 31
0.0
  0
LINE
  5
B0
  8
0
 10
109.4999999999999
 20
100.0
 30
0.0
 11
132.0
 21
100.0
 31
0.0
  0
LINE
  5
B1
  8
0
  6
CONTINUOUS
 10
103.4999999999999
 20
100.0
 30
0.0
 11
103.4999999999999
 21
102.0
 31
0.0
  0
LINE
  5
B2
  8
0
  6
CONTINUOUS
 10
103.4999999999999
 20
104.0
 30
0.0
 11
103.4999999999999
 21
109.77561225510399
 31
0.0
  0
LINE
  5
B3
  8
0
  6
CONTINUOUS
 10
109.4999999999999
 20
118.0
 30
0.0
 11
102.4999999999999
 21
118.0
 31
0.0
  0
LINE
  5
B4
  8
0
  6
CONTINUOUS
 10
105.4999999999999
 20
92.0
 30
0.0
 11
105.4999999999999
 21
86.5
 31
0.0
  0
LINE
  5
B5
  8
0
  6
CONTINUOUS
 10
105.4999999999999
 20
86.5
 30
0.0
 11
106.4999999999999
 21
84.500000000000014
 31
0.0
  0
LINE
  5
B6
  8
0
  6
CONTINUOUS
 10
113.5
 20
92.0
 30
0.0
 11
113.5
 21
86.5
 31
0.0
  0
LINE
  5
B7
  8
0
  6
CONTINUOUS
 10
113.5
 20
86.5
 30
0.0
 11
112.5
 21
84.500000000000014
 31
0.0
  0
ARC
  5
B8
  8
0
  6
CONTINUOUS
 10
109.4999999999999
 20
93.250000000000014
 30
0.0
 40
9.25
 50
251.07535558394869
 51
288.92464441605119
  0
LINE
  5
B9
  8
0
  6
CONTINUOUS
 10
105.4999999999999
 20
86.5
 30
0.0
 11
113.5
 21
86.5
 31
0.0
  0
LINE
  5
BA
  8
0
  6
CONTINUOUS
 10
112.5
 20
84.500000000000014
 30
0.0
 11
106.4999999999999
 21
84.500000000000014
 31
0.0
  0
ARC
  5
BB
  8
0
  6
CONTINUOUS
 10
103.0
 20
117.5
 30
0.0
 40
0.5
 50
68.680997264227827
 51
249.229830840235
  0
ARC
  5
BC
  8
0
  6
CONTINUOUS
 10
103.0
 20
110.4999999999999
 30
0.0
 40
0.5
 50
68.680997264227827
 51
249.229830840235
  0
ARC
  5
BD
  8
0
  6
CONTINUOUS
 10
103.0
 20
103.4999999999999
 30
0.0
 40
0.5
 50
90.0
 51
270.0
  0
LINE
  5
BE
  8
0
  6
CONTINUOUS
 10
102.8226898996524
 20
117.0324947825801
 30
0.0
 11
109.4999999999999
 21
114.5
 31
0.0
  0
LINE
  5
BF
  8
0
  6
CONTINUOUS
 10
103.18178010774319
 20
117.9657853501655
 30
0.0
 11
109.4999999999999
 21
115.5
 31
0.0
  0
LINE
  5
C0
  8
0
  6
CONTINUOUS
 10
103.4999999999999
 20
117.8415949987946
 30
0.0
 11
103.4999999999999
 21
118.0
 31
0.0
  0
LINE
  5
C1
  8
0
  6
CONTINUOUS
 10
102.8226898996524
 20
110.0324947825802
 30
0.0
 11
109.4999999999999
 21
107.4999999999999
 31
0.0
  0
LINE
  5
C2
  8
0
  6
CONTINUOUS
 10
103.18178010774319
 20
110.9657853501655
 30
0.0
 11
109.4999999999999
 21
108.4999999999999
 31
0.0
  0
LINE
  5
C3
  8
0
  6
CONTINUOUS
 10
103.4999999999999
 20
110.8415949987946
 30
0.0
 11
103.4999999999999
 21
116.77561225510399
 31
0.0
  0
LINE
  5
C4
  8
0
  6
CONTINUOUS
 10
102.7
 20
110.89999999999991
 30
0.0
 11
103.4999999999999
 21
111.4999999999999
 31
0.0
  0
LINE
  5
C5
  8
0
  6
CONTINUOUS
 10
102.7
 20
103.90000000000001
 30
0.0
 11
103.4999999999999
 21
104.4999999999999
 31
0.0
  0
LINE
  5
C6
  8
0
  6
CONTINUOUS
 10
103.0
 20
104.0
 30
0.0
 11
109.4999999999999
 21
104.0
 31
0.0
  0
LINE
  5
C7
  8
0
  6
CONTINUOUS
 62
     0
 10
100.0
 20
111.3137084989847
 30
0.0
 11
102.4999999999999
 21
113.8137084989847
 31
0.0
  0
LINE
  5
C8
  8
0
  6
CONTINUOUS
 62
     0
 10
100.0
 20
114.14213562373089
 30
0.0
 11
102.4999999999999
 21
116.64213562373089
 31
0.0
  0
LINE
  5
C9
  8
0
  6
CONTINUOUS
 62
     0
 10
104.85786437626901
 20
119.0
 30
0.0
 11
107.35786437626901
 21
121.5
 31
0.0
  0
LINE
  5
CA
  8
0
  6
CONTINUOUS
 62
     0
 10
100.0
 20
116.97056274847709
 30
0.0
 11
105.4999999999999
 21
122.47056274847709
 31
0.0
  0
LINE
  5
CB
  8
0
  6
CONTINUOUS
 62
     0
 10
107.52943725152279
 20
124.5
 30
0.0
 11
109.03239219464869
 21
126.0029549431258
 31
0.0
  0
LINE
  5
CC
  8
0
  6
CONTINUOUS
 62
     0
 10
99.315151537237156
 20
119.11414141046041
 30
0.0
 11
106.33649799062241
 21
126.1354878638457
 31
0.0
  0
LINE
  5
CD
  8
0
  6
CONTINUOUS
 62
     0
 10
96.890930337583129
 20
119.5183473355526
 30
0.0
 11
103.812349996275
 21
126.43976699424449
 31
0.0
  0
LINE
  5
CE
  8
0
  6
CONTINUOUS
 62
     0
 10
95.029680792331064
 20
120.4855249150467
 30
0.0
 11
101.434042030426
 21
126.8898861531417
 31
0.0
  0
LINE
  5
CF
  8
0
  6
CONTINUOUS
 62
     0
 10
94.056166284440408
 20
122.3404375319023
 30
0.0
 11
99.18316686747724
 21
127.4674381149391
 31
0.0
  0
LINE
  5
D0
  8
0
  6
CONTINUOUS
 62
     0
 10
100.0
 20
108.4852813742385
 30
0.0
 11
102.4999999999999
 21
110.9852813742385
 31
0.0
  0
LINE
  5
D1
  8
0
  6
CONTINUOUS
 62
     0
 10
100.0
 20
105.6568542494923
 30
0.0
 11
102.4999999999999
 21
108.1568542494923
 31
0.0
  0
LINE
  5
D2
  8
0
  6
CONTINUOUS
 62
     0
 10
100.0
 20
102.8284271247462
 30
0.0
 11
102.4999999999999
 21
105.3284271247461
 31
0.0
  0
LINE
  5
D3
  8
0
  6
CONTINUOUS
 62
     0
 10
102.4999999999999
 20
112.46046148071041
 30
0.0
 11
100.0
 21
114.96046148071041
 31
0.0
  0
LINE
  5
D4
  8
0
  6
CONTINUOUS
 62
     0
 10
102.4999999999999
 20
109.63203435596419
 30
0.0
 11
100.0
 21
112.13203435596419
 31
0.0
  0
LINE
  5
D5
  8
0
  6
CONTINUOUS
 62
     0
 10
102.4999999999999
 20
106.803607231218
 30
0.0
 11
100.0
 21
109.303607231218
 31
0.0
  0
LINE
  5
D6
  8
0
  6
CONTINUOUS
 62
     0
 10
102.4999999999999
 20
103.9751801064718
 30
0.0
 11
100.0
 21
106.4751801064718
 31
0.0
  0
LINE
  5
D7
  8
0
  6
CONTINUOUS
 62
     0
 10
102.4999999999999
 20
101.1467529817256
 30
0.0
 11
100.0
 21
103.6467529817256
 31
0.0
  0
LINE
  5
D8
  8
0
  6
CONTINUOUS
 62
     0
 10
102.4999999999999
 20
115.28888860545661
 30
0.0
 11
100.0
 21
117.78888860545661
 31
0.0
  0
LINE
  5
D9
  8
0
  6
CONTINUOUS
 62
     0
 10
98.546666326547935
 20
119.2422222789086
 30
0.0
 11
94.000000000000014
 21
123.78888860545661
 31
0.0
  0
LINE
  5
DA
  8
0
  6
CONTINUOUS
 62
     0
 10
102.4999999999999
 20
118.1173157302028
 30
0.0
 11
94.000000000000014
 21
126.6173157302028
 31
0.0
  0
LINE
  5
DB
  8
0
  6
CONTINUOUS
 62
     0
 10
107.2741699796952
 20
119.0
 30
0.0
 11
98.646496057817856
 21
127.6276739218773
 31
0.0
  0
LINE
  5
DC
  8
0
  6
CONTINUOUS
 62
     0
 10
105.4999999999999
 20
123.6025971044413
 30
0.0
 11
102.4186292073074
 21
126.6839678971338
 31
0.0
  0
LINE
  5
DD
  8
0
  6
CONTINUOUS
 62
     0
 10
107.4310242291875
 20
124.5
 30
0.0
 11
105.73942058767631
 21
126.19160364151119
 31
0.0
  0
LINE
  5
DE
  8
0
  6
CONTINUOUS
 10
94.0
 20
125.5
 30
0.0
 11
96.5
 21
128.0
 31
0.0
  0
LINE
  5
DF
  8
0
  6
CONTINUOUS
 10
95.5
 20
128.0
 30
0.0
 11
104.4999999999999
 21
119.0
 31
0.0
  0
LINE
  5
E0
  8
0
  6
CONTINUOUS
 10
100.0
 20
100.5
 30
0.0
 11
102.0
 21
102.4999999999999
 31
0.0
  0
LINE
  5
E1
  8
0
  6
CONTINUOUS
 10
100.5
 20
100.0
 30
0.0
 11
100.0
 21
100.5
 31
0.0
  0
LINE
  5
E2
  8
0
  6
CONTINUOUS
 10
-36.617631521105061
 20
100.0
 30
0.0
 11
2.8823684788949322
 21
100.0
 31
0.0
1001
ACAD
1000
ASC_BOUNDS
1002
{
1070
    19
1005
FC6
1005
FC6
1005
CA7
1002
}
  0
LINE
  5
E3
  8
0
  6
CONTINUOUS
 10
-8.3676315211050678
 20
100.0
 30
0.0
 11
-8.3676315211050678
 21
115.0
 31
0.0
  0
LINE
  5
E4
  8
0
  6
CONTINUOUS
 10
-8.3676315211050678
 20
115.0
 30
0.0
 11
-5.5426341710971201
 21
116.765623343755
 31
0.0
  0
LINE
  5
E5
  8
0
  6
CONTINUOUS
 10
-4.3676315211050669
 20
118.8856191037677
 30
0.0
 11
-4.3676315211050669
 21
124.0
 31
0.0
  0
LINE
  5
E6
  8
0
  6
CONTINUOUS
 10
-4.3676315211050669
 20
124.0
 30
0.0
 11
-29.367631521105061
 21
124.0
 31
0.0
1001
ACAD
1000
ASC_BOUNDS
1002
{
1070
    19
1005
CA7
1002
}
  0
LINE
  5
E7
  8
0
  6
CONTINUOUS
 10
-29.367631521105061
 20
124.0
 30
0.0
 11
-29.367631521105061
 21
118.8856191037676
 31
0.0
1001
ACAD
1000
ASC_BOUNDS
1002
{
1070
    19
1005
CA7
1002
}
  0
LINE
  5
E8
  8
0
  6
CONTINUOUS
 10
-28.192628871113008
 20
116.7656233437549
 30
0.0
 11
-25.367631521105061
 21
115.0
 31
0.0
1001
ACAD
1000
ASC_BOUNDS
1002
{
1070
    19
1005
CA7
1002
}
  0
LINE
  5
E9
  8
0
  6
CONTINUOUS
 10
-25.367631521105061
 20
115.0
 30
0.0
 11
-25.367631521105061
 21
100.0
 31
0.0
1001
ACAD
1000
ASC_BOUNDS
1002
{
1070
    19
1005
CA7
1002
}
  0
LINE
  5
EA
  8
0
  6
CENTER
 10
-16.867631521105061
 20
84.0
 30
0.0
 11
-16.867631521105061
 21
132.0
 31
0.0
1001
ACAD
1000
ASC_BOUNDS
1002
{
1070
    19
1005
FC6
1005
CA7
1002
}
  0
ARC
  5
EB
  8
0
  6
CONTINUOUS
 10
-6.8676315211050669
 20
118.8856191037677
 30
0.0
 40
2.5
 50
302.00538320808357
 51
0.0
  0
ARC
  5
EC
  8
0
  6
CONTINUOUS
 10
-26.867631521105061
 20
118.8856191037676
 30
0.0
 40
2.5
 50
180.0
 51
237.99461679191629
1001
ACAD
1000
ASC_BOUNDS
1002
{
1070
    19
1005
CA7
1002
}
  0
LINE
  5
ED
  8
0
  6
CONTINUOUS
 10
-4.3676315211050669
 20
121.5
 30
0.0
 11
-16.867631521105061
 21
121.5
 31
0.0
  0
LINE
  5
EE
  8
0
  6
CONTINUOUS
 10
-15.867631521105061
 20
121.5
 30
0.0
 11
-15.867631521105061
 21
124.0
 31
0.0
  0
LINE
  5
EF
  8
0
  6
CONTINUOUS
 10
-14.867631521105061
 20
121.5
 30
0.0
 11
-14.867631521105061
 21
124.0
 31
0.0
  0
LINE
  5
F0
  8
0
  6
CONTINUOUS
 10
-13.867631521105061
 20
121.5
 30
0.0
 11
-13.867631521105061
 21
124.0
 31
0.0
  0
LINE
  5
F1
  8
0
  6
CONTINUOUS
 10
-12.867631521105061
 20
121.5
 30
0.0
 11
-12.867631521105061
 21
124.0
 31
0.0
  0
LINE
  5
F2
  8
0
  6
CONTINUOUS
 10
-11.867631521105061
 20
121.5
 30
0.0
 11
-11.867631521105061
 21
124.0
 31
0.0
  0
LINE
  5
F3
  8
0
  6
CONTINUOUS
 10
-10.867631521105061
 20
121.5
 30
0.0
 11
-10.867631521105061
 21
124.0
 31
0.0
  0
LINE
  5
F4
  8
0
  6
CONTINUOUS
 10
-9.8676315211050678
 20
121.5
 30
0.0
 11
-9.8676315211050678
 21
124.0
 31
0.0
  0
LINE
  5
F5
  8
0
  6
CONTINUOUS
 10
-8.8676315211050678
 20
121.5
 30
0.0
 11
-8.8676315211050678
 21
124.0
 31
0.0
  0
LINE
  5
F6
  8
0
  6
CONTINUOUS
 10
-7.8676315211050669
 20
121.5
 30
0.0
 11
-7.8676315211050669
 21
124.0
 31
0.0
  0
LINE
  5
F7
  8
0
  6
CONTINUOUS
 10
-6.8676315211050669
 20
121.5
 30
0.0
 11
-6.8676315211050669
 21
124.0
 31
0.0
  0
LINE
  5
F8
  8
0
  6
CONTINUOUS
 10
-5.8676315211050669
 20
121.5
 30
0.0
 11
-5.8676315211050669
 21
124.0
 31
0.0
  0
LINE
  5
F9
  8
0
  6
CONTINUOUS
 10
-4.8676315211050669
 20
121.5
 30
0.0
 11
-4.8676315211050669
 21
124.0
 31
0.0
  0
LINE
  5
FA
  8
0
  6
CONTINUOUS
 10
-5.3676315211050669
 20
121.5
 30
0.0
 11
-5.3676315211050669
 21
124.0
 31
0.0
  0
LINE
  5
FB
  8
0
  6
CONTINUOUS
 10
-6.3676315211050669
 20
121.5
 30
0.0
 11
-6.3676315211050669
 21
124.0
 31
0.0
  0
LINE
  5
FC
  8
0
  6
CONTINUOUS
 10
-7.3676315211050669
 20
121.5
 30
0.0
 11
-7.3676315211050669
 21
124.0
 31
0.0
  0
LINE
  5
FD
  8
0
  6
CONTINUOUS
 10
-8.3676315211050678
 20
121.5
 30
0.0
 11
-8.3676315211050678
 21
124.0
 31
0.0
  0
LINE
  5
FE
  8
0
  6
CONTINUOUS
 10
-9.3676315211050678
 20
121.5
 30
0.0
 11
-9.3676315211050678
 21
124.0
 31
0.0
  0
LINE
  5
FF
  8
0
  6
CONTINUOUS
 10
-10.367631521105061
 20
121.5
 30
0.0
 11
-10.367631521105061
 21
124.0
 31
0.0
  0
LINE
  5
101
  8
0
  6
CONTINUOUS
 10
-22.867631521105061
 20
100.0
 30
0.0
 11
-22.867631521105061
 21
101.0
 31
0.0
1001
ACAD
1000
ASC_BOUNDS
1002
{
1070
    19
1005
CA7
1002
}
  0
LINE
  5
102
  8
0
  6
CONTINUOUS
 10
-22.867631521105061
 20
115.0
 30
0.0
 11
-16.867631521105061
 21
115.0
 31
0.0
1001
ACAD
1000
ASC_BOUNDS
1002
{
1070
    19
1005
CA7
1002
}
  0
LINE
  5
103
  8
0
  6
CONTINUOUS
 10
-17.867631521105061
 20
115.0
 30
0.0
 11
-17.867631521105061
 21
116.5
 31
0.0
1001
ACAD
1000
ASC_BOUNDS
1002
{
1070
    19
1005
CA7
1002
}
  0
LINE
  5
104
  8
0
  6
CONTINUOUS
 10
-16.867631521105061
 20
116.5
 30
0.0
 11
-19.867631521105061
 21
116.5
 31
0.0
1001
ACAD
1000
ASC_BOUNDS
1002
{
1070
    19
1005
CA7
1002
}
  0
LINE
  5
105
  8
0
  6
CONTINUOUS
 10
-19.867631521105061
 20
116.5
 30
0.0
 11
-19.867631521105061
 21
118.5
 31
0.0
1001
ACAD
1000
ASC_BOUNDS
1002
{
1070
    19
1005
CA7
1002
}
  0
LINE
  5
106
  8
0
  6
CONTINUOUS
 10
-16.867631521105061
 20
101.0
 30
0.0
 11
-23.367631521105061
 21
101.0
 31
0.0
1001
ACAD
1000
ASC_BOUNDS
1002
{
1070
    19
1005
CA7
1002
}
  0
LINE
  5
107
  8
0
  6
CONTINUOUS
 10
-23.367631521105061
 20
101.0
 30
0.0
 11
-23.367631521105061
 21
102.0
 31
0.0
1001
ACAD
1000
ASC_BOUNDS
1002
{
1070
    19
1005
CA7
1002
}
  0
LINE
  5
108
  8
0
  6
CONTINUOUS
 10
-22.867631521105061
 20
102.0
 30
0.0
 11
-22.867631521105061
 21
115.0
 31
0.0
1001
ACAD
1000
ASC_BOUNDS
1002
{
1070
    19
1005
CA7
1002
}
  0
LINE
  5
109
  8
0
  6
CONTINUOUS
 10
-23.367631521105061
 20
102.0
 30
0.0
 11
-16.867631521105061
 21
102.0
 31
0.0
1001
ACAD
1000
ASC_BOUNDS
1002
{
1070
    19
1005
CA7
1002
}
  0
LINE
  5
10A
  8
0
  6
CONTINUOUS
 10
-19.867631521105061
 20
93.0
 30
0.0
 11
-19.867631521105061
 21
90.0
 31
0.0
  0
LINE
  5
10B
  8
0
  6
CONTINUOUS
 10
-22.867631521105061
 20
114.0
 30
0.0
 11
-16.867631521105061
 21
114.0
 31
0.0
  0
LINE
  5
10C
  8
0
  6
CONTINUOUS
 10
-21.867631521105061
 20
114.0
 30
0.0
 11
-21.867631521105061
 21
113.819245991237
 31
0.0
  0
ARC
  5
10D
  8
0
  6
CONTINUOUS
 10
-22.367631521105061
 20
113.5
 30
0.0
 40
0.5
 50
65.115809913695742
 51
245.96710956430019
  0
ARC
  5
10E
  8
0
  6
CONTINUOUS
 10
-22.367631521105061
 20
108.4999999999999
 30
0.0
 40
0.5
 50
65.115809913698001
 51
245.9671095643009
  0
ARC
  5
10F
  8
0
  6
CONTINUOUS
 10
-22.367631521105061
 20
102.4999999999999
 30
0.0
 40
0.5
 50
90.0
 51
270.0
  0
LINE
  5
110
  8
0
  6
CONTINUOUS
 10
-22.367631521105061
 20
103.0
 30
0.0
 11
-16.867631521105061
 21
103.0
 31
0.0
  0
LINE
  5
111
  8
0
  6
CONTINUOUS
 10
-22.667631521105069
 20
102.90000000000001
 30
0.0
 11
-21.867631521105061
 21
103.4999999999999
 31
0.0
  0
LINE
  5
112
  8
0
  6
CONTINUOUS
 10
119.0
 20
119.0
 30
0.0
 11
109.4999999999999
 21
119.0
 31
0.0
  0
LINE
  5
113
  8
0
  6
CONTINUOUS
 10
125.0
 20
123.0
 30
0.0
 11
109.4999999999999
 21
123.0
 31
0.0
  0
LINE
  5
114
  8
0
  6
CONTINUOUS
 10
-8.3676315211050678
 20
115.0
 30
0.0
 11
-16.867631521105061
 21
115.0
 31
0.0
  0
LINE
  5
115
  8
0
  6
CONTINUOUS
 10
-4.3676315211050669
 20
119.0
 30
0.0
 11
-16.867631521105061
 21
119.0
 31
0.0
  0
LINE
  5
116
  8
0
  6
CONTINUOUS
 10
-22.667631521105069
 20
108.90000000000001
 30
0.0
 11
-21.867631521105061
 21
109.4999999999999
 31
0.0
  0
LINE
  5
117
  8
0
  6
CONTINUOUS
 10
-22.157238765051201
 20
113.9535800791481
 30
0.0
 11
-16.867631521105061
 21
111.4999999999999
 31
0.0
  0
LINE
  5
118
  8
0
  6
CONTINUOUS
 10
-22.571262017859141
 20
113.0433440892841
 30
0.0
 11
-16.867631521105061
 21
110.4999999999999
 31
0.0
  0
LINE
  5
119
  8
0
  6
CONTINUOUS
 10
-22.157238765051201
 20
108.9535800791481
 30
0.0
 11
-16.867631521105061
 21
106.4999999999999
 31
0.0
  0
LINE
  5
11A
  8
0
  6
CONTINUOUS
 10
-22.571262017859141
 20
108.0433440892841
 30
0.0
 11
-16.867631521105061
 21
105.4999999999999
 31
0.0
  0
LINE
  5
11B
  8
0
  6
CONTINUOUS
 10
-21.867631521105061
 20
112.7295835001334
 30
0.0
 11
-21.867631521105061
 21
108.819245991237
 31
0.0
  0
LINE
  5
11C
  8
0
  6
CONTINUOUS
 10
-21.867631521105089
 20
107.7295835001334
 30
0.0
 11
-21.867631521105061
 21
103.0
 31
0.0
  0
LINE
  5
11D
  8
0
  6
CONTINUOUS
 10
-19.867631521105061
 20
90.0
 30
0.0
 11
-19.367631521105061
 21
88.0
 31
0.0
  0
LINE
  5
11E
  8
0
  6
CONTINUOUS
 10
-19.367631521105061
 20
88.0
 30
0.0
 11
-14.367631521105061
 21
88.0
 31
0.0
  0
LINE
  5
11F
  8
0
  6
CONTINUOUS
 10
-19.867631521105061
 20
90.0
 30
0.0
 11
-13.867631521105061
 21
90.0
 31
0.0
  0
ARC
  5
120
  8
0
  6
CONTINUOUS
 10
-16.867631521105061
 20
90.625
 30
0.0
 40
3.625
 50
226.39718102729631
 51
313.60281897270357
  0
LINE
  5
138
  8
0
  6
CONTINUOUS
 10
-23.367631521105061
 20
100.0
 30
0.0
 11
-22.867631521105061
 21
100.5
 31
0.0
1001
ACAD
1000
ASC_BOUNDS
1002
{
1070
    19
1005
CA7
1002
}
  0
LINE
  5
139
  8
0
  6
DASHED
 10
-4.3676315211050669
 20
124.0
 30
0.0
 11
-4.3676315211050669
 21
129.0
 31
0.0
  0
LINE
  5
13A
  8
0
  6
DASHED
 10
-4.3676315211050669
 20
129.0
 30
0.0
 11
-29.367631521105061
 21
129.0
 31
0.0
  0
LINE
  5
13B
  8
0
  6
DASHED
 10
-29.367631521105061
 20
129.0
 30
0.0
 11
-29.367631521105061
 21
124.0
 31
0.0
  0
LINE
  5
13C
  8
0
  6
DASHED
 10
94.0
 20
128.0
 30
0.0
 11
94.0
 21
135.0
 31
0.0
  0
LINE
  5
13D
  8
0
  6
DASHED
 10
94.0
 20
135.0
 30
0.0
 11
125.0
 21
135.0
 31
0.0
  0
LINE
  5
13E
  8
0
  6
DASHED
 10
125.0
 20
135.0
 30
0.0
 11
125.0
 21
128.0
 31
0.0
  0
LINE
  5
13F
  8
0
  6
CONTINUOUS
 10
-22.367631521105061
 20
100.0
 30
0.0
 11
-22.367631521105061
 21
101.0
 31
0.0
  0
LINE
  5
140
  8
0
  6
CONTINUOUS
 10
-16.867631521105061
 20
118.5
 30
0.0
 11
-19.867631521105061
 21
118.5
 31
0.0
1001
ACAD
1000
ASC_BOUNDS
1002
{
1070
    19
1005
CA7
1002
}
  0
LINE
  5
142
  8
0
  6
CONTINUOUS
 10
86.5
 20
99.500000000000014
 30
0.0
 11
86.5
 21
95.0
 31
0.0
1001
ACAD
1000
ASC_BOUNDS
1002
{
1070
    19
1005
FEA
1002
}
  0
LINE
  5
143
  8
0
  6
CONTINUOUS
 10
87.0
 20
94.500000000000014
 30
0.0
 11
103.4999999999999
 21
94.500000000000014
 31
0.0
1001
ACAD
1000
ASC_BOUNDS
1002
{
1070
    19
1005
FEA
1005
FEA
1002
}
  0
LINE
  5
144
  8
0
  6
CONTINUOUS
 10
103.4999999999999
 20
94.500000000000014
 30
0.0
 11
103.4999999999999
 21
93.0
 31
0.0
1001
ACAD
1000
ASC_BOUNDS
1002
{
1070
    19
1005
FEA
1002
}
  0
LINE
  5
145
  8
0
  6
CONTINUOUS
 10
104.4999999999999
 20
92.0
 30
0.0
 11
114.5
 21
92.0
 31
0.0
1001
ACAD
1000
ASC_BOUNDS
1002
{
1070
    19
1005
FEA
1002
}
  0
LINE
  5
146
  8
0
  6
CONTINUOUS
 10
115.5
 20
93.0
 30
0.0
 11
115.5
 21
94.500000000000014
 31
0.0
  0
ARC
  5
14B
  8
0
  6
CONTINUOUS
 10
114.5
 20
93.0
 30
0.0
 40
1.0
 50
270.0
 51
0.0
  0
ARC
  5
14C
  8
0
  6
CONTINUOUS
 10
104.4999999999999
 20
93.0
 30
0.0
 40
1.0
 50
180.0
 51
270.0
1001
ACAD
1000
ASC_BOUNDS
1002
{
1070
    19
1005
FEA
1002
}
  0
LINE
  5
14D
  8
0
  6
CONTINUOUS
 10
89.849999999999994
 20
94.500000000000014
 30
0.0
 11
89.849999999999966
 21
97.200000000000045
 31
0.0
1001
ACAD
1000
ASC_BOUNDS
1002
{
1070
    19
1005
FEA
1002
}
  0
LINE
  5
14E
  8
0
  6
CONTINUOUS
 10
95.150000000000006
 20
94.500000000000014
 30
0.0
 11
95.150000000000006
 21
97.199999999999974
 31
0.0
1001
ACAD
1000
ASC_BOUNDS
1002
{
1070
    19
1005
FEA
1002
}
  0
LINE
  5
15B
  8
0
  6
CENTER
 10
92.5
 20
91.5
 30
0.0
 11
92.5
 21
103.0
 31
0.0
  0
CIRCLE
  5
15C
  8
0
  6
CONTINUOUS
 10
109.4999999999999
 20
40.0
 30
0.0
 40
15.5
  0
CIRCLE
  5
15D
  8
0
  6
CONTINUOUS
 10
109.4999999999999
 20
40.0
 30
0.0
 40
15.5
  0
CIRCLE
  5
15E
  8
0
  6
CONTINUOUS
 10
109.4999999999999
 20
40.0
 30
0.0
 40
12.0
  0
LINE
  5
15F
  8
0
  6
CONTINUOUS
 10
109.4999999999999
 20
94.500000000000014
 30
0.0
 11
132.0
 21
94.500000000000014
 31
0.0
  0
LINE
  5
160
  8
0
  6
CONTINUOUS
 10
126.5
 20
50.0
 30
0.0
 11
121.342719282327
 21
50.0
 31
0.0
  0
LINE
  5
161
  8
0
  6
CONTINUOUS
 10
86.5
 20
43.999999999999993
 30
0.0
 11
86.5
 21
36.0
 31
0.0
  0
LINE
  5
162
  8
0
  6
CONTINUOUS
 10
92.5
 20
30.0
 30
0.0
 11
97.657280717672975
 21
30.0
 31
0.0
  0
LINE
  5
163
  8
0
  6
CONTINUOUS
 10
132.49999999999989
 20
36.0
 30
0.0
 11
132.49999999999989
 21
43.999999999999993
 31
0.0
  0
LINE
  5
164
  8
0
  6
CONTINUOUS
 10
97.657280717672975
 20
50.0
 30
0.0
 11
92.5
 21
50.0
 31
0.0
  0
LINE
  5
165
  8
0
  6
CONTINUOUS
 10
121.342719282327
 20
30.0
 30
0.0
 11
126.5
 21
30.0
 31
0.0
  0
ARC
  5
166
  8
0
  6
CONTINUOUS
 10
92.5
 20
43.999999999999993
 30
0.0
 40
6.0
 50
90.0
 51
180.0
  0
ARC
  5
167
  8
0
  6
CONTINUOUS
 10
92.5
 20
36.0
 30
0.0
 40
6.0
 50
180.0
 51
270.0
  0
ARC
  5
168
  8
0
  6
CONTINUOUS
 10
126.5
 20
36.0
 30
0.0
 40
6.0
 50
270.0
 51
0.0
  0
ARC
  5
169
  8
0
  6
CONTINUOUS
 10
126.5
 20
43.999999999999993
 30
0.0
 40
6.0
 50
0.0
 51
90.0
  0
LINE
  5
16E
  8
0
  6
CENTER
 10
83.499999999999986
 20
40.0
 30
0.0
 11
135.49999999999989
 21
40.0
 31
0.0
  0
LINE
  5
16F
  8
0
  6
CENTER
 10
126.5
 20
48.0
 30
0.0
 11
126.5
 21
32.0
 31
0.0
  0
LINE
  5
170
  8
0
  6
CENTER
 10
109.4999999999999
 20
21.499999999999989
 30
0.0
 11
109.4999999999999
 21
58.5
 31
0.0
  0
LINE
  5
171
  8
0
  6
CENTER
 10
92.5
 20
32.0
 30
0.0
 11
92.5
 21
48.0
 31
0.0
  0
LINE
  5
173
  8
0
  6
CONTINUOUS
 10
2.8823684788949322
 20
95.5
 30
0.0
 11
-16.867631521105061
 21
95.5
 31
0.0
  0
LINE
  5
174
  8
0
  6
CONTINUOUS
 10
-36.867631521105061
 20
95.750000000000014
 30
0.0
 11
-36.867631521105061
 21
99.750000000000014
 31
0.0
1001
ACAD
1000
ASC_BOUNDS
1002
{
1070
    19
1005
FC6
1002
}
  0
LINE
  5
175
  8
0
  6
CONTINUOUS
 10
-21.867631521105061
 20
95.5
 30
0.0
 11
-21.867631521105061
 21
94.0
 31
0.0
1001
ACAD
1000
ASC_BOUNDS
1002
{
1070
    19
1005
FC6
1002
}
  0
LINE
  5
176
  8
0
  6
CONTINUOUS
 10
-20.867631521105061
 20
93.0
 30
0.0
 11
-12.867631521105061
 21
93.0
 31
0.0
1001
ACAD
1000
ASC_BOUNDS
1002
{
1070
    19
1005
FC6
1002
}
  0
LINE
  5
177
  8
0
  6
CONTINUOUS
 10
-11.867631521105061
 20
94.0
 30
0.0
 11
-11.867631521105061
 21
95.5
 31
0.0
  0
LINE
  5
178
  8
0
  6
CONTINUOUS
 10
-14.367631521105061
 20
88.0
 30
0.0
 11
-13.867631521105061
 21
90.0
 31
0.0
  0
LINE
  5
179
  8
0
  6
CONTINUOUS
 10
-13.867631521105061
 20
90.0
 30
0.0
 11
-13.867631521105061
 21
93.0
 31
0.0
  0
LINE
  5
17A
  8
0
  6
CONTINUOUS
 10
-21.867631521105061
 20
95.5
 30
0.0
 11
-36.617631521105061
 21
95.5
 31
0.0
1001
ACAD
1000
ASC_BOUNDS
1002
{
1070
    19
1005
FC6
1005
FC6
1002
}
  0
ARC
  5
17D
  8
0
  6
CONTINUOUS
 10
-20.867631521105061
 20
94.0
 30
0.0
 40
1.0
 50
180.0
 51
270.0
1001
ACAD
1000
ASC_BOUNDS
1002
{
1070
    19
1005
FC6
1002
}
  0
ARC
  5
17E
  8
0
  6
CONTINUOUS
 10
-12.867631521105061
 20
94.0
 30
0.0
 40
1.0
 50
270.0
 51
0.0
  0
LINE
  5
181
  8
0
  6
CONTINUOUS
 10
-34.017631521105059
 20
95.5
 30
0.0
 11
-34.017631521105059
 21
97.75
 31
0.0
1001
ACAD
1000
ASC_BOUNDS
1002
{
1070
    19
1005
FC6
1002
}
  0
LINE
  5
182
  8
0
  6
CONTINUOUS
 10
-29.717631521105059
 20
95.5
 30
0.0
 11
-29.717631521105059
 21
97.75
 31
0.0
1001
ACAD
1000
ASC_BOUNDS
1002
{
1070
    19
1005
FC6
1002
}
  0
LINE
  5
188
  8
0
  6
CONTINUOUS
 10
-29.717631521105059
 20
97.75
 30
0.0
 11
-34.017631521105059
 21
97.75
 31
0.0
  0
LINE
  5
189
  8
0
  6
CENTER
 10
-31.867631521105061
 20
92.5
 30
0.0
 11
-31.867631521105061
 21
103.0
 31
0.0
  0
CIRCLE
  5
18F
  8
0
  6
CONTINUOUS
 10
-16.867631521105061
 20
40.0
 30
0.0
 40
12.5
  0
CIRCLE
  5
190
  8
0
  6
CONTINUOUS
 10
-16.867631521105061
 20
40.0
 30
0.0
 40
12.5
  0
LINE
  5
192
  8
0
  6
CONTINUOUS
 10
-36.867631521105061
 20
44.0
 30
0.0
 11
-36.867631521105061
 21
36.0
 31
0.0
  0
LINE
  5
193
  8
0
  6
CONTINUOUS
 10
-31.867631521105061
 20
31.0
 30
0.0
 11
-25.542307307553809
 21
31.0
 31
0.0
  0
LINE
  5
194
  8
0
  6
CONTINUOUS
 10
3.1323684788949322
 20
36.0
 30
0.0
 11
3.1323684788949322
 21
44.0
 31
0.0
  0
LINE
  5
195
  8
0
  6
CONTINUOUS
 10
-1.8676315211050669
 20
49.0
 30
0.0
 11
-8.1929557346563229
 21
49.0
 31
0.0
  0
LINE
  5
196
  8
0
  6
CONTINUOUS
 10
-25.542307307553809
 20
49.0
 30
0.0
 11
-31.867631521105061
 21
49.0
 31
0.0
  0
LINE
  5
197
  8
0
  6
CONTINUOUS
 10
-8.1929557346563229
 20
31.0
 30
0.0
 11
-1.8676315211050669
 21
31.0
 31
0.0
  0
ARC
  5
198
  8
0
  6
CONTINUOUS
 10
-1.8676315211050669
 20
36.0
 30
0.0
 40
5.0
 50
270.0
 51
0.0
  0
ARC
  5
199
  8
0
  6
CONTINUOUS
 10
-1.8676315211050669
 20
44.0
 30
0.0
 40
5.0
 50
0.0
 51
90.0
  0
ARC
  5
19A
  8
0
  6
CONTINUOUS
 10
-31.867631521105061
 20
44.0
 30
0.0
 40
5.0
 50
90.0
 51
180.0
  0
ARC
  5
19B
  8
0
  6
CONTINUOUS
 10
-31.867631521105061
 20
36.0
 30
0.0
 40
5.0
 50
180.0
 51
270.0
  0
LINE
  5
1A0
  8
0
  6
CENTER
 10
6.1323684788949322
 20
40.0
 30
0.0
 11
-39.867631521105068
 21
40.0
 31
0.0
  0
LINE
  5
1A1
  8
0
  6
CENTER
 10
-16.867631521105061
 20
24.5
 30
0.0
 11
-16.867631521105061
 21
55.5
 31
0.0
  0
LINE
  5
1A2
  8
0
  6
CENTER
 10
-1.8676315211050669
 20
33.0
 30
0.0
 11
-1.8676315211050669
 21
47.0
 31
0.0
  0
LINE
  5
1A3
  8
0
  6
CENTER
 10
-31.867631521105061
 20
47.0
 30
0.0
 11
-31.867631521105061
 21
33.0
 31
0.0
  0
LINE
  5
240
  8
0
  6
CENTER
 10
169.5
 20
21.499999999999989
 30
0.0
 11
169.5
 21
58.5
 31
0.0
  0
LINE
  5
241
  8
0
  6
CENTER
 10
143.5
 20
40.0
 30
0.0
 11
195.5
 21
40.0
 31
0.0
  0
CIRCLE
  5
242
  8
0
  6
CONTINUOUS
 10
169.5
 20
40.0
 30
0.0
 40
12.0
  0
CIRCLE
  5
243
  8
0
  6
CONTINUOUS
 10
169.5
 20
40.0
 30
0.0
 40
15.5
  0
CIRCLE
  5
244
  8
0
  6
CONTINUOUS
 10
169.5
 20
40.0
 30
0.0
 40
15.5
  0
LINE
  5
245
  8
0
  6
CENTER
 10
152.5
 20
32.0
 30
0.0
 11
152.5
 21
48.0
 31
0.0
  0
ARC
  5
246
  8
0
  6
CONTINUOUS
 10
152.5
 20
36.0
 30
0.0
 40
6.0
 50
180.0
 51
270.0
  0
LINE
  5
247
  8
0
  6
CONTINUOUS
 10
152.5
 20
30.0
 30
0.0
 11
157.6572807176729
 21
30.0
 31
0.0
  0
LINE
  5
249
  8
0
  6
CONTINUOUS
 10
157.6572807176729
 20
50.0
 30
0.0
 11
152.5
 21
50.0
 31
0.0
  0
ARC
  5
24A
  8
0
  6
CONTINUOUS
 10
152.5
 20
43.999999999999993
 30
0.0
 40
6.0
 50
90.0
 51
180.0
  0
LINE
  5
24B
  8
0
  6
CONTINUOUS
 10
146.5
 20
43.999999999999993
 30
0.0
 11
146.5
 21
36.0
 31
0.0
  0
LINE
  5
24D
  8
0
  6
CENTER
 10
186.5
 20
48.0
 30
0.0
 11
186.5
 21
32.0
 31
0.0
  0
ARC
  5
24E
  8
0
  6
CONTINUOUS
 10
186.5
 20
36.0
 30
0.0
 40
6.0
 50
270.0
 51
0.0
  0
LINE
  5
24F
  8
0
  6
CONTINUOUS
 10
181.34271928232701
 20
30.0
 30
0.0
 11
186.5
 21
30.0
 31
0.0
  0
ARC
  5
252
  8
0
  6
CONTINUOUS
 10
186.5
 20
43.999999999999993
 30
0.0
 40
6.0
 50
0.0
 51
90.0
  0
LINE
  5
253
  8
0
  6
CONTINUOUS
 10
186.5
 20
50.0
 30
0.0
 11
181.34271928232701
 21
50.0
 31
0.0
  0
LINE
  5
254
  8
0
  6
CONTINUOUS
 10
192.5
 20
36.0
 30
0.0
 11
192.5
 21
43.999999999999993
 31
0.0
  0
LINE
  5
255
  8
0
  6
CENTER
 10
152.5
 20
91.5
 30
0.0
 11
152.5
 21
103.0
 31
0.0
  0
LINE
  5
256
  8
0
  6
CONTINUOUS
 10
160.0
 20
100.5
 30
0.0
 11
162.0
 21
102.4999999999999
 31
0.0
  0
LINE
  5
257
  8
0
  6
CONTINUOUS
 62
     0
 10
162.5
 20
101.1467529817256
 30
0.0
 11
160.0
 21
103.6467529817256
 31
0.0
  0
LINE
  5
258
  8
0
  6
CONTINUOUS
 10
162.0
 20
102.0
 30
0.0
 11
162.0
 21
103.0
 31
0.0
  0
LINE
  5
259
  8
0
  6
CENTER
 10
169.5
 20
138.0
 30
0.0
 11
169.5
 21
71.0
 31
0.0
1001
ACAD
1000
ASC_BOUNDS
1002
{
1070
    19
1005
FFC
1002
}
  0
LINE
  5
25A
  8
0
 10
160.0
 20
119.0
 30
0.0
 11
160.0
 21
100.0
 31
0.0
  0
LINE
  5
25B
  8
0
 10
179.0
 20
100.0
 30
0.0
 11
179.0
 21
119.0
 31
0.0
  0
LINE
  5
25C
  8
0
  6
CONTINUOUS
 10
169.5
 20
94.500000000000014
 30
0.0
 11
191.5
 21
94.500000000000014
 31
0.0
  0
LINE
  5
25D
  8
0
  6
CONTINUOUS
 10
164.5
 20
92.0
 30
0.0
 11
174.5
 21
92.0
 31
0.0
1001
ACAD
1000
ASC_BOUNDS
1002
{
1070
    19
1005
FFC
1002
}
  0
LINE
  5
25E
  8
0
  6
CONTINUOUS
 10
172.5
 20
74.5
 30
0.0
 11
166.5
 21
74.5
 31
0.0
  0
LINE
  5
25F
  8
0
  6
CONTINUOUS
 10
165.5
 20
76.5
 30
0.0
 11
173.5
 21
76.5
 31
0.0
  0
ARC
  5
260
  8
0
  6
CONTINUOUS
 10
169.5
 20
83.250000000000014
 30
0.0
 40
9.25
 50
251.07535558394869
 51
288.92464441605119
  0
LINE
  5
261
  8
0
 10
169.5
 20
100.0
 30
0.0
 11
191.5
 21
100.0
 31
0.0
  0
LINE
  5
265
  8
0
  6
CONTINUOUS
 10
147.0
 20
94.500000000000014
 30
0.0
 11
163.49999999999989
 21
94.500000000000014
 31
0.0
1001
ACAD
1000
ASC_BOUNDS
1002
{
1070
    19
1005
FFC
1005
FFC
1002
}
  0
LINE
  5
266
  8
0
 10
147.0
 20
100.0
 30
0.0
 11
169.5
 21
100.0
 31
0.0
1001
ACAD
1000
ASC_BOUNDS
1002
{
1070
    19
1005
FFC
1005
FFC
1002
}
  0
LINE
  5
271
  8
0
  6
CONTINUOUS
 10
165.5
 20
92.0
 30
0.0
 11
165.5
 21
76.5
 31
0.0
  0
LINE
  5
272
  8
0
  6
CONTINUOUS
 10
165.5
 20
76.5
 30
0.0
 11
166.5
 21
74.5
 31
0.0
  0
ARC
  5
275
  8
0
  6
CONTINUOUS
 10
164.5
 20
93.0
 30
0.0
 40
1.0
 50
180.0
 51
270.0
1001
ACAD
1000
ASC_BOUNDS
1002
{
1070
    19
1005
FFC
1002
}
  0
LINE
  5
276
  8
0
  6
CONTINUOUS
 10
169.5
 20
102.0
 30
0.0
 11
162.0
 21
102.0
 31
0.0
  0
LINE
  5
278
  8
0
  6
CONTINUOUS
 10
160.49999999999989
 20
100.0
 30
0.0
 11
160.0
 21
100.5
 31
0.0
  0
LINE
  5
279
  8
0
  6
CONTINUOUS
 10
162.5
 20
102.0
 30
0.0
 11
162.5
 21
100.0
 31
0.0
  0
LINE
  5
27A
  8
0
  6
CONTINUOUS
 10
162.5
 20
100.0
 30
0.0
 11
162.5
 21
102.0
 31
0.0
  0
LINE
  5
27C
  8
0
  6
CONTINUOUS
 10
163.49999999999989
 20
94.500000000000014
 30
0.0
 11
163.49999999999989
 21
93.0
 31
0.0
1001
ACAD
1000
ASC_BOUNDS
1002
{
1070
    19
1005
FFC
1002
}
  0
LINE
  5
27D
  8
0
  6
CONTINUOUS
 10
163.49999999999989
 20
100.0
 30
0.0
 11
163.49999999999989
 21
102.0
 31
0.0
  0
LINE
  5
27E
  8
0
  6
CONTINUOUS
 10
173.5
 20
92.0
 30
0.0
 11
173.5
 21
76.5
 31
0.0
  0
LINE
  5
27F
  8
0
  6
CONTINUOUS
 10
173.5
 20
76.5
 30
0.0
 11
172.5
 21
74.5
 31
0.0
  0
ARC
  5
280
  8
0
  6
CONTINUOUS
 10
174.5
 20
93.0
 30
0.0
 40
1.0
 50
270.0
 51
0.0
  0
LINE
  5
281
  8
0
  6
CONTINUOUS
 10
175.5
 20
93.0
 30
0.0
 11
175.5
 21
94.500000000000014
 31
0.0
  0
LINE
  5
282
  8
0
  6
CONTINUOUS
 10
192.5
 20
99.0
 30
0.0
 11
192.5
 21
95.5
 31
0.0
  0
ARC
  5
283
  8
0
  6
CONTINUOUS
 10
191.5
 20
95.5
 30
0.0
 40
1.0
 50
270.0
 51
0.0
  0
ARC
  5
284
  8
0
  6
CONTINUOUS
 10
191.5
 20
99.0
 30
0.0
 40
1.0
 50
0.0
 51
90.0
  0
LINE
  5
285
  8
0
  6
DASHED
 10
154.0
 20
135.0
 30
0.0
 11
185.0
 21
135.0
 31
0.0
  0
LINE
  5
286
  8
0
  6
CONTINUOUS
 10
185.0
 20
123.0
 30
0.0
 11
169.5
 21
123.0
 31
0.0
  0
LINE
  5
287
  8
0
  6
CONTINUOUS
 10
179.0
 20
119.0
 30
0.0
 11
169.5
 21
119.0
 31
0.0
  0
LINE
  5
288
  8
0
  6
CONTINUOUS
 10
169.5
 20
125.5
 30
0.0
 11
185.0
 21
125.5
 31
0.0
  0
LINE
  5
289
  8
0
 10
185.0
 20
128.0
 30
0.0
 11
154.0
 21
128.0
 31
0.0
  0
LINE
  5
28A
  8
0
  6
CONTINUOUS
 10
155.49999999999989
 20
128.0
 30
0.0
 11
164.5
 21
119.0
 31
0.0
  0
LINE
  5
28B
  8
0
  6
CONTINUOUS
 62
     0
 10
167.4310242291875
 20
124.5
 30
0.0
 11
165.73942058767619
 21
126.19160364151119
 31
0.0
  0
LINE
  5
28C
  8
0
  6
CONTINUOUS
 62
     0
 10
165.5
 20
123.6025971044413
 30
0.0
 11
162.41862920730739
 21
126.6839678971338
 31
0.0
  0
LINE
  5
28D
  8
0
  6
CONTINUOUS
 62
     0
 10
167.27416997969519
 20
119.0
 30
0.0
 11
158.64649605781781
 21
127.6276739218773
 31
0.0
  0
LINE
  5
28E
  8
0
  6
CONTINUOUS
 62
     0
 10
162.5
 20
118.1173157302028
 30
0.0
 11
154.0
 21
126.6173157302028
 31
0.0
  0
LINE
  5
28F
  8
0
  6
CONTINUOUS
 62
     0
 10
154.05616628444039
 20
122.3404375319023
 30
0.0
 11
159.18316686747721
 21
127.4674381149391
 31
0.0
  0
LINE
  5
290
  8
0
  6
CONTINUOUS
 62
     0
 10
155.02968079233099
 20
120.4855249150467
 30
0.0
 11
161.43404203042601
 21
126.8898861531417
 31
0.0
  0
LINE
  5
291
  8
0
  6
CONTINUOUS
 62
     0
 10
156.89093033758309
 20
119.5183473355526
 30
0.0
 11
163.812349996275
 21
126.43976699424449
 31
0.0
  0
LINE
  5
292
  8
0
  6
CONTINUOUS
 62
     0
 10
159.31515153723711
 20
119.11414141046041
 30
0.0
 11
166.33649799062241
 21
126.1354878638457
 31
0.0
  0
LINE
  5
293
  8
0
  6
CONTINUOUS
 62
     0
 10
167.52943725152281
 20
124.5
 30
0.0
 11
169.03239219464871
 21
126.0029549431258
 31
0.0
  0
LINE
  5
294
  8
0
 10
154.0
 20
128.0
 30
0.0
 11
154.0
 21
122.96494480934059
 31
0.0
  0
LINE
  5
295
  8
0
  6
CONTINUOUS
 62
     0
 10
158.54666632654789
 20
119.2422222789086
 30
0.0
 11
154.0
 21
123.78888860545661
 31
0.0
  0
ARC
  5
296
  8
0
 10
157.5
 20
122.96494480934059
 30
0.0
 40
3.5
 50
180.0
 51
260.53767779197432
  0
LINE
  5
297
  8
0
  6
CONTINUOUS
 62
     0
 10
162.5
 20
112.46046148071041
 30
0.0
 11
160.0
 21
114.96046148071041
 31
0.0
  0
LINE
  5
298
  8
0
  6
CONTINUOUS
 62
     0
 10
160.0
 20
111.3137084989847
 30
0.0
 11
162.5
 21
113.8137084989847
 31
0.0
  0
LINE
  5
299
  8
0
  6
CONTINUOUS
 10
163.49999999999989
 20
110.8415949987946
 30
0.0
 11
163.49999999999989
 21
116.77561225510399
 31
0.0
  0
LINE
  5
29A
  8
0
  6
CONTINUOUS
 10
162.5
 20
103.0
 30
0.0
 11
162.5
 21
119.0
 31
0.0
  0
LINE
  5
29B
  8
0
  6
CONTINUOUS
 10
162.5
 20
119.0
 30
0.0
 11
162.5
 21
103.0
 31
0.0
  0
LINE
  5
29C
  8
0
  6
CONTINUOUS
 10
163.0
 20
104.0
 30
0.0
 11
169.5
 21
104.0
 31
0.0
  0
LINE
  5
29D
  8
0
  6
CONTINUOUS
 10
162.6999999999999
 20
103.90000000000001
 30
0.0
 11
163.49999999999989
 21
104.4999999999999
 31
0.0
  0
LINE
  5
29E
  8
0
  6
CONTINUOUS
 10
162.6999999999999
 20
110.89999999999991
 30
0.0
 11
163.49999999999989
 21
111.4999999999999
 31
0.0
  0
LINE
  5
29F
  8
0
  6
CONTINUOUS
 10
163.18178010774321
 20
110.9657853501655
 30
0.0
 11
169.5
 21
108.4999999999999
 31
0.0
  0
LINE
  5
2A0
  8
0
  6
CONTINUOUS
 10
162.8226898996524
 20
110.0324947825802
 30
0.0
 11
169.5
 21
107.4999999999999
 31
0.0
  0
ARC
  5
2A1
  8
0
  6
CONTINUOUS
 10
163.0
 20
110.4999999999999
 30
0.0
 40
0.5
 50
68.680997264227827
 51
249.229830840235
  0
LINE
  5
2A2
  8
0
  6
CONTINUOUS
 10
162.0
 20
103.0
 30
0.0
 11
169.5
 21
103.0
 31
0.0
  0
LINE
  5
2A3
  8
0
  6
CONTINUOUS
 62
     0
 10
162.5
 20
106.803607231218
 30
0.0
 11
160.0
 21
109.303607231218
 31
0.0
  0
LINE
  5
2A4
  8
0
  6
CONTINUOUS
 62
     0
 10
160.0
 20
105.6568542494923
 30
0.0
 11
162.5
 21
108.1568542494923
 31
0.0
  0
LINE
  5
2A5
  8
0
  6
CONTINUOUS
 62
     0
 10
162.5
 20
103.9751801064718
 30
0.0
 11
160.0
 21
106.4751801064718
 31
0.0
  0
LINE
  5
2A6
  8
0
  6
CONTINUOUS
 62
     0
 10
160.0
 20
102.8284271247462
 30
0.0
 11
162.5
 21
105.3284271247461
 31
0.0
  0
ARC
  5
2A7
  8
0
  6
CONTINUOUS
 10
163.0
 20
103.4999999999999
 30
0.0
 40
0.5
 50
90.0
 51
270.0
  0
LINE
  5
2A8
  8
0
  6
CONTINUOUS
 62
     0
 10
162.5
 20
109.63203435596419
 30
0.0
 11
160.0
 21
112.13203435596419
 31
0.0
  0
LINE
  5
2A9
  8
0
  6
CONTINUOUS
 62
     0
 10
160.0
 20
108.4852813742385
 30
0.0
 11
162.5
 21
110.9852813742385
 31
0.0
  0
LINE
  5
2AA
  8
0
  6
CONTINUOUS
 10
163.49999999999989
 20
104.0
 30
0.0
 11
163.49999999999989
 21
109.77561225510399
 31
0.0
  0
LINE
  5
2AB
  8
0
  6
CONTINUOUS
 62
     0
 10
160.0
 20
116.97056274847709
 30
0.0
 11
165.5
 21
122.47056274847709
 31
0.0
  0
LINE
  5
2AC
  8
0
  6
CONTINUOUS
 10
163.18178010774321
 20
117.9657853501655
 30
0.0
 11
169.5
 21
115.5
 31
0.0
  0
LINE
  5
2AD
  8
0
  6
CONTINUOUS
 10
162.8226898996524
 20
117.0324947825801
 30
0.0
 11
169.5
 21
114.5
 31
0.0
  0
ARC
  5
2AE
  8
0
  6
CONTINUOUS
 10
163.0
 20
117.5
 30
0.0
 40
0.5
 50
68.680997264227827
 51
249.229830840235
  0
LINE
  5
2AF
  8
0
  6
CONTINUOUS
 10
169.5
 20
118.0
 30
0.0
 11
162.5
 21
118.0
 31
0.0
  0
LINE
  5
2B0
  8
0
  6
CONTINUOUS
 10
162.5
 20
119.0
 30
0.0
 11
169.5
 21
119.0
 31
0.0
  0
LINE
  5
2B1
  8
0
 10
156.92460354443119
 20
119.51256607592811
 30
0.0
 11
160.0
 21
119.0
 31
0.0
  0
LINE
  5
2B2
  8
0
  6
CONTINUOUS
 62
     0
 10
162.5
 20
115.28888860545661
 30
0.0
 11
160.0
 21
117.78888860545661
 31
0.0
  0
LINE
  5
2B3
  8
0
  6
CONTINUOUS
 62
     0
 10
160.0
 20
114.14213562373089
 30
0.0
 11
162.5
 21
116.64213562373089
 31
0.0
  0
LINE
  5
2B4
  8
0
  6
CONTINUOUS
 62
     0
 10
164.85786437626899
 20
119.0
 30
0.0
 11
167.35786437626899
 21
121.5
 31
0.0
  0
LINE
  5
2B5
  8
0
  6
CONTINUOUS
 10
167.5
 20
119.0
 30
0.0
 11
167.5
 21
121.5
 31
0.0
  0
LINE
  5
2B6
  8
0
  6
CONTINUOUS
 10
163.49999999999989
 20
117.8415949987946
 30
0.0
 11
163.49999999999989
 21
118.0
 31
0.0
  0
LINE
  5
2B7
  8
0
  6
CONTINUOUS
 10
165.5
 20
124.5
 30
0.0
 11
169.5
 21
124.5
 31
0.0
  0
LINE
  5
2B8
  8
0
  6
CONTINUOUS
 10
169.5
 20
121.5
 30
0.0
 11
165.5
 21
121.5
 31
0.0
  0
LINE
  5
2B9
  8
0
  6
CONTINUOUS
 10
165.5
 20
121.5
 30
0.0
 11
165.5
 21
124.5
 31
0.0
  0
LINE
  5
2BA
  8
0
  6
CONTINUOUS
 10
154.0
 20
125.5
 30
0.0
 11
156.49999999999989
 21
128.0
 31
0.0
  0
LINE
  5
2BB
  8
0
  6
DASHED
 10
154.0
 20
128.0
 30
0.0
 11
154.0
 21
135.0
 31
0.0
  0
ARC
  5
2BC
  8
0
 10
169.5
 20
163.0
 30
0.0
 40
37.0
 50
251.07535558394869
 51
270.0
  0
LINE
  5
2BD
  8
0
  6
CONTINUOUS
 10
171.5
 20
128.0
 30
0.0
 11
171.5
 21
125.5
 31
0.0
  0
LINE
  5
2BE
  8
0
  6
CONTINUOUS
 10
170.5
 20
125.5
 30
0.0
 11
170.5
 21
128.0
 31
0.0
  0
LINE
  5
2BF
  8
0
 10
185.0
 20
122.96494480934059
 30
0.0
 11
185.0
 21
128.0
 31
0.0
  0
LINE
  5
2C0
  8
0
 10
179.0
 20
119.0
 30
0.0
 11
182.07539645556869
 21
119.51256607592811
 31
0.0
  0
ARC
  5
2C1
  8
0
 10
181.49999999999989
 20
122.96494480934059
 30
0.0
 40
3.5
 50
279.46232220802563
 51
0.0
  0
LINE
  5
2C2
  8
0
  6
CONTINUOUS
 10
180.0
 20
128.0
 30
0.0
 11
179.0
 21
128.0
 31
0.0
  0
LINE
  5
2C3
  8
0
  6
CONTINUOUS
 10
175.5
 20
128.0
 30
0.0
 11
175.5
 21
125.5
 31
0.0
  0
LINE
  5
2C4
  8
0
  6
CONTINUOUS
 10
174.5
 20
125.5
 30
0.0
 11
174.5
 21
128.0
 31
0.0
  0
LINE
  5
2C5
  8
0
  6
CONTINUOUS
 10
173.5
 20
128.0
 30
0.0
 11
173.5
 21
125.5
 31
0.0
  0
LINE
  5
2C6
  8
0
  6
CONTINUOUS
 10
172.5
 20
125.5
 30
0.0
 11
172.5
 21
128.0
 31
0.0
  0
LINE
  5
2C7
  8
0
  6
CONTINUOUS
 10
179.0
 20
128.0
 30
0.0
 11
179.0
 21
125.5
 31
0.0
  0
LINE
  5
2C8
  8
0
  6
CONTINUOUS
 10
179.49999999999989
 20
128.0
 30
0.0
 11
179.49999999999989
 21
125.5
 31
0.0
  0
LINE
  5
2C9
  8
0
  6
CONTINUOUS
 10
178.5
 20
128.0
 30
0.0
 11
178.5
 21
125.5
 31
0.0
  0
LINE
  5
2CA
  8
0
  6
CONTINUOUS
 10
177.5
 20
128.0
 30
0.0
 11
177.5
 21
125.5
 31
0.0
  0
LINE
  5
2CB
  8
0
  6
CONTINUOUS
 10
176.5
 20
125.5
 30
0.0
 11
176.5
 21
128.0
 31
0.0
  0
LINE
  5
2CC
  8
0
  6
DASHED
 10
185.0
 20
135.0
 30
0.0
 11
185.0
 21
128.0
 31
0.0
  0
LINE
  5
2CD
  8
0
  6
CONTINUOUS
 10
180.0
 20
125.5
 30
0.0
 11
180.0
 21
128.0
 31
0.0
  0
LINE
  5
2CE
  8
0
  6
CONTINUOUS
 10
180.0
 20
125.5
 30
0.0
 11
180.0
 21
125.5
 31
0.0
  0
LINE
  5
2CF
  8
0
  6
CONTINUOUS
 10
181.0
 20
128.0
 30
0.0
 11
181.0
 21
125.5
 31
0.0
  0
LINE
  5
2D0
  8
0
  6
CONTINUOUS
 10
182.0
 20
125.5
 30
0.0
 11
182.0
 21
128.0
 31
0.0
  0
LINE
  5
2D1
  8
0
  6
CONTINUOUS
 10
183.0
 20
128.0
 30
0.0
 11
183.0
 21
125.5
 31
0.0
  0
LINE
  5
2D2
  8
0
  6
CONTINUOUS
 10
183.49999999999989
 20
128.0
 30
0.0
 11
183.49999999999989
 21
125.5
 31
0.0
  0
LINE
  5
2D3
  8
0
  6
CONTINUOUS
 10
182.5
 20
128.0
 30
0.0
 11
182.5
 21
125.5
 31
0.0
  0
LINE
  5
2D4
  8
0
  6
CONTINUOUS
 10
181.49999999999989
 20
128.0
 30
0.0
 11
181.49999999999989
 21
125.5
 31
0.0
  0
LINE
  5
2D5
  8
0
  6
CONTINUOUS
 10
180.49999999999989
 20
128.0
 30
0.0
 11
180.49999999999989
 21
125.5
 31
0.0
  0
LINE
  5
2D6
  8
0
  6
CONTINUOUS
 10
184.0
 20
125.5
 30
0.0
 11
184.0
 21
128.0
 31
0.0
  0
LINE
  5
2D7
  8
0
  6
CONTINUOUS
 10
184.49999999999989
 20
128.0
 30
0.0
 11
184.49999999999989
 21
125.5
 31
0.0
  0
CIRCLE
  5
366
  8
0
  6
CONTINUOUS
 10
33.132368478894932
 20
40.0
 30
0.0
 40
12.5
  0
CIRCLE
  5
367
  8
0
  6
CONTINUOUS
 10
33.132368478894932
 20
40.0
 30
0.0
 40
12.5
  0
LINE
  5
368
  8
0
  6
CENTER
 10
56.132368478894932
 20
40.0
 30
0.0
 11
10.13236847889493
 21
40.0
 31
0.0
  0
LINE
  5
369
  8
0
  6
CENTER
 10
33.132368478894932
 20
24.5
 30
0.0
 11
33.132368478894932
 21
55.5
 31
0.0
  0
ARC
  5
36A
  8
0
  6
CONTINUOUS
 10
18.132368478894929
 20
36.0
 30
0.0
 40
5.0
 50
180.0
 51
270.0
  0
LINE
  5
36B
  8
0
  6
CONTINUOUS
 10
18.132368478894929
 20
31.0
 30
0.0
 11
24.45769269244618
 21
31.0
 31
0.0
  0
LINE
  5
36C
  8
0
  6
CONTINUOUS
 10
24.45769269244618
 20
49.0
 30
0.0
 11
18.132368478894929
 21
49.0
 31
0.0
  0
LINE
  5
36E
  8
0
  6
CENTER
 10
18.132368478894929
 20
47.0
 30
0.0
 11
18.132368478894929
 21
33.0
 31
0.0
  0
ARC
  5
36F
  8
0
  6
CONTINUOUS
 10
18.132368478894929
 20
44.0
 30
0.0
 40
5.0
 50
90.0
 51
180.0
  0
LINE
  5
370
  8
0
  6
CONTINUOUS
 10
13.13236847889493
 20
44.0
 30
0.0
 11
13.13236847889493
 21
36.0
 31
0.0
  0
ARC
  5
372
  8
0
  6
CONTINUOUS
 10
48.132368478894932
 20
36.0
 30
0.0
 40
5.0
 50
270.0
 51
0.0
  0
LINE
  5
373
  8
0
  6
CONTINUOUS
 10
41.807044265343677
 20
31.0
 30
0.0
 11
48.132368478894932
 21
31.0
 31
0.0
  0
ARC
  5
374
  8
0
  6
CONTINUOUS
 10
48.132368478894932
 20
44.0
 30
0.0
 40
5.0
 50
0.0
 51
90.0
  0
LINE
  5
375
  8
0
  6
CENTER
 10
48.132368478894932
 20
33.0
 30
0.0
 11
48.132368478894932
 21
47.0
 31
0.0
  0
LINE
  5
377
  8
0
  6
CONTINUOUS
 10
53.132368478894932
 20
36.0
 30
0.0
 11
53.132368478894932
 21
44.0
 31
0.0
  0
LINE
  5
379
  8
0
  6
CONTINUOUS
 10
48.132368478894932
 20
49.0
 30
0.0
 11
41.807044265343677
 21
49.0
 31
0.0
  0
LINE
  5
37A
  8
0
  6
CENTER
 10
18.132368478894929
 20
92.5
 30
0.0
 11
18.132368478894929
 21
103.0
 31
0.0
  0
ARC
  5
37D
  8
0
  6
CONTINUOUS
 10
27.632368478894929
 20
102.4999999999999
 30
0.0
 40
0.5
 50
90.0
 51
270.0
  0
LINE
  5
37E
  8
0
  6
CONTINUOUS
 10
27.132368478894929
 20
102.0
 30
0.0
 11
27.132368478894929
 21
115.0
 31
0.0
  0
LINE
  5
37F
  8
0
  6
CENTER
 10
33.132368478894932
 20
76.0
 30
0.0
 11
33.132368478894932
 21
132.0
 31
0.0
1001
ACAD
1000
ASC_BOUNDS
1002
{
1070
    19
1005
FD8
1002
}
  0
LINE
  5
380
  8
0
  6
CONTINUOUS
 10
24.632368478894929
 20
115.0
 30
0.0
 11
24.632368478894929
 21
100.0
 31
0.0
  0
LINE
  5
381
  8
0
  6
CONTINUOUS
 10
41.632368478894932
 20
100.0
 30
0.0
 11
41.632368478894932
 21
115.0
 31
0.0
  0
ARC
  5
382
  8
0
  6
CONTINUOUS
 10
37.132368478894932
 20
94.0
 30
0.0
 40
1.0
 50
270.0
 51
0.0
  0
LINE
  5
383
  8
0
  6
CONTINUOUS
 10
52.882368478894932
 20
95.5
 30
0.0
 11
33.132368478894932
 21
95.5
 31
0.0
  0
LINE
  5
384
  8
0
  6
CONTINUOUS
 10
13.38236847889493
 20
100.0
 30
0.0
 11
52.882368478894932
 21
100.0
 31
0.0
1001
ACAD
1000
ASC_BOUNDS
1002
{
1070
    19
1005
FD8
1005
FD8
1002
}
  0
LINE
  5
387
  8
0
  6
CONTINUOUS
 10
28.132368478894929
 20
95.5
 30
0.0
 11
13.38236847889493
 21
95.5
 31
0.0
1001
ACAD
1000
ASC_BOUNDS
1002
{
1070
    19
1005
FD8
1005
FD8
1002
}
  0
LINE
  5
391
  8
0
  6
CONTINUOUS
 10
35.632368478894932
 20
80.0
 30
0.0
 11
36.132368478894932
 21
82.0
 31
0.0
  0
LINE
  5
392
  8
0
  6
CONTINUOUS
 10
30.132368478894929
 20
82.0
 30
0.0
 11
30.632368478894929
 21
80.0
 31
0.0
  0
ARC
  5
393
  8
0
  6
CONTINUOUS
 10
33.132368478894932
 20
82.625000000000014
 30
0.0
 40
3.625
 50
226.39718102729631
 51
313.60281897270357
  0
LINE
  5
394
  8
0
  6
CONTINUOUS
 10
30.632368478894929
 20
80.0
 30
0.0
 11
35.632368478894932
 21
80.0
 31
0.0
  0
LINE
  5
395
  8
0
  6
CONTINUOUS
 10
26.632368478894929
 20
102.0
 30
0.0
 11
33.132368478894932
 21
102.0
 31
0.0
  0
LINE
  5
396
  8
0
  6
CONTINUOUS
 10
33.132368478894932
 20
101.0
 30
0.0
 11
26.632368478894929
 21
101.0
 31
0.0
  0
LINE
  5
399
  8
0
  6
CONTINUOUS
 10
29.132368478894929
 20
93.0
 30
0.0
 11
37.132368478894932
 21
93.0
 31
0.0
1001
ACAD
1000
ASC_BOUNDS
1002
{
1070
    19
1005
FD8
1002
}
  0
ARC
  5
39B
  8
0
  6
CONTINUOUS
 10
29.132368478894929
 20
94.0
 30
0.0
 40
1.0
 50
180.0
 51
270.0
1001
ACAD
1000
ASC_BOUNDS
1002
{
1070
    19
1005
FD8
1002
}
  0
LINE
  5
39C
  8
0
  6
CONTINUOUS
 10
28.132368478894929
 20
95.5
 30
0.0
 11
28.132368478894929
 21
94.0
 31
0.0
1001
ACAD
1000
ASC_BOUNDS
1002
{
1070
    19
1005
FD8
1002
}
  0
LINE
  5
39E
  8
0
  6
CONTINUOUS
 10
27.632368478894929
 20
100.0
 30
0.0
 11
27.632368478894929
 21
101.0
 31
0.0
  0
LINE
  5
39F
  8
0
  6
CONTINUOUS
 10
26.632368478894929
 20
100.0
 30
0.0
 11
27.132368478894929
 21
100.5
 31
0.0
  0
LINE
  5
3A0
  8
0
  6
CONTINUOUS
 10
26.632368478894929
 20
101.0
 30
0.0
 11
26.632368478894929
 21
102.0
 31
0.0
  0
LINE
  5
3A1
  8
0
  6
CONTINUOUS
 10
27.132368478894929
 20
100.0
 30
0.0
 11
27.132368478894929
 21
101.0
 31
0.0
  0
LINE
  5
3A2
  8
0
  6
CONTINUOUS
 10
30.132368478894929
 20
82.0
 30
0.0
 11
36.132368478894932
 21
82.0
 31
0.0
  0
LINE
  5
3A3
  8
0
  6
CONTINUOUS
 10
30.132368478894929
 20
93.0
 30
0.0
 11
30.132368478894929
 21
82.0
 31
0.0
  0
LINE
  5
3A5
  8
0
  6
CONTINUOUS
 10
36.132368478894932
 20
82.0
 30
0.0
 11
36.132368478894932
 21
93.0
 31
0.0
  0
LINE
  5
3A6
  8
0
  6
CONTINUOUS
 10
38.132368478894932
 20
94.0
 30
0.0
 11
38.132368478894932
 21
95.5
 31
0.0
  0
LINE
  5
3AA
  8
0
  6
DASHED
 10
45.632368478894932
 20
129.0
 30
0.0
 11
20.632368478894929
 21
129.0
 31
0.0
  0
LINE
  5
3AB
  8
0
  6
CONTINUOUS
 10
45.632368478894932
 20
119.0
 30
0.0
 11
33.132368478894932
 21
119.0
 31
0.0
  0
LINE
  5
3AC
  8
0
  6
CONTINUOUS
 10
41.632368478894932
 20
115.0
 30
0.0
 11
33.132368478894932
 21
115.0
 31
0.0
  0
LINE
  5
3AD
  8
0
  6
CONTINUOUS
 10
45.632368478894932
 20
121.5
 30
0.0
 11
33.132368478894932
 21
121.5
 31
0.0
  0
LINE
  5
3AE
  8
0
  6
CONTINUOUS
 10
45.632368478894932
 20
124.0
 30
0.0
 11
20.632368478894929
 21
124.0
 31
0.0
  0
LINE
  5
3AF
  8
0
  6
DASHED
 10
20.632368478894929
 20
129.0
 30
0.0
 11
20.632368478894929
 21
124.0
 31
0.0
  0
ARC
  5
3B2
  8
0
  6
CONTINUOUS
 10
23.132368478894929
 20
118.8856191037676
 30
0.0
 40
2.5
 50
180.0
 51
237.99461679191629
  0
LINE
  5
3B5
  8
0
  6
CONTINUOUS
 10
20.632368478894929
 20
124.0
 30
0.0
 11
20.632368478894929
 21
118.8856191037676
 31
0.0
  0
LINE
  5
3B8
  8
0
  6
CONTINUOUS
 10
28.132368478894929
 20
112.7295835001334
 30
0.0
 11
28.132368478894929
 21
108.819245991237
 31
0.0
  0
LINE
  5
3B9
  8
0
  6
CONTINUOUS
 10
27.428737982140881
 20
113.0433440892841
 30
0.0
 11
33.132368478894932
 21
110.4999999999999
 31
0.0
  0
LINE
  5
3BA
  8
0
  6
CONTINUOUS
 10
27.842761234948789
 20
113.9535800791481
 30
0.0
 11
33.132368478894932
 21
111.4999999999999
 31
0.0
  0
LINE
  5
3BB
  8
0
  6
CONTINUOUS
 10
27.632368478894929
 20
103.0
 30
0.0
 11
33.132368478894932
 21
103.0
 31
0.0
  0
LINE
  5
3BC
  8
0
  6
CONTINUOUS
 10
27.428737982140881
 20
108.0433440892841
 30
0.0
 11
33.132368478894932
 21
105.4999999999999
 31
0.0
  0
LINE
  5
3BD
  8
0
  6
CONTINUOUS
 10
27.842761234948789
 20
108.9535800791481
 30
0.0
 11
33.132368478894932
 21
106.4999999999999
 31
0.0
  0
LINE
  5
3C2
  8
0
  6
CONTINUOUS
 10
28.132368478894929
 20
107.7295835001334
 30
0.0
 11
28.132368478894929
 21
103.0
 31
0.0
  0
LINE
  5
3C3
  8
0
  6
CONTINUOUS
 10
27.332368478894921
 20
102.90000000000001
 30
0.0
 11
28.132368478894929
 21
103.4999999999999
 31
0.0
  0
LINE
  5
3C6
  8
0
  6
CONTINUOUS
 10
27.332368478894921
 20
108.90000000000001
 30
0.0
 11
28.132368478894929
 21
109.4999999999999
 31
0.0
  0
ARC
  5
3C7
  8
0
  6
CONTINUOUS
 10
27.632368478894929
 20
108.4999999999999
 30
0.0
 40
0.5
 50
65.115809913698001
 51
245.9671095643009
  0
LINE
  5
3C9
  8
0
  6
CONTINUOUS
 10
27.132368478894929
 20
114.0
 30
0.0
 11
33.132368478894932
 21
114.0
 31
0.0
  0
LINE
  5
3CA
  8
0
  6
CONTINUOUS
 10
27.132368478894929
 20
115.0
 30
0.0
 11
33.132368478894932
 21
115.0
 31
0.0
  0
LINE
  5
3D1
  8
0
  6
CONTINUOUS
 10
21.807371128886981
 20
116.7656233437549
 30
0.0
 11
24.632368478894929
 21
115.0
 31
0.0
  0
ARC
  5
3D2
  8
0
  6
CONTINUOUS
 10
27.632368478894929
 20
113.5
 30
0.0
 40
0.5
 50
65.115809913695742
 51
245.96710956430019
  0
LINE
  5
3D3
  8
0
  6
CONTINUOUS
 10
28.132368478894929
 20
114.0
 30
0.0
 11
28.132368478894929
 21
113.819245991237
 31
0.0
  0
LINE
  5
3D4
  8
0
  6
CONTINUOUS
 10
30.132368478894929
 20
116.5
 30
0.0
 11
30.132368478894929
 21
118.5
 31
0.0
  0
LINE
  5
3D5
  8
0
  6
CONTINUOUS
 10
33.132368478894932
 20
116.5
 30
0.0
 11
30.132368478894929
 21
116.5
 31
0.0
  0
LINE
  5
3D7
  8
0
  6
CONTINUOUS
 10
32.132368478894932
 20
115.0
 30
0.0
 11
32.132368478894932
 21
116.5
 31
0.0
  0
LINE
  5
3D8
  8
0
  6
CONTINUOUS
 10
33.132368478894932
 20
118.5
 30
0.0
 11
30.132368478894929
 21
118.5
 31
0.0
  0
LINE
  5
3DB
  8
0
  6
CONTINUOUS
 10
34.132368478894932
 20
121.5
 30
0.0
 11
34.132368478894932
 21
124.0
 31
0.0
  0
LINE
  5
3DC
  8
0
  6
CONTINUOUS
 10
37.132368478894932
 20
121.5
 30
0.0
 11
37.132368478894932
 21
124.0
 31
0.0
  0
LINE
  5
3DD
  8
0
  6
CONTINUOUS
 10
36.132368478894932
 20
121.5
 30
0.0
 11
36.132368478894932
 21
124.0
 31
0.0
  0
LINE
  5
3DE
  8
0
  6
CONTINUOUS
 10
35.132368478894932
 20
121.5
 30
0.0
 11
35.132368478894932
 21
124.0
 31
0.0
  0
LINE
  5
3DF
  8
0
  6
DASHED
 10
45.632368478894932
 20
124.0
 30
0.0
 11
45.632368478894932
 21
129.0
 31
0.0
  0
ARC
  5
3E0
  8
0
  6
CONTINUOUS
 10
43.132368478894932
 20
118.8856191037677
 30
0.0
 40
2.5
 50
302.00538320808357
 51
0.0
  0
LINE
  5
3E1
  8
0
  6
CONTINUOUS
 10
41.632368478894932
 20
115.0
 30
0.0
 11
44.45736582890288
 21
116.765623343755
 31
0.0
  0
LINE
  5
3E2
  8
0
  6
CONTINUOUS
 10
38.132368478894932
 20
121.5
 30
0.0
 11
38.132368478894932
 21
124.0
 31
0.0
  0
LINE
  5
3E3
  8
0
  6
CONTINUOUS
 10
39.632368478894932
 20
121.5
 30
0.0
 11
39.632368478894932
 21
124.0
 31
0.0
  0
LINE
  5
3E4
  8
0
  6
CONTINUOUS
 10
40.632368478894932
 20
121.5
 30
0.0
 11
40.632368478894932
 21
124.0
 31
0.0
  0
LINE
  5
3E5
  8
0
  6
CONTINUOUS
 10
41.132368478894932
 20
121.5
 30
0.0
 11
41.132368478894932
 21
124.0
 31
0.0
  0
LINE
  5
3E6
  8
0
  6
CONTINUOUS
 10
40.132368478894932
 20
121.5
 30
0.0
 11
40.132368478894932
 21
124.0
 31
0.0
  0
LINE
  5
3E7
  8
0
  6
CONTINUOUS
 10
39.132368478894932
 20
121.5
 30
0.0
 11
39.132368478894932
 21
124.0
 31
0.0
  0
LINE
  5
3E8
  8
0
  6
CONTINUOUS
 10
42.632368478894932
 20
121.5
 30
0.0
 11
42.632368478894932
 21
124.0
 31
0.0
  0
LINE
  5
3E9
  8
0
  6
CONTINUOUS
 10
42.132368478894932
 20
121.5
 30
0.0
 11
42.132368478894932
 21
124.0
 31
0.0
  0
LINE
  5
3EA
  8
0
  6
CONTINUOUS
 10
43.632368478894932
 20
121.5
 30
0.0
 11
43.632368478894932
 21
124.0
 31
0.0
  0
LINE
  5
3EB
  8
0
  6
CONTINUOUS
 10
44.632368478894932
 20
121.5
 30
0.0
 11
44.632368478894932
 21
124.0
 31
0.0
  0
LINE
  5
3EC
  8
0
  6
CONTINUOUS
 10
45.132368478894932
 20
121.5
 30
0.0
 11
45.132368478894932
 21
124.0
 31
0.0
  0
LINE
  5
3ED
  8
0
  6
CONTINUOUS
 10
44.132368478894932
 20
121.5
 30
0.0
 11
44.132368478894932
 21
124.0
 31
0.0
  0
LINE
  5
3EE
  8
0
  6
CONTINUOUS
 10
43.132368478894932
 20
121.5
 30
0.0
 11
43.132368478894932
 21
124.0
 31
0.0
  0
LINE
  5
3EF
  8
0
  6
CONTINUOUS
 10
45.632368478894932
 20
118.8856191037677
 30
0.0
 11
45.632368478894932
 21
124.0
 31
0.0
  0
LINE
  5
3F0
  8
0
  6
CONTINUOUS
 10
41.632368478894932
 20
121.5
 30
0.0
 11
41.632368478894932
 21
124.0
 31
0.0
  0
LINE
  5
50D
  8
0
  6
CENTER
 10
126.5
 20
91.5
 30
0.0
 11
126.5
 21
103.0
 31
0.0
  0
LINE
  5
585
  8
0
 10
-34.017631521105059
 20
97.75
 30
0.0
 11
-36.017631521105059
 21
99.750000000000028
 31
0.0
1001
ACAD
1000
ASC_BOUNDS
1002
{
1070
    19
1005
FC6
1002
}
  0
CIRCLE
  5
5CD
  8
0
 10
-31.867631521105061
 20
40.0
 30
0.0
 40
2.149999999999999
  0
CIRCLE
  5
5CF
  8
0
 10
-1.8676315211050669
 20
40.0
 30
0.0
 40
2.149999999999999
  0
CIRCLE
  5
5D0
  8
0
 10
48.132368478894932
 20
40.0
 30
0.0
 40
2.149999999999999
  0
CIRCLE
  5
5D1
  8
0
 10
18.132368478894929
 20
40.0
 30
0.0
 40
2.149999999999999
  0
LINE
  5
718
  8
0
  6
CONTINUOUS
 10
-36.017631521105073
 20
99.750000000000028
 30
0.0
 11
-36.017631521105059
 21
99.988685996664259
 31
0.0
  0
LINE
  5
719
  8
0
 10
-36.017631521105059
 20
99.750000000000028
 30
0.0
 11
-36.017631521105059
 21
99.981678428927694
 31
0.0
  0
LINE
  5
71A
  8
0
 10
-36.017631521105059
 20
99.750000000000028
 30
0.0
 11
-36.017631521105059
 21
99.988685996664259
 31
0.0
1001
ACAD
1000
ASC_BOUNDS
1002
{
1070
    19
1005
FC6
1002
}
  0
LINE
  5
71B
  8
0
  6
CONTINUOUS
 10
-27.717631521105059
 20
99.750000000000028
 30
0.0
 11
-27.717631521105069
 21
99.988685996664259
 31
0.0
  0
LINE
  5
71C
  8
0
 10
-27.717631521105069
 20
99.750000000000028
 30
0.0
 11
-27.717631521105069
 21
99.988685996664259
 31
0.0
  0
LINE
  5
71D
  8
0
 10
-27.717631521105069
 20
99.750000000000028
 30
0.0
 11
-27.717631521105069
 21
99.981678428927694
 31
0.0
1001
ACAD
1000
ASC_BOUNDS
1002
{
1070
    19
1005
FC6
1002
}
  0
LINE
  5
71E
  8
0
 10
-29.717631521105059
 20
97.75
 30
0.0
 11
-27.717631521105069
 21
99.750000000000028
 31
0.0
1001
ACAD
1000
ASC_BOUNDS
1002
{
1070
    19
1005
FC6
1002
}
  0
LINE
  5
71F
  8
0
 10
-36.017631521105073
 20
99.750000000000028
 30
0.0
 11
-27.717631521105069
 21
99.750000000000028
 31
0.0
  0
LINE
  5
754
  8
0
 10
13.982368478894919
 20
99.750000000000028
 30
0.0
 11
22.282368478894931
 21
99.750000000000028
 31
0.0
  0
LINE
  5
755
  8
0
 10
15.98236847889493
 20
97.75
 30
0.0
 11
13.98236847889493
 21
99.750000000000028
 31
0.0
1001
ACAD
1000
ASC_BOUNDS
1002
{
1070
    19
1005
FD8
1002
}
  0
LINE
  5
756
  8
0
  6
CONTINUOUS
 10
13.982368478894919
 20
99.750000000000028
 30
0.0
 11
13.98236847889493
 21
99.988685996664259
 31
0.0
  0
LINE
  5
757
  8
0
 10
13.98236847889493
 20
99.750000000000028
 30
0.0
 11
13.98236847889493
 21
99.988685996664259
 31
0.0
  0
LINE
  5
758
  8
0
 10
13.98236847889493
 20
99.750000000000028
 30
0.0
 11
13.98236847889493
 21
99.981678428927694
 31
0.0
1001
ACAD
1000
ASC_BOUNDS
1002
{
1070
    19
1005
FD8
1002
}
  0
LINE
  5
759
  8
0
  6
CONTINUOUS
 10
20.28236847889492
 20
95.5
 30
0.0
 11
20.28236847889492
 21
97.75
 31
0.0
1001
ACAD
1000
ASC_BOUNDS
1002
{
1070
    19
1005
FD8
1002
}
  0
LINE
  5
75A
  8
0
  6
CONTINUOUS
 10
15.98236847889493
 20
95.5
 30
0.0
 11
15.98236847889493
 21
97.75
 31
0.0
1001
ACAD
1000
ASC_BOUNDS
1002
{
1070
    19
1005
FD8
1002
}
  0
LINE
  5
75B
  8
0
  6
CONTINUOUS
 10
20.28236847889492
 20
97.75
 30
0.0
 11
15.98236847889493
 21
97.75
 31
0.0
  0
LINE
  5
75C
  8
0
 10
20.28236847889492
 20
97.75
 30
0.0
 11
22.282368478894931
 21
99.750000000000028
 31
0.0
1001
ACAD
1000
ASC_BOUNDS
1002
{
1070
    19
1005
FD8
1002
}
  0
LINE
  5
75D
  8
0
 10
22.282368478894931
 20
99.750000000000028
 30
0.0
 11
22.282368478894931
 21
99.981678428927694
 31
0.0
  0
LINE
  5
75E
  8
0
 10
22.282368478894931
 20
99.750000000000028
 30
0.0
 11
22.282368478894931
 21
99.988685996664259
 31
0.0
  0
LINE
  5
75F
  8
0
  6
CONTINUOUS
 10
22.282368478894941
 20
99.750000000000028
 30
0.0
 11
22.282368478894931
 21
99.988685996664259
 31
0.0
1001
ACAD
1000
ASC_BOUNDS
1002
{
1070
    19
1005
FD8
1002
}
  0
LINE
  5
796
  8
0
 10
87.300000000000026
 20
99.750000000000028
 30
0.0
 11
87.299999999999997
 21
100.0
 31
0.0
1001
ACAD
1000
ASC_BOUNDS
1002
{
1070
    19
1005
FEA
1002
}
  0
LINE
  5
797
  8
0
  6
CENTER
 10
186.5
 20
91.5
 30
0.0
 11
186.5
 21
103.0
 31
0.0
  0
ARC
  5
7D1
  8
0
 10
87.0
 20
99.500000000000014
 30
0.0
 40
0.5
 50
89.999999999999915
 51
180.0
1001
ACAD
1000
ASC_BOUNDS
1002
{
1070
    19
1005
FEA
1002
}
  0
ARC
  5
7D2
  8
0
  6
CONTINUOUS
 10
87.0
 20
95.0
 30
0.0
 40
0.5
 50
180.0
 51
270.0
1001
ACAD
1000
ASC_BOUNDS
1002
{
1070
    19
1005
FEA
1002
}
  0
LINE
  5
7D3
  8
0
  6
CONTINUOUS
 10
132.49999999999989
 20
99.500000000000014
 30
0.0
 11
132.49999999999989
 21
95.0
 31
0.0
  0
ARC
  5
7D4
  8
0
  6
CONTINUOUS
 10
132.0
 20
95.0
 30
0.0
 40
0.5
 50
270.0
 51
0.000000000000007
  0
ARC
  5
7D5
  8
0
 10
132.0
 20
99.500000000000014
 30
0.0
 40
0.5
 50
0.000000000000007
 51
90.000000000000071
  0
LINE
  5
88A
  8
0
 10
87.299999999999983
 20
99.750000000000028
 30
0.0
 11
97.699999999999989
 21
99.750000000000014
 31
0.0
  0
LINE
  5
88B
  8
0
 10
87.299999999999997
 20
99.750000000000014
 30
0.0
 11
89.849999999999966
 21
97.200000000000017
 31
0.0
1001
ACAD
1000
ASC_BOUNDS
1002
{
1070
    19
1005
FEA
1002
}
  0
LINE
  5
88C
  8
0
 10
89.849999999999966
 20
97.200000000000003
 30
0.0
 11
95.150000000000006
 21
97.200000000000003
 31
0.0
  0
LINE
  5
88D
  8
0
 10
97.699999999999989
 20
99.750000000000028
 30
0.0
 11
97.700000000000017
 21
100.0
 31
0.0
1001
ACAD
1000
ASC_BOUNDS
1002
{
1070
    19
1005
FEA
1002
}
  0
LINE
  5
88E
  8
0
 10
97.700000000000017
 20
99.750000000000014
 30
0.0
 11
95.150000000000034
 21
97.200000000000017
 31
0.0
1001
ACAD
1000
ASC_BOUNDS
1002
{
1070
    19
1005
FEA
1002
}
  0
LINE
  5
8CB
  8
0
 10
147.2999999999999
 20
99.750000000000028
 30
0.0
 11
157.6999999999999
 21
99.750000000000014
 31
0.0
  0
LINE
  5
8CC
  8
0
 10
149.84999999999991
 20
97.200000000000003
 30
0.0
 11
155.15000000000001
 21
97.200000000000003
 31
0.0
  0
LINE
  5
8CD
  8
0
  6
CONTINUOUS
 10
149.84999999999991
 20
94.500000000000014
 30
0.0
 11
149.84999999999991
 21
97.200000000000045
 31
0.0
1001
ACAD
1000
ASC_BOUNDS
1002
{
1070
    19
1005
FFC
1002
}
  0
LINE
  5
8CE
  8
0
  6
CONTINUOUS
 10
146.5
 20
99.500000000000014
 30
0.0
 11
146.5
 21
95.0
 31
0.0
1001
ACAD
1000
ASC_BOUNDS
1002
{
1070
    19
1005
FFC
1002
}
  0
ARC
  5
8CF
  8
0
  6
CONTINUOUS
 10
147.0
 20
95.0
 30
0.0
 40
0.5
 50
180.0
 51
270.0
1001
ACAD
1000
ASC_BOUNDS
1002
{
1070
    19
1005
FFC
1002
}
  0
ARC
  5
8D0
  8
0
 10
147.0
 20
99.500000000000014
 30
0.0
 40
0.5
 50
89.999999999999915
 51
180.0
1001
ACAD
1000
ASC_BOUNDS
1002
{
1070
    19
1005
FFC
1002
}
  0
LINE
  5
8D1
  8
0
 10
147.30000000000001
 20
99.750000000000028
 30
0.0
 11
147.30000000000001
 21
100.0
 31
0.0
1001
ACAD
1000
ASC_BOUNDS
1002
{
1070
    19
1005
FFC
1002
}
  0
LINE
  5
8D2
  8
0
 10
147.30000000000001
 20
99.750000000000014
 30
0.0
 11
149.84999999999991
 21
97.200000000000017
 31
0.0
1001
ACAD
1000
ASC_BOUNDS
1002
{
1070
    19
1005
FFC
1002
}
  0
LINE
  5
8D3
  8
0
  6
CONTINUOUS
 10
155.15000000000001
 20
94.500000000000014
 30
0.0
 11
155.15000000000001
 21
97.199999999999974
 31
0.0
1001
ACAD
1000
ASC_BOUNDS
1002
{
1070
    19
1005
FFC
1002
}
  0
LINE
  5
8D4
  8
0
 10
157.6999999999999
 20
99.750000000000014
 30
0.0
 11
155.15000000000001
 21
97.200000000000017
 31
0.0
1001
ACAD
1000
ASC_BOUNDS
1002
{
1070
    19
1005
FFC
1002
}
  0
LINE
  5
8D5
  8
0
 10
157.6999999999999
 20
99.750000000000028
 30
0.0
 11
157.6999999999999
 21
100.0
 31
0.0
1001
ACAD
1000
ASC_BOUNDS
1002
{
1070
    19
1005
FFC
1002
}
  0
ARC
  5
93F
  8
0
 10
92.5
 20
40.0
 30
0.0
 40
5.2000000000000171
 50
64.616405071900161
 51
295.3835949280998
  0
ARC
  5
940
  8
0
 10
126.5
 20
40.0
 30
0.0
 40
5.2000000000000171
 50
244.61640507190009
 51
115.3835949280998
  0
ARC
  5
941
  8
0
 10
152.5
 20
40.0
 30
0.0
 40
5.2000000000000171
 50
64.616405071900161
 51
295.3835949280998
  0
ARC
  5
942
  8
0
 10
186.5
 20
40.0
 30
0.0
 40
5.2000000000000171
 50
244.61640507190009
 51
115.3835949280998
  0
ARC
  5
978
  8
0
 10
92.5
 20
40.0
 30
0.0
 40
2.6500000000000048
 50
51.756368297600481
 51
308.24363170239951
  0
ARC
  5
986
  8
0
 10
126.5
 20
40.0
 30
0.0
 40
2.6500000000000048
 50
231.75636829760049
 51
128.24363170239951
  0
ARC
  5
987
  8
0
 10
152.5
 20
40.0
 30
0.0
 40
2.6500000000000048
 50
51.756368297600481
 51
308.24363170239951
  0
ARC
  5
988
  8
0
 10
186.5
 20
40.0
 30
0.0
 40
2.6500000000000048
 50
231.75636829760049
 51
128.24363170239951
  0
ARC
  5
9F2
  8
0
 10
-31.867631521105061
 20
40.0
 30
0.0
 40
4.1499999999999906
 50
46.326958448662637
 51
313.67304155133729
  0
ARC
  5
9F3
  8
0
 10
-1.8676315211050669
 20
40.0
 30
0.0
 40
4.1499999999999906
 50
226.32695844866259
 51
133.67304155133729
  0
ARC
  5
9F4
  8
0
 10
18.132368478894929
 20
40.0
 30
0.0
 40
4.1499999999999906
 50
46.326958448662637
 51
313.67304155133729
  0
ARC
  5
9F5
  8
0
 10
48.132368478894932
 20
40.0
 30
0.0
 40
4.1499999999999906
 50
226.32695844866259
 51
133.67304155133729
  0
LINE
  5
AC6
  8
0
  6
CENTER
 10
-1.8676315211050669
 20
92.5
 30
0.0
 11
-1.8676315211050669
 21
103.0
 31
0.0
  0
LINE
  5
AC7
  8
0
  6
CENTER
 10
48.132368478894932
 20
92.5
 30
0.0
 11
48.132368478894932
 21
103.0
 31
0.0
  0
CIRCLE
  5
C5B
  8
0
  6
CONTINUOUS
 10
-16.867631521105061
 20
40.0
 30
0.0
 40
10.0
  0
CIRCLE
  5
C5C
  8
0
  6
CONTINUOUS
 10
33.132368478894932
 20
40.0
 30
0.0
 40
10.0
  0
ARC
  5
C93
  8
0
 10
-16.867631521105061
 20
148.0
 30
0.0
 40
26.0
 50
247.38013505195951
 51
270.0
1001
ACAD
1000
ASC_BOUNDS
1002
{
1070
    19
1005
CA7
1002
}
  0
INSERT
  5
CA7
  8
0
  6
CONTINUOUS
  2
*X0
 10
0.0
 20
0.0
 30
0.0
1001
ACAD
1000
HATCH
1002
{
1070
    19
1000
_USER
1040
1.5
1040
0.7853981633974483
1000
ASC_BOUNDS
1070
     1
1070
     1
1070
    19
1005
EA
1005
140
1005
105
1005
104
1005
103
1005
102
1005
108
1005
109
1005
107
1005
106
1005
101
1005
138
1005
E2
1005
E9
1005
E8
1005
EC
1005
E7
1005
E6
1005
C93
1000
ASC_SEEDPOINT
1011
-23.09543099211702
1021
0.0
1031
0.0
1021
119.2914569569174
1031
0.0
1000
R14_HATCH_DATA
1000
CA7
1011
1.0
1021
0.0
1031
0.0
1021
0.0
1031
0.0
1011
0.0
1021
0.0
1031
0.0
1021
1.0
1031
0.0
1011
0.0
1021
0.0
1031
0.0
1021
0.0
1031
1.0
1040
0.0
1010
0.0
1020
0.0
1030
1.0
1000
_USER
1070
     0
1070
     1
1071
        1
1071
        7
1070
     1
1070
     1
1071
       19
1040
-19.867631521105029
1040
118.4999999999999
1040
0.0
1040
-16.867631521105061
1040
118.5
1040
0.0
1040
-16.867631521105061
1040
122.0
1040
-0.0990195135927849
1040
-26.867631521105078
1040
124.0
1040
0.0
1040
-29.367631521105061
1040
124.0
1040
0.0
1040
-29.367631521105061
1040
118.8856191037676
1040
0.2585925248373353
1040
-28.192628871113008
1040
116.7656233437549
1040
0.0
1040
-25.367631521105061
1040
115.0
1040
0.0
1040
-25.367631521105061
1040
100.0
1040
0.0
1040
-23.367631521105071
1040
100.0
1040
0.0
1040
-22.867631521105061
1040
100.5
1040
0.0
1040
-22.867631521105061
1040
101.0
1040
0.0
1040
-23.367631521105061
1040
101.0
1040
0.0
1040
-23.367631521105061
1040
102.0
1040
0.0
1040
-22.867631521105061
1040
102.0
1040
0.0
1040
-22.867631521105061
1040
115.0
1040
0.0
1040
-17.867631521105061
1040
115.0
1040
0.0
1040
-17.867631521105061
1040
116.5
1040
0.0
1040
-19.867631521105061
1040
116.5
1040
0.0
1071
       19
1005
C93
1005
E6
1005
E7
1005
EC
1005
E8
1005
E9
1005
E2
1005
138
1005
101
1005
106
1005
107
1005
109
1005
108
1005
102
1005
103
1005
104
1005
105
1005
140
1005
EA
1070
     0
1070
     0
1040
0.7853981633974483
1040
1.5
1070
     1
1070
     2
1040
0.7853981633974483
1040
0.0
1040
0.0
1040
-1.060660171779821
1040
1.060660171779821
1070
     0
1040
2.3561944901923439
1040
0.0
1040
0.0
1040
-1.060660171779821
1040
-1.060660171779821
1070
     0
1040
0.0447573053645896
1071
        1
1040
-23.09543099211702
1040
119.2914569569174
1040
0.0
1002
}
  0
INSERT
  5
CDC
  8
0
  6
CONTINUOUS
  2
*X1
 10
0.0
 20
0.0
 30
0.0
1001
ACAD
1000
HATCH
1002
{
1070
    19
1000
_USER
1040
1.5
1040
0.7853981633974483
1000
R14_HATCH_DATA
1000
CDC
1011
1.0
1021
0.0
1031
0.0
1021
0.0
1031
0.0
1011
0.0
1021
0.0
1031
0.0
1021
1.0
1031
0.0
1011
0.0
1021
0.0
1031
0.0
1021
0.0
1031
1.0
1040
0.0
1010
0.0
1020
0.0
1030
1.0
1000
_USER
1070
     0
1070
     0
1071
        1
1071
        7
1070
     1
1070
     1
1071
       19
1040
33.132368478894932
1040
122.0
1040
-0.0990195135927851
1040
23.1323684788949
1040
124.0
1040
0.0
1040
20.632368478894929
1040
124.0
1040
0.0
1040
20.632368478894929
1040
118.8856191037676
1040
0.2585925248373353
1040
21.807371128886981
1040
116.7656233437549
1040
0.0
1040
24.632368478894929
1040
115.0
1040
0.0
1040
24.632368478894929
1040
100.0
1040
0.0
1040
26.632368478894929
1040
100.0
1040
0.0
1040
27.132368478894929
1040
100.5
1040
0.0
1040
27.132368478894929
1040
101.0
1040
0.0
1040
26.632368478894929
1040
101.0
1040
0.0
1040
26.632368478894929
1040
102.0
1040
0.0
1040
27.132368478894929
1040
102.0
1040
0.0
1040
27.132368478894929
1040
115.0
1040
0.0
1040
32.132368478894932
1040
115.0
1040
0.0
1040
32.132368478894932
1040
116.5
1040
0.0
1040
30.132368478894929
1040
116.5
1040
0.0
1040
30.132368478894929
1040
118.5
1040
0.0
1040
33.132368478894932
1040
118.5
1040
0.0
1071
        0
1070
     0
1070
     0
1040
0.7853981633974483
1040
1.5
1070
     1
1070
     2
1040
0.7853981633974483
1040
50.0
1040
0.0
1040
-1.060660171779821
1040
1.060660171779821
1070
     0
1040
2.3561944901923439
1040
50.0
1040
0.0
1040
-1.060660171779821
1040
-1.060660171779821
1070
     0
1040
0.0447573053645896
1071
        1
1040
26.904569007882969
1040
119.2914569569174
1040
0.0
1002
}
  0
ARC
  5
CDD
  8
0
 10
33.132368478894932
 20
148.0
 30
0.0
 40
26.0
 50
247.38013505195951
 51
270.0
  0
ARC
  5
DB6
  8
0
  6
CONTINUOUS
 10
-36.617631521105061
 20
99.750000000000014
 30
0.0
 40
0.25
 50
90.0
 51
180.0
1001
ACAD
1000
ASC_BOUNDS
1002
{
1070
    19
1005
FC6
1002
}
  0
ARC
  5
DB7
  8
0
  6
CONTINUOUS
 10
-36.617631521105061
 20
95.750000000000014
 30
0.0
 40
0.25
 50
180.0
 51
270.0
1001
ACAD
1000
ASC_BOUNDS
1002
{
1070
    19
1005
FC6
1002
}
  0
LINE
  5
DBA
  8
0
  6
CONTINUOUS
 10
3.1323684788949322
 20
95.750000000000014
 30
0.0
 11
3.1323684788949322
 21
99.750000000000014
 31
0.0
  0
ARC
  5
DBB
  8
0
  6
CONTINUOUS
 10
2.8823684788949322
 20
95.750000000000014
 30
0.0
 40
0.25
 50
270.0
 51
0.000000000000007
  0
ARC
  5
DBC
  8
0
  6
CONTINUOUS
 10
2.8823684788949322
 20
99.750000000000014
 30
0.0
 40
0.25
 50
0.000000000000007
 51
90.0
  0
LINE
  5
DBD
  8
0
  6
CONTINUOUS
 10
13.13236847889493
 20
95.750000000000014
 30
0.0
 11
13.13236847889493
 21
99.750000000000014
 31
0.0
1001
ACAD
1000
ASC_BOUNDS
1002
{
1070
    19
1005
FD8
1002
}
  0
ARC
  5
DBE
  8
0
  6
CONTINUOUS
 10
13.38236847889493
 20
95.750000000000014
 30
0.0
 40
0.25
 50
180.0
 51
270.0
1001
ACAD
1000
ASC_BOUNDS
1002
{
1070
    19
1005
FD8
1002
}
  0
ARC
  5
DBF
  8
0
  6
CONTINUOUS
 10
13.38236847889493
 20
99.750000000000014
 30
0.0
 40
0.25
 50
90.0
 51
180.0
1001
ACAD
1000
ASC_BOUNDS
1002
{
1070
    19
1005
FD8
1002
}
  0
LINE
  5
DC0
  8
0
  6
CONTINUOUS
 10
53.132368478894932
 20
95.750000000000014
 30
0.0
 11
53.132368478894932
 21
99.750000000000014
 31
0.0
  0
ARC
  5
DC1
  8
0
  6
CONTINUOUS
 10
52.882368478894932
 20
95.750000000000014
 30
0.0
 40
0.25
 50
270.0
 51
0.000000000000007
  0
ARC
  5
DC2
  8
0
  6
CONTINUOUS
 10
52.882368478894932
 20
99.750000000000014
 30
0.0
 40
0.25
 50
0.000000000000007
 51
90.0
  0
INSERT
  5
FC6
  8
0
  6
CONTINUOUS
  2
*X2
 10
0.0
 20
0.0
 30
0.0
1001
ACAD
1000
HATCH
1002
{
1070
    19
1000
_USER
1040
1.0
1040
0.7853981633974483
1000
ASC_BOUNDS
1070
     2
1070
     1
1070
     8
1005
181
1005
17A
1005
DB7
1005
174
1005
DB6
1005
E2
1005
71A
1005
585
1070
     1
1070
     9
1005
EA
1005
176
1005
17D
1005
175
1005
17A
1005
182
1005
71E
1005
71D
1005
E2
1000
ASC_SEEDPOINT
1011
-23.134863574805589
1021
0.0
1031
0.0
1021
97.745844587435499
1031
0.0
1000
R14_HATCH_DATA
1000
FC6
1011
1.0
1021
0.0
1031
0.0
1021
0.0
1031
0.0
1011
0.0
1021
0.0
1031
0.0
1021
1.0
1031
0.0
1011
0.0
1021
0.0
1031
0.0
1021
0.0
1031
1.0
1040
0.0
1010
0.0
1020
0.0
1030
1.0
1000
_USER
1070
     0
1070
     1
1071
        2
1071
        7
1070
     1
1070
     1
1071
        9
1040
-16.867631521105061
1040
100.0
1040
0.0
1040
-27.717631521105069
1040
100.0
1040
0.0
1040
-27.717631521105069
1040
99.750000000000028
1040
0.0
1040
-29.717631521105069
1040
97.749999999999986
1040
0.0
1040
-29.717631521105059
1040
95.500000000000014
1040
0.0
1040
-21.867631521105061
1040
95.5
1040
0.0
1040
-21.867631521105061
1040
94.0
1040
0.4142135623730951
1040
-20.867631521105061
1040
93.0
1040
0.0
1040
-16.867631521105061
1040
93.0
1040
0.0
1071
        9
1005
E2
1005
71D
1005
71E
1005
182
1005
17A
1005
175
1005
17D
1005
176
1005
EA
1071
        7
1070
     1
1070
     1
1071
        8
1040
-34.017631521105059
1040
97.75
1040
0.0
1040
-36.017631521105059
1040
99.750000000000028
1040
0.0
1040
-36.017631521105059
1040
100.0
1040
0.0
1040
-36.617631521105061
1040
100.0
1040
0.4142135623730951
1040
-36.867631521105061
1040
99.750000000000014
1040
0.0
1040
-36.867631521105061
1040
95.750000000000014
1040
0.4142135623730951
1040
-36.617631521105061
1040
95.5
1040
0.0
1040
-34.017631521105059
1040
95.5
1040
0.0
1071
        8
1005
585
1005
71A
1005
E2
1005
DB6
1005
174
1005
DB7
1005
17A
1005
181
1070
     0
1070
     0
1040
0.7853981633974483
1040
1.0
1070
     0
1070
     1
1040
0.7853981633974483
1040
0.0
1040
0.0
1040
-0.7071067811865475
1040
0.7071067811865476
1070
     0
1040
0.1934856504138431
1071
        2
1040
-23.134863574805589
1040
97.745844587435499
1040
0.0
1040
-35.523277720537692
1040
96.971901856848774
1040
0.0
1002
}
  0
INSERT
  5
FD8
  8
0
  6
CONTINUOUS
  2
*X3
 10
0.0
 20
0.0
 30
0.0
1001
ACAD
1000
HATCH
1002
{
1070
    19
1000
_USER
1040
1.0
1040
0.7853981633974483
1000
ASC_BOUNDS
1070
     2
1070
     1
1070
     8
1005
75A
1005
387
1005
DBE
1005
DBD
1005
DBF
1005
384
1005
758
1005
755
1070
     1
1070
     9
1005
37F
1005
399
1005
39B
1005
39C
1005
387
1005
759
1005
75C
1005
75F
1005
384
1000
ASC_SEEDPOINT
1011
26.805931707445321
1021
0.0
1031
0.0
1021
98.906758502892785
1031
0.0
1000
R14_HATCH_DATA
1000
FD8
1011
1.0
1021
0.0
1031
0.0
1021
0.0
1031
0.0
1011
0.0
1021
0.0
1031
0.0
1021
1.0
1031
0.0
1011
0.0
1021
0.0
1031
0.0
1021
0.0
1031
1.0
1040
0.0
1010
0.0
1020
0.0
1030
1.0
1000
_USER
1070
     0
1070
     1
1071
        2
1071
        7
1070
     1
1070
     1
1071
        9
1040
33.132368478894932
1040
100.0
1040
0.0
1040
22.28236847889492
1040
100.0
1040
0.0
1040
22.282368478894941
1040
99.750000000000028
1040
0.0
1040
20.28236847889492
1040
97.75
1040
0.0
1040
20.28236847889492
1040
95.5
1040
0.0
1040
28.132368478894929
1040
95.5
1040
0.0
1040
28.132368478894929
1040
94.0
1040
0.4142135623730951
1040
29.132368478894929
1040
93.0
1040
0.0
1040
33.132368478894932
1040
93.0
1040
0.0
1071
        9
1005
384
1005
75F
1005
75C
1005
759
1005
387
1005
39C
1005
39B
1005
399
1005
37F
1071
        7
1070
     1
1070
     1
1071
        8
1040
15.98236847889493
1040
97.749999999999986
1040
0.0
1040
13.98236847889493
1040
99.750000000000028
1040
0.0
1040
13.98236847889493
1040
100.0
1040
0.0
1040
13.38236847889493
1040
100.0
1040
0.4142135623730951
1040
13.13236847889493
1040
99.750000000000014
1040
0.0
1040
13.13236847889493
1040
95.750000000000014
1040
0.4142135623730951
1040
13.38236847889493
1040
95.5
1040
0.0
1040
15.98236847889493
1040
95.5
1040
0.0
1071
        8
1005
755
1005
758
1005
384
1005
DBF
1005
DBD
1005
DBE
1005
387
1005
75A
1070
     0
1070
     0
1040
0.7853981633974483
1040
1.0
1070
     0
1070
     1
1040
0.7853981633974483
1040
0.0
1040
0.0
1040
-0.7071067811865475
1040
0.7071067811865476
1070
     0
1040
0.1934856504138431
1071
        2
1040
26.805931707445321
1040
98.906758502892785
1040
0.0
1040
15.19179330813631
1040
96.778416444836296
1040
0.0
1002
}
  0
INSERT
  5
FEA
  8
0
  6
CONTINUOUS
  2
*X4
 10
0.0
 20
0.0
 30
0.0
1001
ACAD
1000
HATCH
1002
{
1070
    19
1000
_USER
1040
1.5
1040
0.7853981633974483
1000
ASC_BOUNDS
1070
     2
1070
     1
1070
     8
1005
14D
1005
143
1005
7D2
1005
142
1005
7D1
1005
80
1005
796
1005
88B
1070
     1
1070
     9
1005
8B
1005
145
1005
14C
1005
144
1005
143
1005
14E
1005
88E
1005
88D
1005
80
1000
ASC_SEEDPOINT
1011
100.94284943513919
1021
0.0
1031
0.0
1021
99.293729687763346
1031
0.0
1000
R14_HATCH_DATA
1000
FEA
1011
1.0
1021
0.0
1031
0.0
1021
0.0
1031
0.0
1011
0.0
1021
0.0
1031
0.0
1021
1.0
1031
0.0
1011
0.0
1021
0.0
1031
0.0
1021
0.0
1031
1.0
1040
0.0
1010
0.0
1020
0.0
1030
1.0
1000
_USER
1070
     0
1070
     1
1071
        2
1071
        7
1070
     1
1070
     1
1071
        9
1040
109.4999999999999
1040
100.0
1040
0.0
1040
97.700000000000017
1040
100.0
1040
0.0
1040
97.699999999999974
1040
99.749999999999986
1040
0.0
1040
95.150000000000006
1040
97.199999999999974
1040
0.0
1040
95.150000000000006
1040
94.500000000000014
1040
0.0
1040
103.4999999999999
1040
94.500000000000014
1040
0.0
1040
103.4999999999999
1040
93.0
1040
0.4142135623730951
1040
104.4999999999999
1040
92.0
1040
0.0
1040
109.4999999999999
1040
92.0
1040
0.0
1071
        9
1005
80
1005
88D
1005
88E
1005
14E
1005
143
1005
144
1005
14C
1005
145
1005
8B
1071
        7
1070
     1
1070
     1
1071
        8
1040
89.849999999999966
1040
97.199999999999974
1040
0.0
1040
87.300000000000026
1040
99.749999999999986
1040
0.0
1040
87.299999999999997
1040
100.0
1040
0.0
1040
86.999999999999972
1040
100.0
1040
0.4142135623730788
1040
86.5
1040
99.500000000000014
1040
0.0
1040
86.5
1040
95.0
1040
0.4142135623730951
1040
87.0
1040
94.500000000000014
1040
0.0
1040
89.849999999999966
1040
94.500000000000014
1040
0.0
1071
        8
1005
88B
1005
796
1005
80
1005
7D1
1005
142
1005
7D2
1005
143
1005
14D
1070
     0
1070
     0
1040
0.7853981633974483
1040
1.5
1070
     0
1070
     1
1040
0.7853981633974483
1040
0.0
1040
0.0
1040
-1.060660171779821
1040
1.060660171779821
1070
     0
1040
0.1934856504138431
1071
        2
1040
100.94284943513919
1040
99.293729687763346
1040
0.0
1040
88.748004088327676
1040
96.004473714249571
1040
0.0
1002
}
  0
INSERT
  5
FFC
  8
0
  6
CONTINUOUS
  2
*X5
 10
0.0
 20
0.0
 30
0.0
1001
ACAD
1000
HATCH
1002
{
1070
    19
1000
_USER
1040
1.5
1040
0.7853981633974483
1000
ASC_BOUNDS
1070
     2
1070
     1
1070
     8
1005
8CD
1005
265
1005
8CF
1005
8CE
1005
8D0
1005
266
1005
8D1
1005
8D2
1070
     1
1070
     9
1005
259
1005
25D
1005
275
1005
27C
1005
265
1005
8D3
1005
8D4
1005
8D5
1005
266
1000
ASC_SEEDPOINT
1011
160.94923162385291
1021
0.0
1031
0.0
1021
99.874186645491989
1031
0.0
1000
R14_HATCH_DATA
1000
FFC
1011
1.0
1021
0.0
1031
0.0
1021
0.0
1031
0.0
1011
0.0
1021
0.0
1031
0.0
1021
1.0
1031
0.0
1011
0.0
1021
0.0
1031
0.0
1021
0.0
1031
1.0
1040
0.0
1010
0.0
1020
0.0
1030
1.0
1000
_USER
1070
     0
1070
     1
1071
        2
1071
        7
1070
     1
1070
     1
1071
        9
1040
169.5
1040
100.0
1040
0.0
1040
157.6999999999999
1040
100.0
1040
0.0
1040
157.6999999999999
1040
99.750000000000014
1040
0.0
1040
155.15000000000001
1040
97.200000000000003
1040
0.0
1040
155.15000000000001
1040
94.499999999999986
1040
0.0
1040
163.49999999999989
1040
94.500000000000014
1040
0.0
1040
163.49999999999989
1040
93.0
1040
0.4142135623730951
1040
164.5
1040
92.0
1040
0.0
1040
169.5
1040
92.0
1040
0.0
1071
        9
1005
266
1005
8D5
1005
8D4
1005
8D3
1005
265
1005
27C
1005
275
1005
25D
1005
259
1071
        7
1070
     1
1070
     1
1071
        8
1040
149.84999999999991
1040
97.199999999999974
1040
0.0
1040
147.30000000000001
1040
99.750000000000014
1040
0.0
1040
147.30000000000001
1040
100.0
1040
0.0
1040
147.0
1040
100.0
1040
0.4142135623731122
1040
146.5
1040
99.500000000000014
1040
0.0
1040
146.5
1040
95.0
1040
0.4142135623730951
1040
147.0
1040
94.500000000000014
1040
0.0
1040
149.84999999999991
1040
94.500000000000014
1040
0.0
1071
        8
1005
8D2
1005
8D1
1005
266
1005
8D0
1005
8CE
1005
8CF
1005
265
1005
8CD
1070
     0
1070
     0
1040
0.7853981633974483
1040
1.5
1070
     0
1070
     1
1040
0.7853981633974483
1040
0.0
1040
0.0
1040
-1.060660171779821
1040
1.060660171779821
1070
     0
1040
0.1934856504138431
1071
        2
1040
160.94923162385291
1040
99.874186645491989
1040
0.0
1040
147.59297238203641
1040
96.391444899120131
1040
0.0
1002
}
  0
ENDSEC
  0
EOF
