  0
SECTION
  2
HEADER
  9
$ACADVER
  1
AC1009
  9
$INSBASE
 10
0.0
 20
0.0
 30
0.0
  9
$EXTMIN
 10
93.367128
 20
70.0
 30
0.0
  9
$EXTMAX
 10
429.774108
 20
250.0
 30
0.0
  9
$LIMMIN
 10
0.0
 20
0.0
  9
$LIMMAX
 10
420.0
 20
297.0
  9
$ORTHOMODE
 70
     1
  9
$REGENMODE
 70
     1
  9
$FILLMODE
 70
     1
  9
$QTEXTMODE
 70
     0
  9
$MIRRTEXT
 70
     1
  9
$DRAGMODE
 70
     2
  9
$LTSCALE
 40
1.0
  9
$OSMODE
 70
     0
  9
$ATTMODE
 70
     1
  9
$TEXTSIZE
 40
3.5
  9
$TRACEWID
 40
1.0
  9
$TEXTSTYLE
  7
STANDARD
  9
$CLAYER
  8
0
  9
$CELTYPE
  6
CONTINUOUS
  9
$CECOLOR
 62
   256
  9
$DIMSCALE
 40
1.0
  9
$DIMASZ
 40
2.5
  9
$DIMEXO
 40
0.625
  9
$DIMDLI
 40
3.75
  9
$DIMRND
 40
0.0
  9
$DIMDLE
 40
0.0
  9
$DIMEXE
 40
1.25
  9
$DIMTP
 40
0.0
  9
$DIMTM
 40
0.0
  9
$DIMTXT
 40
2.5
  9
$DIMCEN
 40
2.5
  9
$DIMTSZ
 40
0.0
  9
$DIMTOL
 70
     0
  9
$DIMLIM
 70
     0
  9
$DIMTIH
 70
     1
  9
$DIMTOH
 70
     0
  9
$DIMSE1
 70
     0
  9
$DIMSE2
 70
     0
  9
$DIMTAD
 70
     1
  9
$DIMZIN
 70
     8
  9
$DIMBLK
  1

  9
$DIMASO
 70
     1
  9
$DIMSHO
 70
     1
  9
$DIMPOST
  1

  9
$DIMAPOST
  1

  9
$DIMALT
 70
     0
  9
$DIMALTD
 70
     2
  9
$DIMALTF
 40
0.0394
  9
$DIMLFAC
 40
1.0
  9
$DIMTOFL
 70
     1
  9
$DIMTVP
 40
1.0
  9
$DIMTIX
 70
     0
  9
$DIMSOXD
 70
     0
  9
$DIMSAH
 70
     0
  9
$DIMBLK1
  1

  9
$DIMBLK2
  1

  9
$DIMSTYLE
  2
*UNNAMED
  9
$DIMCLRD
 70
     0
  9
$DIMCLRE
 70
     0
  9
$DIMCLRT
 70
     0
  9
$DIMTFAC
 40
1.0
  9
$DIMGAP
 40
0.625
  9
$LUNITS
 70
     2
  9
$LUPREC
 70
     4
  9
$SKETCHINC
 40
1.0
  9
$FILLETRAD
 40
2.5
  9
$AUNITS
 70
     0
  9
$AUPREC
 70
     0
  9
$MENU
  1
acad
  9
$ELEVATION
 40
0.0
  9
$PELEVATION
 40
0.0
  9
$THICKNESS
 40
0.0
  9
$LIMCHECK
 70
     0
  9
$BLIPMODE
 70
     1
  9
$CHAMFERA
 40
10.0
  9
$CHAMFERB
 40
10.0
  9
$SKPOLY
 70
     0
  9
$TDCREATE
 40
2450487.677191898
  9
$TDUPDATE
 40
2450490.351154398
  9
$TDINDWG
 40
0.0305752315
  9
$TDUSRTIMER
 40
0.0305752315
  9
$USRTIMER
 70
     1
  9
$ANGBASE
 50
0.0
  9
$ANGDIR
 70
     0
  9
$PDMODE
 70
     0
  9
$PDSIZE
 40
0.0
  9
$PLINEWID
 40
0.0
  9
$COORDS
 70
     1
  9
$SPLFRAME
 70
     0
  9
$SPLINETYPE
 70
     6
  9
$SPLINESEGS
 70
     8
  9
$ATTDIA
 70
     0
  9
$ATTREQ
 70
     1
  9
$HANDLING
 70
     0
  9
$HANDSEED
  5
0
  9
$SURFTAB1
 70
     6
  9
$SURFTAB2
 70
     6
  9
$SURFTYPE
 70
     6
  9
$SURFU
 70
     6
  9
$SURFV
 70
     6
  9
$UCSNAME
  2

  9
$UCSORG
 10
0.0
 20
0.0
 30
0.0
  9
$UCSXDIR
 10
1.0
 20
0.0
 30
0.0
  9
$UCSYDIR
 10
0.0
 20
1.0
 30
0.0
  9
$PUCSNAME
  2

  9
$PUCSORG
 10
0.0
 20
0.0
 30
0.0
  9
$PUCSXDIR
 10
1.0
 20
0.0
 30
0.0
  9
$PUCSYDIR
 10
0.0
 20
1.0
 30
0.0
  9
$USERI1
 70
     0
  9
$USERI2
 70
     0
  9
$USERI3
 70
     0
  9
$USERI4
 70
     0
  9
$USERI5
 70
     0
  9
$USERR1
 40
0.0
  9
$USERR2
 40
0.0
  9
$USERR3
 40
0.0
  9
$USERR4
 40
0.0
  9
$USERR5
 40
0.0
  9
$WORLDVIEW
 70
     1
  9
$SHADEDGE
 70
     3
  9
$SHADEDIF
 70
    70
  9
$TILEMODE
 70
     1
  9
$MAXACTVP
 70
    16
  9
$PINSBASE
 10
0.0
 20
0.0
 30
0.0
  9
$PLIMCHECK
 70
     0
  9
$PEXTMIN
 10
1.000000E+20
 20
1.000000E+20
 30
1.000000E+20
  9
$PEXTMAX
 10
-1.000000E+20
 20
-1.000000E+20
 30
-1.000000E+20
  9
$PLIMMIN
 10
0.0
 20
0.0
  9
$PLIMMAX
 10
420.0
 20
297.0
  9
$UNITMODE
 70
     0
  9
$VISRETAIN
 70
     0
  9
$PLINEGEN
 70
     0
  9
$PSLTSCALE
 70
     1
  9
$TREEDEPTH
 70
  3020
  9
$DWGCODEPAGE
  3
iso8859-1
  0
ENDSEC
  0
SECTION
  2
TABLES
  0
TABLE
  2
VPORT
 70
     2
  0
VPORT
  2
*ACTIVE
 70
     0
 10
0.0
 20
0.0
 11
1.0
 21
1.0
 12
155.75
 22
105.791204
 13
0.0
 23
0.0
 14
0.5
 24
0.5
 15
10.0
 25
10.0
 16
0.0
 26
0.0
 36
1.0
 17
0.0
 27
0.0
 37
0.0
 40
84.582409
 41
1.767507
 42
50.0
 43
0.0
 44
0.0
 50
0.0
 51
0.0
 71
     0
 72
   100
 73
     1
 74
     0
 75
     0
 76
     0
 77
     0
 78
     0
  0
ENDTAB
  0
TABLE
  2
LTYPE
 70
    25
  0
LTYPE
  2
CONTINUOUS
 70
    64
  3
Solid line
 72
    65
 73
     0
 40
0.0
  0
LTYPE
  2
BORDER
 70
     0
  3
__ __ . __ __ . __ __ . __ __ . __ __ . __ __ .
 72
    65
 73
     6
 40
1.75
 49
0.5
 49
-0.25
 49
0.5
 49
-0.25
 49
0.0
 49
-0.25
  0
LTYPE
  2
BORDER2
 70
     0
  3
__.__.__.__.__.__.__.__.__.__.__.__.__.__.__.__
 72
    65
 73
     6
 40
0.875
 49
0.25
 49
-0.125
 49
0.25
 49
-0.125
 49
0.0
 49
-0.125
  0
LTYPE
  2
BORDERX2
 70
     0
  3
____  ____  .  ____  ____  .  ____  ____  .  __
 72
    65
 73
     6
 40
3.5
 49
1.0
 49
-0.5
 49
1.0
 49
-0.5
 49
0.0
 49
-0.5
  0
LTYPE
  2
CENTER
 70
    64
  3
____ _ ____ _ ____ _ ____ _ ____ _ ____ _ ____ 
 72
    65
 73
     4
 40
2.0
 49
1.25
 49
-0.25
 49
0.25
 49
-0.25
  0
LTYPE
  2
CENTER2
 70
     0
  3
___ _ ___ _ ___ _ ___ _ ___ _ ___ _ ___ _ ___ _
 72
    65
 73
     4
 40
1.125
 49
0.75
 49
-0.125
 49
0.125
 49
-0.125
  0
LTYPE
  2
CENTERX2
 70
     0
  3
________  __  ________  __  ________  __  _____
 72
    65
 73
     4
 40
4.0
 49
2.5
 49
-0.5
 49
0.5
 49
-0.5
  0
LTYPE
  2
DASHDOT
 70
     0
  3
__ . __ . __ . __ . __ . __ . __ . __ . __ . __
 72
    65
 73
     4
 40
1.0
 49
0.5
 49
-0.25
 49
0.0
 49
-0.25
  0
LTYPE
  2
DASHDOT2
 70
     0
  3
_._._._._._._._._._._._._._._._._._._._._._._._
 72
    65
 73
     4
 40
0.5
 49
0.25
 49
-0.125
 49
0.0
 49
-0.125
  0
LTYPE
  2
DASHDOTX2
 70
     0
  3
____  .  ____  .  ____  .  ____  .  ____  .  __
 72
    65
 73
     4
 40
2.0
 49
1.0
 49
-0.5
 49
0.0
 49
-0.5
  0
LTYPE
  2
DASHED
 70
    64
  3
__ __ __ __ __ __ __ __ __ __ __ __ __ __ __ __
 72
    65
 73
     2
 40
0.75
 49
0.5
 49
-0.25
  0
LTYPE
  2
DASHED2
 70
     0
  3
_ _ _ _ _ _ _ _ _ _ _ _ _ _ _ _ _ _ _ _ _ _ _ _
 72
    65
 73
     2
 40
0.375
 49
0.25
 49
-0.125
  0
LTYPE
  2
DASHEDX2
 70
     0
  3
____  ____  ____  ____  ____  ____  ____  ____ 
 72
    65
 73
     2
 40
1.5
 49
1.0
 49
-0.5
  0
LTYPE
  2
DIVIDE
 70
     0
  3
____ . . ____ . . ____ . . ____ . . ____ . . __
 72
    65
 73
     6
 40
1.25
 49
0.5
 49
-0.25
 49
0.0
 49
-0.25
 49
0.0
 49
-0.25
  0
LTYPE
  2
DIVIDE2
 70
     0
  3
__..__..__..__..__..__..__..__..__..__..__..__.
 72
    65
 73
     6
 40
0.625
 49
0.25
 49
-0.125
 49
0.0
 49
-0.125
 49
0.0
 49
-0.125
  0
LTYPE
  2
DIVIDEX2
 70
     0
  3
________  .  .  ________  .  .  ________  .  . 
 72
    65
 73
     6
 40
2.5
 49
1.0
 49
-0.5
 49
0.0
 49
-0.5
 49
0.0
 49
-0.5
  0
LTYPE
  2
DOT
 70
     0
  3
. . . . . . . . . . . . . . . . . . . . . . . .
 72
    65
 73
     2
 40
0.25
 49
0.0
 49
-0.25
  0
LTYPE
  2
DOT2
 70
     0
  3
...............................................
 72
    65
 73
     2
 40
0.125
 49
0.0
 49
-0.125
  0
LTYPE
  2
DOTX2
 70
     0
  3
.  .  .  .  .  .  .  .  .  .  .  .  .  .  .  . 
 72
    65
 73
     2
 40
0.5
 49
0.0
 49
-0.5
  0
LTYPE
  2
HIDDEN
 70
     0
  3
__ __ __ __ __ __ __ __ __ __ __ __ __ __ __ __
 72
    65
 73
     2
 40
0.375
 49
0.25
 49
-0.125
  0
LTYPE
  2
HIDDEN2
 70
     0
  3
_ _ _ _ _ _ _ _ _ _ _ _ _ _ _ _ _ _ _ _ _ _ _ _
 72
    65
 73
     2
 40
0.1875
 49
0.125
 49
-0.0625
  0
LTYPE
  2
HIDDENX2
 70
     0
  3
____ ____ ____ ____ ____ ____ ____ ____ ____ __
 72
    65
 73
     2
 40
0.75
 49
0.5
 49
-0.25
  0
LTYPE
  2
PHANTOM
 70
     0
  3
______  __  __  ______  __  __  ______  __  __ 
 72
    65
 73
     6
 40
2.5
 49
1.25
 49
-0.25
 49
0.25
 49
-0.25
 49
0.25
 49
-0.25
  0
LTYPE
  2
PHANTOM2
 70
     0
  3
___ _ _ ___ _ _ ___ _ _ ___ _ _ ___ _ _ ___ _ _
 72
    65
 73
     6
 40
1.25
 49
0.625
 49
-0.125
 49
0.125
 49
-0.125
 49
0.125
 49
-0.125
  0
LTYPE
  2
PHANTOMX2
 70
     0
  3
____________    ____    ____    ____________   
 72
    65
 73
     6
 40
5.0
 49
2.5
 49
-0.5
 49
0.5
 49
-0.5
 49
0.5
 49
-0.5
  0
ENDTAB
  0
TABLE
  2
LAYER
 70
     1
  0
LAYER
  2
0
 70
    64
 62
     7
  6
CONTINUOUS
  0
ENDTAB
  0
TABLE
  2
STYLE
 70
     1
  0
STYLE
  2
STANDARD
 70
     0
 40
0.0
 41
1.0
 50
0.0
 71
     0
 42
3.5
  3
txt
  4

  0
ENDTAB
  0
TABLE
  2
VIEW
 70
     0
  0
ENDTAB
  0
TABLE
  2
UCS
 70
     0
  0
ENDTAB
  0
TABLE
  2
APPID
 70
     1
  0
APPID
  2
ACAD
 70
    64
  0
ENDTAB
  0
TABLE
  2
DIMSTYLE
 70
     0
  0
ENDTAB
  0
ENDSEC
  0
SECTION
  2
BLOCKS
  0
ENDSEC
  0
SECTION
  2
ENTITIES
  0
LINE
  8
0
 10
100.0
 20
100.0
 30
0.0
 11
109.5
 21
100.0
 31
0.0
  0
LINE
  8
0
 10
119.0
 20
100.0
 30
0.0
 11
119.0
 21
119.0
 31
0.0
  0
LINE
  8
0
 10
119.0
 20
119.0
 30
0.0
 11
122.075396
 21
119.512566
 31
0.0
  0
LINE
  8
0
 10
125.0
 20
122.964945
 30
0.0
 11
125.0
 21
128.0
 31
0.0
  0
LINE
  8
0
 10
125.0
 20
128.0
 30
0.0
 11
94.0
 21
128.0
 31
0.0
  0
LINE
  8
0
 10
94.0
 20
128.0
 30
0.0
 11
94.0
 21
122.964945
 31
0.0
  0
LINE
  8
0
 10
96.924604
 20
119.512566
 30
0.0
 11
100.0
 21
119.0
 31
0.0
  0
LINE
  8
0
 10
100.0
 20
119.0
 30
0.0
 11
100.0
 21
100.0
 31
0.0
  0
ARC
  8
0
 10
121.5
 20
122.964945
 30
0.0
 40
3.5
 50
279.462322
 51
0.0
  0
ARC
  8
0
 10
97.5
 20
122.964945
 30
0.0
 40
3.5
 50
180.0
 51
260.537678
  0
ARC
  8
0
 10
109.5
 20
163.0
 30
0.0
 40
37.0
 50
251.075356
 51
270.0
  0
LINE
  8
0
  6
CENTER
 10
109.5
 20
138.0
 30
0.0
 11
109.5
 21
70.0
 31
0.0
  0
LINE
  8
0
  6
CONTINUOUS
 10
109.5
 20
125.5
 30
0.0
 11
125.0
 21
125.5
 31
0.0
  0
LINE
  8
0
  6
CONTINUOUS
 10
110.5
 20
125.5
 30
0.0
 11
110.5
 21
128.0
 31
0.0
  0
LINE
  8
0
  6
CONTINUOUS
 10
111.5
 20
128.0
 30
0.0
 11
111.5
 21
125.5
 31
0.0
  0
LINE
  8
0
  6
CONTINUOUS
 10
112.5
 20
125.5
 30
0.0
 11
112.5
 21
128.0
 31
0.0
  0
LINE
  8
0
  6
CONTINUOUS
 10
113.5
 20
128.0
 30
0.0
 11
113.5
 21
125.5
 31
0.0
  0
LINE
  8
0
  6
CONTINUOUS
 10
114.5
 20
125.5
 30
0.0
 11
114.5
 21
128.0
 31
0.0
  0
LINE
  8
0
  6
CONTINUOUS
 10
115.5
 20
128.0
 30
0.0
 11
115.5
 21
125.5
 31
0.0
  0
LINE
  8
0
  6
CONTINUOUS
 10
116.5
 20
125.5
 30
0.0
 11
116.5
 21
128.0
 31
0.0
  0
LINE
  8
0
  6
CONTINUOUS
 10
117.5
 20
128.0
 30
0.0
 11
117.5
 21
125.5
 31
0.0
  0
LINE
  8
0
  6
CONTINUOUS
 10
118.5
 20
128.0
 30
0.0
 11
118.5
 21
125.5
 31
0.0
  0
LINE
  8
0
  6
CONTINUOUS
 10
119.5
 20
128.0
 30
0.0
 11
119.5
 21
125.5
 31
0.0
  0
LINE
  8
0
  6
CONTINUOUS
 10
120.5
 20
128.0
 30
0.0
 11
120.5
 21
125.5
 31
0.0
  0
LINE
  8
0
  6
CONTINUOUS
 10
121.5
 20
128.0
 30
0.0
 11
121.5
 21
125.5
 31
0.0
  0
LINE
  8
0
  6
CONTINUOUS
 10
122.5
 20
128.0
 30
0.0
 11
122.5
 21
125.5
 31
0.0
  0
LINE
  8
0
  6
CONTINUOUS
 10
123.5
 20
128.0
 30
0.0
 11
123.5
 21
125.5
 31
0.0
  0
LINE
  8
0
  6
CONTINUOUS
 10
124.5
 20
128.0
 30
0.0
 11
124.5
 21
125.5
 31
0.0
  0
LINE
  8
0
  6
CONTINUOUS
 10
124.0
 20
125.5
 30
0.0
 11
124.0
 21
128.0
 31
0.0
  0
LINE
  8
0
  6
CONTINUOUS
 10
123.0
 20
128.0
 30
0.0
 11
123.0
 21
125.5
 31
0.0
  0
LINE
  8
0
  6
CONTINUOUS
 10
122.0
 20
125.5
 30
0.0
 11
122.0
 21
128.0
 31
0.0
  0
LINE
  8
0
  6
CONTINUOUS
 10
121.0
 20
128.0
 30
0.0
 11
121.0
 21
125.5
 31
0.0
  0
LINE
  8
0
  6
CONTINUOUS
 10
120.0
 20
125.5
 30
0.0
 11
120.0
 21
125.5
 31
0.0
  0
LINE
  8
0
  6
CONTINUOUS
 10
120.0
 20
125.5
 30
0.0
 11
120.0
 21
128.0
 31
0.0
  0
LINE
  8
0
  6
CONTINUOUS
 10
120.0
 20
128.0
 30
0.0
 11
119.0
 21
128.0
 31
0.0
  0
LINE
  8
0
  6
CONTINUOUS
 10
119.0
 20
128.0
 30
0.0
 11
119.0
 21
125.5
 31
0.0
  0
LINE
  8
0
  6
CONTINUOUS
 10
102.5
 20
119.0
 30
0.0
 11
102.5
 21
103.0
 31
0.0
  0
LINE
  8
0
  6
CONTINUOUS
 10
102.5
 20
100.0
 30
0.0
 11
102.5
 21
102.0
 31
0.0
  0
LINE
  8
0
  6
CONTINUOUS
 10
102.5
 20
119.0
 30
0.0
 11
109.5
 21
119.0
 31
0.0
  0
LINE
  8
0
  6
CONTINUOUS
 10
109.5
 20
102.0
 30
0.0
 11
102.0
 21
102.0
 31
0.0
  0
LINE
  8
0
  6
CONTINUOUS
 10
102.0
 20
102.0
 30
0.0
 11
102.0
 21
103.0
 31
0.0
  0
LINE
  8
0
  6
CONTINUOUS
 10
102.0
 20
103.0
 30
0.0
 11
109.5
 21
103.0
 31
0.0
  0
LINE
  8
0
  6
CONTINUOUS
 10
102.5
 20
103.0
 30
0.0
 11
102.5
 21
119.0
 31
0.0
  0
LINE
  8
0
  6
CONTINUOUS
 10
107.5
 20
119.0
 30
0.0
 11
107.5
 21
121.5
 31
0.0
  0
LINE
  8
0
  6
CONTINUOUS
 10
109.5
 20
121.5
 30
0.0
 11
105.5
 21
121.5
 31
0.0
  0
LINE
  8
0
  6
CONTINUOUS
 10
105.5
 20
121.5
 30
0.0
 11
105.5
 21
124.5
 31
0.0
  0
LINE
  8
0
  6
CONTINUOUS
 10
105.5
 20
124.5
 30
0.0
 11
109.5
 21
124.5
 31
0.0
  0
LINE
  8
0
  6
CONTINUOUS
 10
102.5
 20
102.0
 30
0.0
 11
102.5
 21
100.0
 31
0.0
  0
LINE
  8
0
 10
109.5
 20
100.0
 30
0.0
 11
119.0
 21
100.0
 31
0.0
  0
LINE
  8
0
  6
CONTINUOUS
 10
100.0
 20
100.0
 30
0.0
 11
100.0
 21
94.0
 31
0.0
  0
LINE
  8
0
  6
CONTINUOUS
 10
100.0
 20
94.0
 30
0.0
 11
109.5
 21
94.0
 31
0.0
  0
LINE
  8
0
  6
CONTINUOUS
 10
119.0
 20
94.0
 30
0.0
 11
119.0
 21
100.0
 31
0.0
  0
LINE
  8
0
  6
CONTINUOUS
 10
109.5
 20
94.0
 30
0.0
 11
119.0
 21
94.0
 31
0.0
  0
ARC
  8
0
  6
CONTINUOUS
 10
114.25
 20
88.5
 30
0.0
 40
11.524431
 50
65.65891
 51
86.268603
  0
ARC
  8
0
  6
CONTINUOUS
 10
114.25
 20
105.5
 30
0.0
 40
11.524431
 50
245.65891
 51
266.268603
  0
LINE
  8
0
  6
CONTINUOUS
 10
103.5
 20
100.0
 30
0.0
 11
103.5
 21
102.0
 31
0.0
  0
LINE
  8
0
  6
CONTINUOUS
 10
103.5
 20
104.0
 30
0.0
 11
103.5
 21
109.775612
 31
0.0
  0
LINE
  8
0
  6
CONTINUOUS
 10
109.5
 20
118.0
 30
0.0
 11
102.5
 21
118.0
 31
0.0
  0
LINE
  8
0
  6
CONTINUOUS
 10
105.5
 20
81.0
 30
0.0
 11
105.5
 21
76.5
 31
0.0
  0
LINE
  8
0
  6
CONTINUOUS
 10
103.0
 20
94.0
 30
0.0
 11
103.0
 21
90.5
 31
0.0
  0
LINE
  8
0
  6
CONTINUOUS
 10
103.0
 20
90.5
 30
0.0
 11
101.5
 21
89.5
 31
0.0
  0
LINE
  8
0
  6
CONTINUOUS
 10
116.0
 20
94.0
 30
0.0
 11
116.0
 21
90.5
 31
0.0
  0
LINE
  8
0
  6
CONTINUOUS
 10
116.0
 20
90.5
 30
0.0
 11
117.5
 21
89.5
 31
0.0
  0
LINE
  8
0
  6
CONTINUOUS
 10
101.5
 20
89.5
 30
0.0
 11
101.5
 21
82.0
 31
0.0
  0
LINE
  8
0
  6
CONTINUOUS
 10
117.5
 20
89.5
 30
0.0
 11
117.5
 21
82.0
 31
0.0
  0
LINE
  8
0
  6
CONTINUOUS
 10
117.5
 20
82.0
 30
0.0
 11
116.0
 21
81.0
 31
0.0
  0
LINE
  8
0
  6
CONTINUOUS
 10
101.5
 20
82.0
 30
0.0
 11
103.0
 21
81.0
 31
0.0
  0
LINE
  8
0
  6
CONTINUOUS
 10
103.0
 20
81.0
 30
0.0
 11
116.0
 21
81.0
 31
0.0
  0
LINE
  8
0
  6
CONTINUOUS
 10
101.5
 20
89.5
 30
0.0
 11
117.5
 21
89.5
 31
0.0
  0
LINE
  8
0
  6
CONTINUOUS
 10
116.0
 20
90.5
 30
0.0
 11
103.0
 21
90.5
 31
0.0
  0
LINE
  8
0
  6
CONTINUOUS
 10
101.5
 20
82.0
 30
0.0
 11
117.5
 21
82.0
 31
0.0
  0
ARC
  8
0
  6
CONTINUOUS
 10
104.75
 20
88.5
 30
0.0
 40
11.524431
 50
65.65891
 51
86.268603
  0
ARC
  8
0
  6
CONTINUOUS
 10
104.75
 20
105.5
 30
0.0
 40
11.524431
 50
245.65891
 51
266.268603
  0
ARC
  8
0
  6
CONTINUOUS
 10
114.25
 20
88.5
 30
0.0
 40
11.524431
 50
93.731397
 51
114.34109
  0
ARC
  8
0
  6
CONTINUOUS
 10
114.25
 20
105.5
 30
0.0
 40
11.524431
 50
273.731397
 51
294.34109
  0
ARC
  8
0
  6
CONTINUOUS
 10
104.75
 20
88.5
 30
0.0
 40
11.524431
 50
93.731397
 51
114.34109
  0
ARC
  8
0
  6
CONTINUOUS
 10
104.75
 20
105.5
 30
0.0
 40
11.524431
 50
273.731397
 51
294.34109
  0
LINE
  8
0
  6
CONTINUOUS
 10
105.5
 20
76.5
 30
0.0
 11
106.5
 21
74.5
 31
0.0
  0
LINE
  8
0
  6
CONTINUOUS
 10
113.5
 20
81.0
 30
0.0
 11
113.5
 21
76.5
 31
0.0
  0
LINE
  8
0
  6
CONTINUOUS
 10
113.5
 20
76.5
 30
0.0
 11
112.5
 21
74.5
 31
0.0
  0
ARC
  8
0
  6
CONTINUOUS
 10
109.5
 20
83.25
 30
0.0
 40
9.25
 50
251.075356
 51
288.924644
  0
LINE
  8
0
  6
CONTINUOUS
 10
105.5
 20
76.5
 30
0.0
 11
113.5
 21
76.5
 31
0.0
  0
LINE
  8
0
  6
CONTINUOUS
 10
112.5
 20
74.5
 30
0.0
 11
106.5
 21
74.5
 31
0.0
  0
LINE
  8
0
  6
CONTINUOUS
 10
103.0
 20
90.5
 30
0.0
 11
103.0
 21
81.0
 31
0.0
  0
LINE
  8
0
  6
CONTINUOUS
 10
116.0
 20
81.0
 30
0.0
 11
116.0
 21
90.5
 31
0.0
  0
ARC
  8
0
  6
CONTINUOUS
 10
103.0
 20
117.5
 30
0.0
 40
0.5
 50
68.680997
 51
249.229831
  0
ARC
  8
0
  6
CONTINUOUS
 10
103.0
 20
110.5
 30
0.0
 40
0.5
 50
68.680997
 51
249.229831
  0
ARC
  8
0
  6
CONTINUOUS
 10
103.0
 20
103.5
 30
0.0
 40
0.5
 50
90.0
 51
270.0
  0
LINE
  8
0
  6
CONTINUOUS
 10
102.82269
 20
117.032495
 30
0.0
 11
109.5
 21
114.5
 31
0.0
  0
LINE
  8
0
  6
CONTINUOUS
 10
103.18178
 20
117.965785
 30
0.0
 11
109.5
 21
115.5
 31
0.0
  0
LINE
  8
0
  6
CONTINUOUS
 10
103.5
 20
117.841595
 30
0.0
 11
103.5
 21
118.0
 31
0.0
  0
LINE
  8
0
  6
CONTINUOUS
 10
102.82269
 20
110.032495
 30
0.0
 11
109.5
 21
107.5
 31
0.0
  0
LINE
  8
0
  6
CONTINUOUS
 10
103.18178
 20
110.965785
 30
0.0
 11
109.5
 21
108.5
 31
0.0
  0
LINE
  8
0
  6
CONTINUOUS
 10
103.5
 20
110.841595
 30
0.0
 11
103.5
 21
116.775612
 31
0.0
  0
LINE
  8
0
  6
CONTINUOUS
 10
102.7
 20
110.9
 30
0.0
 11
103.5
 21
111.5
 31
0.0
  0
LINE
  8
0
  6
CONTINUOUS
 10
102.7
 20
103.9
 30
0.0
 11
103.5
 21
104.5
 31
0.0
  0
LINE
  8
0
  6
CONTINUOUS
 10
103.0
 20
104.0
 30
0.0
 11
109.5
 21
104.0
 31
0.0
  0
LINE
  8
0
  6
CONTINUOUS
 62
     0
 10
100.0
 20
111.313708
 30
0.0
 11
102.5
 21
113.813708
 31
0.0
  0
LINE
  8
0
  6
CONTINUOUS
 62
     0
 10
100.0
 20
114.142136
 30
0.0
 11
102.5
 21
116.642136
 31
0.0
  0
LINE
  8
0
  6
CONTINUOUS
 62
     0
 10
104.857864
 20
119.0
 30
0.0
 11
107.357864
 21
121.5
 31
0.0
  0
LINE
  8
0
  6
CONTINUOUS
 62
     0
 10
100.0
 20
116.970563
 30
0.0
 11
105.5
 21
122.470563
 31
0.0
  0
LINE
  8
0
  6
CONTINUOUS
 62
     0
 10
107.529437
 20
124.5
 30
0.0
 11
109.032392
 21
126.002955
 31
0.0
  0
LINE
  8
0
  6
CONTINUOUS
 62
     0
 10
99.315152
 20
119.114141
 30
0.0
 11
106.336498
 21
126.135488
 31
0.0
  0
LINE
  8
0
  6
CONTINUOUS
 62
     0
 10
96.89093
 20
119.518347
 30
0.0
 11
103.81235
 21
126.439767
 31
0.0
  0
LINE
  8
0
  6
CONTINUOUS
 62
     0
 10
95.029681
 20
120.485525
 30
0.0
 11
101.434042
 21
126.889886
 31
0.0
  0
LINE
  8
0
  6
CONTINUOUS
 62
     0
 10
94.056166
 20
122.340438
 30
0.0
 11
99.183167
 21
127.467438
 31
0.0
  0
LINE
  8
0
  6
CONTINUOUS
 62
     0
 10
100.0
 20
108.485281
 30
0.0
 11
102.5
 21
110.985281
 31
0.0
  0
LINE
  8
0
  6
CONTINUOUS
 62
     0
 10
100.0
 20
105.656854
 30
0.0
 11
102.5
 21
108.156854
 31
0.0
  0
LINE
  8
0
  6
CONTINUOUS
 62
     0
 10
100.0
 20
102.828427
 30
0.0
 11
102.5
 21
105.328427
 31
0.0
  0
LINE
  8
0
  6
CONTINUOUS
 62
     0
 10
102.5
 20
112.460461
 30
0.0
 11
100.0
 21
114.960461
 31
0.0
  0
LINE
  8
0
  6
CONTINUOUS
 62
     0
 10
102.5
 20
109.632034
 30
0.0
 11
100.0
 21
112.132034
 31
0.0
  0
LINE
  8
0
  6
CONTINUOUS
 62
     0
 10
102.5
 20
106.803607
 30
0.0
 11
100.0
 21
109.303607
 31
0.0
  0
LINE
  8
0
  6
CONTINUOUS
 62
     0
 10
102.5
 20
103.97518
 30
0.0
 11
100.0
 21
106.47518
 31
0.0
  0
LINE
  8
0
  6
CONTINUOUS
 62
     0
 10
102.5
 20
101.146753
 30
0.0
 11
100.0
 21
103.646753
 31
0.0
  0
LINE
  8
0
  6
CONTINUOUS
 62
     0
 10
102.5
 20
115.288889
 30
0.0
 11
100.0
 21
117.788889
 31
0.0
  0
LINE
  8
0
  6
CONTINUOUS
 62
     0
 10
98.546666
 20
119.242222
 30
0.0
 11
94.0
 21
123.788889
 31
0.0
  0
LINE
  8
0
  6
CONTINUOUS
 62
     0
 10
102.5
 20
118.117316
 30
0.0
 11
94.0
 21
126.617316
 31
0.0
  0
LINE
  8
0
  6
CONTINUOUS
 62
     0
 10
107.27417
 20
119.0
 30
0.0
 11
98.646496
 21
127.627674
 31
0.0
  0
LINE
  8
0
  6
CONTINUOUS
 62
     0
 10
105.5
 20
123.602597
 30
0.0
 11
102.418629
 21
126.683968
 31
0.0
  0
LINE
  8
0
  6
CONTINUOUS
 62
     0
 10
107.431024
 20
124.5
 30
0.0
 11
105.739421
 21
126.191604
 31
0.0
  0
LINE
  8
0
  6
CONTINUOUS
 10
94.0
 20
125.5
 30
0.0
 11
96.5
 21
128.0
 31
0.0
  0
LINE
  8
0
  6
CONTINUOUS
 10
95.5
 20
128.0
 30
0.0
 11
104.5
 21
119.0
 31
0.0
  0
LINE
  8
0
  6
CONTINUOUS
 10
100.0
 20
100.5
 30
0.0
 11
102.0
 21
102.5
 31
0.0
  0
LINE
  8
0
  6
CONTINUOUS
 10
100.5
 20
100.0
 30
0.0
 11
100.0
 21
100.5
 31
0.0
  0
LINE
  8
0
  6
CONTINUOUS
 10
200.0
 20
100.0
 30
0.0
 11
217.0
 21
100.0
 31
0.0
  0
LINE
  8
0
  6
CONTINUOUS
 10
217.0
 20
100.0
 30
0.0
 11
217.0
 21
116.0
 31
0.0
  0
LINE
  8
0
  6
CONTINUOUS
 10
217.0
 20
116.0
 30
0.0
 11
219.824997
 21
117.765623
 31
0.0
  0
LINE
  8
0
  6
CONTINUOUS
 10
221.0
 20
119.885619
 30
0.0
 11
221.0
 21
125.0
 31
0.0
  0
LINE
  8
0
  6
CONTINUOUS
 10
221.0
 20
125.0
 30
0.0
 11
196.0
 21
125.0
 31
0.0
  0
LINE
  8
0
  6
CONTINUOUS
 10
196.0
 20
125.0
 30
0.0
 11
196.0
 21
119.885619
 31
0.0
  0
LINE
  8
0
  6
CONTINUOUS
 10
197.175003
 20
117.765623
 30
0.0
 11
200.0
 21
116.0
 31
0.0
  0
LINE
  8
0
  6
CONTINUOUS
 10
200.0
 20
116.0
 30
0.0
 11
200.0
 21
100.0
 31
0.0
  0
LINE
  8
0
  6
CENTER
 10
208.5
 20
77.0
 30
0.0
 11
208.5
 21
133.0
 31
0.0
  0
ARC
  8
0
  6
CONTINUOUS
 10
218.5
 20
119.885619
 30
0.0
 40
2.5
 50
302.005383
 51
0.0
  0
ARC
  8
0
  6
CONTINUOUS
 10
198.5
 20
119.885619
 30
0.0
 40
2.5
 50
180.0
 51
237.994617
  0
LINE
  8
0
  6
CONTINUOUS
 10
221.0
 20
122.5
 30
0.0
 11
208.5
 21
122.5
 31
0.0
  0
LINE
  8
0
  6
CONTINUOUS
 10
209.5
 20
122.5
 30
0.0
 11
209.5
 21
125.0
 31
0.0
  0
LINE
  8
0
  6
CONTINUOUS
 10
210.5
 20
122.5
 30
0.0
 11
210.5
 21
125.0
 31
0.0
  0
LINE
  8
0
  6
CONTINUOUS
 10
211.5
 20
122.5
 30
0.0
 11
211.5
 21
125.0
 31
0.0
  0
LINE
  8
0
  6
CONTINUOUS
 10
212.5
 20
122.5
 30
0.0
 11
212.5
 21
125.0
 31
0.0
  0
LINE
  8
0
  6
CONTINUOUS
 10
213.5
 20
122.5
 30
0.0
 11
213.5
 21
125.0
 31
0.0
  0
LINE
  8
0
  6
CONTINUOUS
 10
214.5
 20
122.5
 30
0.0
 11
214.5
 21
125.0
 31
0.0
  0
LINE
  8
0
  6
CONTINUOUS
 10
215.5
 20
122.5
 30
0.0
 11
215.5
 21
125.0
 31
0.0
  0
LINE
  8
0
  6
CONTINUOUS
 10
216.5
 20
122.5
 30
0.0
 11
216.5
 21
125.0
 31
0.0
  0
LINE
  8
0
  6
CONTINUOUS
 10
217.5
 20
122.5
 30
0.0
 11
217.5
 21
125.0
 31
0.0
  0
LINE
  8
0
  6
CONTINUOUS
 10
218.5
 20
122.5
 30
0.0
 11
218.5
 21
125.0
 31
0.0
  0
LINE
  8
0
  6
CONTINUOUS
 10
219.5
 20
122.5
 30
0.0
 11
219.5
 21
125.0
 31
0.0
  0
LINE
  8
0
  6
CONTINUOUS
 10
220.5
 20
122.5
 30
0.0
 11
220.5
 21
125.0
 31
0.0
  0
LINE
  8
0
  6
CONTINUOUS
 10
220.0
 20
122.5
 30
0.0
 11
220.0
 21
125.0
 31
0.0
  0
LINE
  8
0
  6
CONTINUOUS
 10
219.0
 20
122.5
 30
0.0
 11
219.0
 21
125.0
 31
0.0
  0
LINE
  8
0
  6
CONTINUOUS
 10
218.0
 20
122.5
 30
0.0
 11
218.0
 21
125.0
 31
0.0
  0
LINE
  8
0
  6
CONTINUOUS
 10
217.0
 20
122.5
 30
0.0
 11
217.0
 21
125.0
 31
0.0
  0
LINE
  8
0
  6
CONTINUOUS
 10
216.0
 20
122.5
 30
0.0
 11
216.0
 21
125.0
 31
0.0
  0
LINE
  8
0
  6
CONTINUOUS
 10
215.0
 20
122.5
 30
0.0
 11
215.0
 21
125.0
 31
0.0
  0
ARC
  8
0
  6
CONTINUOUS
 10
208.5
 20
146.5625
 30
0.0
 40
23.5625
 50
246.222684
 51
270.0
  0
LINE
  8
0
  6
CONTINUOUS
 10
202.5
 20
100.0
 30
0.0
 11
202.5
 21
101.0
 31
0.0
  0
LINE
  8
0
  6
CONTINUOUS
 10
202.5
 20
116.0
 30
0.0
 11
208.5
 21
116.0
 31
0.0
  0
LINE
  8
0
  6
CONTINUOUS
 10
207.5
 20
116.0
 30
0.0
 11
207.5
 21
117.5
 31
0.0
  0
LINE
  8
0
  6
CONTINUOUS
 10
208.5
 20
117.5
 30
0.0
 11
205.5
 21
117.5
 31
0.0
  0
LINE
  8
0
  6
CONTINUOUS
 10
205.5
 20
117.5
 30
0.0
 11
205.5
 21
119.5
 31
0.0
  0
LINE
  8
0
  6
CONTINUOUS
 10
208.5
 20
101.0
 30
0.0
 11
202.0
 21
101.0
 31
0.0
  0
LINE
  8
0
  6
CONTINUOUS
 10
202.0
 20
101.0
 30
0.0
 11
202.0
 21
102.0
 31
0.0
  0
LINE
  8
0
  6
CONTINUOUS
 10
202.5
 20
102.0
 30
0.0
 11
202.5
 21
116.0
 31
0.0
  0
LINE
  8
0
  6
CONTINUOUS
 10
202.0
 20
102.0
 30
0.0
 11
208.5
 21
102.0
 31
0.0
  0
LINE
  8
0
  6
CONTINUOUS
 10
205.5
 20
85.0
 30
0.0
 11
205.5
 21
83.0
 31
0.0
  0
LINE
  8
0
  6
CONTINUOUS
 10
202.5
 20
115.0
 30
0.0
 11
208.5
 21
115.0
 31
0.0
  0
LINE
  8
0
  6
CONTINUOUS
 10
203.5
 20
115.0
 30
0.0
 11
203.5
 21
114.819246
 31
0.0
  0
ARC
  8
0
  6
CONTINUOUS
 10
203.0
 20
114.5
 30
0.0
 40
0.5
 50
65.11581
 51
245.96711
  0
ARC
  8
0
  6
CONTINUOUS
 10
203.0
 20
108.5
 30
0.0
 40
0.5
 50
65.11581
 51
245.96711
  0
ARC
  8
0
  6
CONTINUOUS
 10
203.0
 20
102.5
 30
0.0
 40
0.5
 50
90.0
 51
270.0
  0
LINE
  8
0
  6
CONTINUOUS
 10
203.0
 20
103.0
 30
0.0
 11
208.5
 21
103.0
 31
0.0
  0
LINE
  8
0
  6
CONTINUOUS
 10
202.7
 20
102.9
 30
0.0
 11
203.5
 21
103.5
 31
0.0
  0
LINE
  8
0
  6
CONTINUOUS
 10
119.0
 20
119.0
 30
0.0
 11
109.5
 21
119.0
 31
0.0
  0
LINE
  8
0
  6
CONTINUOUS
 10
125.0
 20
123.0
 30
0.0
 11
109.5
 21
123.0
 31
0.0
  0
LINE
  8
0
  6
CONTINUOUS
 10
217.0
 20
116.0
 30
0.0
 11
208.5
 21
116.0
 31
0.0
  0
LINE
  8
0
  6
CONTINUOUS
 10
221.0
 20
120.0
 30
0.0
 11
208.5
 21
120.0
 31
0.0
  0
LINE
  8
0
  6
CONTINUOUS
 10
202.7
 20
108.9
 30
0.0
 11
203.5
 21
109.5
 31
0.0
  0
LINE
  8
0
  6
CONTINUOUS
 10
203.210393
 20
114.95358
 30
0.0
 11
208.5
 21
112.5
 31
0.0
  0
LINE
  8
0
  6
CONTINUOUS
 10
202.79637
 20
114.043344
 30
0.0
 11
208.5
 21
111.5
 31
0.0
  0
LINE
  8
0
  6
CONTINUOUS
 10
203.210393
 20
108.95358
 30
0.0
 11
208.5
 21
106.5
 31
0.0
  0
LINE
  8
0
  6
CONTINUOUS
 10
202.79637
 20
108.043344
 30
0.0
 11
208.5
 21
105.5
 31
0.0
  0
LINE
  8
0
  6
CONTINUOUS
 10
203.5
 20
113.729584
 30
0.0
 11
203.5
 21
108.819246
 31
0.0
  0
LINE
  8
0
  6
CONTINUOUS
 10
203.5
 20
107.729584
 30
0.0
 11
203.5
 21
103.0
 31
0.0
  0
LINE
  8
0
  6
CONTINUOUS
 10
205.5
 20
83.0
 30
0.0
 11
206.0
 21
81.0
 31
0.0
  0
LINE
  8
0
  6
CONTINUOUS
 10
206.0
 20
81.0
 30
0.0
 11
211.0
 21
81.0
 31
0.0
  0
LINE
  8
0
  6
CONTINUOUS
 10
205.5
 20
83.0
 30
0.0
 11
211.5
 21
83.0
 31
0.0
  0
LINE
  8
0
  6
CONTINUOUS
 10
211.5
 20
85.0
 30
0.0
 11
211.5
 21
83.0
 31
0.0
  0
LINE
  8
0
  6
CONTINUOUS
 10
211.5
 20
83.0
 30
0.0
 11
211.0
 21
81.0
 31
0.0
  0
ARC
  8
0
  6
CONTINUOUS
 10
208.5
 20
83.625
 30
0.0
 40
3.625
 50
226.397181
 51
313.602819
  0
LINE
  8
0
  6
CONTINUOUS
 10
200.0
 20
100.0
 30
0.0
 11
200.0
 21
95.0
 31
0.0
  0
LINE
  8
0
  6
CONTINUOUS
 10
200.0
 20
95.0
 30
0.0
 11
217.0
 21
95.0
 31
0.0
  0
LINE
  8
0
  6
CONTINUOUS
 10
217.0
 20
95.0
 30
0.0
 11
217.0
 21
100.0
 31
0.0
  0
ARC
  8
0
  6
CONTINUOUS
 10
212.75
 20
90.75
 30
0.0
 40
9.280356
 50
62.744672
 51
85.364537
  0
ARC
  8
0
  6
CONTINUOUS
 10
212.75
 20
90.75
 30
0.0
 40
9.280356
 50
94.635463
 51
117.255328
  0
ARC
  8
0
  6
CONTINUOUS
 10
212.75
 20
104.25
 30
0.0
 40
9.280356
 50
242.744672
 51
265.364537
  0
ARC
  8
0
  6
CONTINUOUS
 10
212.75
 20
104.25
 30
0.0
 40
9.280356
 50
274.635463
 51
297.255328
  0
ARC
  8
0
  6
CONTINUOUS
 10
204.25
 20
90.75
 30
0.0
 40
9.280356
 50
62.744672
 51
85.364537
  0
ARC
  8
0
  6
CONTINUOUS
 10
204.25
 20
90.75
 30
0.0
 40
9.280356
 50
94.635463
 51
117.255328
  0
ARC
  8
0
  6
CONTINUOUS
 10
204.25
 20
104.25
 30
0.0
 40
9.280356
 50
242.744672
 51
265.364537
  0
ARC
  8
0
  6
CONTINUOUS
 10
204.25
 20
104.25
 30
0.0
 40
9.280356
 50
274.635463
 51
297.255328
  0
LINE
  8
0
  6
CONTINUOUS
 10
203.5
 20
95.0
 30
0.0
 11
203.5
 21
85.333333
 31
0.0
  0
LINE
  8
0
  6
CONTINUOUS
 10
204.0
 20
85.0
 30
0.0
 11
213.0
 21
85.0
 31
0.0
  0
LINE
  8
0
  6
CONTINUOUS
 10
213.5
 20
85.333333
 30
0.0
 11
213.5
 21
95.0
 31
0.0
  0
LINE
  8
0
  6
CONTINUOUS
 10
214.5
 20
86.0
 30
0.0
 11
213.0
 21
85.0
 31
0.0
  0
LINE
  8
0
  6
CONTINUOUS
 10
202.5
 20
86.0
 30
0.0
 11
204.0
 21
85.0
 31
0.0
  0
LINE
  8
0
  6
CONTINUOUS
 10
202.5
 20
86.0
 30
0.0
 11
202.5
 21
90.5
 31
0.0
  0
LINE
  8
0
  6
CONTINUOUS
 10
202.5
 20
90.5
 30
0.0
 11
203.5
 21
91.0
 31
0.0
  0
LINE
  8
0
  6
CONTINUOUS
 10
214.5
 20
86.0
 30
0.0
 11
214.5
 21
90.5
 31
0.0
  0
LINE
  8
0
  6
CONTINUOUS
 10
214.5
 20
90.5
 30
0.0
 11
213.5
 21
91.0
 31
0.0
  0
LINE
  8
0
  6
CONTINUOUS
 10
213.5
 20
91.0
 30
0.0
 11
203.5
 21
91.0
 31
0.0
  0
LINE
  8
0
  6
CONTINUOUS
 10
202.5
 20
90.5
 30
0.0
 11
214.5
 21
90.5
 31
0.0
  0
LINE
  8
0
  6
CONTINUOUS
 10
214.5
 20
86.0
 30
0.0
 11
202.5
 21
86.0
 31
0.0
  0
LINE
  8
0
  6
CONTINUOUS
 62
     0
 10
200.0
 20
112.318759
 30
0.0
 11
202.5
 21
114.818759
 31
0.0
  0
LINE
  8
0
  6
CONTINUOUS
 62
     0
 10
203.681241
 20
116.0
 30
0.0
 11
205.5
 21
117.818759
 31
0.0
  0
LINE
  8
0
  6
CONTINUOUS
 62
     0
 10
200.0
 20
115.147186
 30
0.0
 11
207.861467
 21
123.008654
 31
0.0
  0
LINE
  8
0
  6
CONTINUOUS
 62
     0
 10
198.784238
 20
116.759851
 30
0.0
 11
205.24965
 21
123.225263
 31
0.0
  0
LINE
  8
0
  6
CONTINUOUS
 62
     0
 10
197.047103
 20
117.851144
 30
0.0
 11
202.876788
 21
123.680828
 31
0.0
  0
LINE
  8
0
  6
CONTINUOUS
 62
     0
 10
196.011688
 20
119.644156
 30
0.0
 11
200.697052
 21
124.32952
 31
0.0
  0
LINE
  8
0
  6
CONTINUOUS
 62
     0
 10
200.0
 20
109.490332
 30
0.0
 11
202.5
 21
111.990332
 31
0.0
  0
LINE
  8
0
  6
CONTINUOUS
 62
     0
 10
206.509668
 20
116.0
 30
0.0
 11
207.5
 21
116.990332
 31
0.0
  0
LINE
  8
0
  6
CONTINUOUS
 62
     0
 10
200.0
 20
106.661905
 30
0.0
 11
202.5
 21
109.161905
 31
0.0
  0
LINE
  8
0
  6
CONTINUOUS
 62
     0
 10
200.0
 20
103.833478
 30
0.0
 11
202.5
 21
106.333478
 31
0.0
  0
LINE
  8
0
  6
CONTINUOUS
 62
     0
 10
200.0
 20
101.005051
 30
0.0
 11
202.5
 21
103.505051
 31
0.0
  0
LINE
  8
0
  6
CONTINUOUS
 62
     0
 10
202.5
 20
111.455411
 30
0.0
 11
200.0
 21
113.955411
 31
0.0
  0
LINE
  8
0
  6
CONTINUOUS
 62
     0
 10
202.5
 20
108.626984
 30
0.0
 11
200.0
 21
111.126984
 31
0.0
  0
LINE
  8
0
  6
CONTINUOUS
 62
     0
 10
202.5
 20
105.798557
 30
0.0
 11
200.0
 21
108.298557
 31
0.0
  0
LINE
  8
0
  6
CONTINUOUS
 62
     0
 10
202.5
 20
102.970129
 30
0.0
 11
200.0
 21
105.470129
 31
0.0
  0
LINE
  8
0
  6
CONTINUOUS
 62
     0
 10
202.5
 20
100.141702
 30
0.0
 11
200.0
 21
102.641702
 31
0.0
  0
LINE
  8
0
  6
CONTINUOUS
 62
     0
 10
202.5
 20
114.283838
 30
0.0
 11
196.0
 21
120.783838
 31
0.0
  0
LINE
  8
0
  6
CONTINUOUS
 62
     0
 10
203.612265
 20
116.0
 30
0.0
 11
196.0
 21
123.612265
 31
0.0
  0
LINE
  8
0
  6
CONTINUOUS
 62
     0
 10
205.769119
 20
119.5
 30
0.0
 11
201.065502
 21
124.203617
 31
0.0
  0
LINE
  8
0
  6
CONTINUOUS
 62
     0
 10
207.181241
 20
119.5
 30
0.0
 11
208.5
 21
120.818759
 31
0.0
  0
LINE
  8
0
  6
CONTINUOUS
 10
206.5
 20
116.0
 30
0.0
 11
197.5
 21
125.0
 31
0.0
  0
LINE
  8
0
  6
CONTINUOUS
 10
196.0
 20
122.5
 30
0.0
 11
198.5
 21
125.0
 31
0.0
  0
LINE
  8
0
  6
CONTINUOUS
 10
208.5
 20
120.0
 30
0.0
 11
205.278775
 21
123.221225
 31
0.0
  0
LINE
  8
0
  6
CONTINUOUS
 10
202.0
 20
100.0
 30
0.0
 11
202.5
 21
100.5
 31
0.0
  0
LINE
  8
0
  6
DASHED
 10
221.0
 20
125.0
 30
0.0
 11
221.0
 21
130.0
 31
0.0
  0
LINE
  8
0
  6
DASHED
 10
221.0
 20
130.0
 30
0.0
 11
196.0
 21
130.0
 31
0.0
  0
LINE
  8
0
  6
DASHED
 10
196.0
 20
130.0
 30
0.0
 11
196.0
 21
125.0
 31
0.0
  0
LINE
  8
0
  6
DASHED
 10
94.0
 20
128.0
 30
0.0
 11
94.0
 21
135.0
 31
0.0
  0
LINE
  8
0
  6
DASHED
 10
94.0
 20
135.0
 30
0.0
 11
125.0
 21
135.0
 31
0.0
  0
LINE
  8
0
  6
DASHED
 10
125.0
 20
135.0
 30
0.0
 11
125.0
 21
128.0
 31
0.0
  0
LINE
  8
0
  6
CONTINUOUS
 10
203.0
 20
100.0
 30
0.0
 11
203.0
 21
101.0
 31
0.0
  0
LINE
  8
0
  6
CONTINUOUS
 10
208.5
 20
119.5
 30
0.0
 11
205.5
 21
119.5
 31
0.0
  0
ENDSEC
  0
EOF
