  0
SECTION
  2
HEADER
  9
$ACADVER
  1
AC1009
  9
$INSBASE
 10
0.0
 20
0.0
 30
0.0
  9
$EXTMIN
 10
-91.305737
 20
52.427725
 30
0.0
  9
$EXTMAX
 10
333.28728
 20
200.879239
 30
0.0
  9
$LIMMIN
 10
0.0
 20
0.0
  9
$LIMMAX
 10
12.0
 20
9.0
  9
$ORTHOMODE
 70
     1
  9
$REGENMODE
 70
     1
  9
$FILLMODE
 70
     1
  9
$QTEXTMODE
 70
     0
  9
$MIRRTEXT
 70
     1
  9
$DRAGMODE
 70
     2
  9
$LTSCALE
 40
10.0
  9
$OSMODE
 70
     0
  9
$ATTMODE
 70
     1
  9
$TEXTSIZE
 40
0.2
  9
$TRACEWID
 40
0.05
  9
$TEXTSTYLE
  7
STANDARD
  9
$CLAYER
  8
0
  9
$CELTYPE
  6
BYLAYER
  9
$CECOLOR
 62
   256
  9
$DIMSCALE
 40
1.0
  9
$DIMASZ
 40
2.5
  9
$DIMEXO
 40
0.0
  9
$DIMDLI
 40
5.0
  9
$DIMRND
 40
0.0
  9
$DIMDLE
 40
0.0
  9
$DIMEXE
 40
1.0
  9
$DIMTP
 40
0.0
  9
$DIMTM
 40
0.0
  9
$DIMTXT
 40
2.5
  9
$DIMCEN
 40
0.09
  9
$DIMTSZ
 40
0.0
  9
$DIMTOL
 70
     0
  9
$DIMLIM
 70
     0
  9
$DIMTIH
 70
     0
  9
$DIMTOH
 70
     0
  9
$DIMSE1
 70
     0
  9
$DIMSE2
 70
     0
  9
$DIMTAD
 70
     1
  9
$DIMZIN
 70
     0
  9
$DIMBLK
  1

  9
$DIMASO
 70
     0
  9
$DIMSHO
 70
     0
  9
$DIMPOST
  1

  9
$DIMAPOST
  1

  9
$DIMALT
 70
     0
  9
$DIMALTD
 70
     2
  9
$DIMALTF
 40
25.4
  9
$DIMLFAC
 40
1.0
  9
$DIMTOFL
 70
     1
  9
$DIMTVP
 40
0.0
  9
$DIMTIX
 70
     0
  9
$DIMSOXD
 70
     0
  9
$DIMSAH
 70
     0
  9
$DIMBLK1
  1

  9
$DIMBLK2
  1

  9
$DIMSTYLE
  2
*UNNAMED
  9
$DIMCLRD
 70
     0
  9
$DIMCLRE
 70
     0
  9
$DIMCLRT
 70
     0
  9
$DIMTFAC
 40
1.0
  9
$DIMGAP
 40
0.09
  9
$LUNITS
 70
     2
  9
$LUPREC
 70
     4
  9
$SKETCHINC
 40
0.1
  9
$FILLETRAD
 40
2.5
  9
$AUNITS
 70
     0
  9
$AUPREC
 70
     0
  9
$MENU
  1
wiberger
  9
$ELEVATION
 40
0.0
  9
$PELEVATION
 40
0.0
  9
$THICKNESS
 40
0.0
  9
$LIMCHECK
 70
     0
  9
$BLIPMODE
 70
     1
  9
$CHAMFERA
 40
0.0
  9
$CHAMFERB
 40
0.0
  9
$SKPOLY
 70
     0
  9
$TDCREATE
 40
2450190.522071180
  9
$TDUPDATE
 40
2450210.380416204
  9
$TDINDWG
 40
0.0025872685
  9
$TDUSRTIMER
 40
0.0025872685
  9
$USRTIMER
 70
     1
  9
$ANGBASE
 50
0.0
  9
$ANGDIR
 70
     0
  9
$PDMODE
 70
     3
  9
$PDSIZE
 40
1.0
  9
$PLINEWID
 40
0.0
  9
$COORDS
 70
     0
  9
$SPLFRAME
 70
     0
  9
$SPLINETYPE
 70
     6
  9
$SPLINESEGS
 70
     8
  9
$ATTDIA
 70
     0
  9
$ATTREQ
 70
     1
  9
$HANDLING
 70
     0
  9
$HANDSEED
  5
0
  9
$SURFTAB1
 70
     6
  9
$SURFTAB2
 70
     6
  9
$SURFTYPE
 70
     6
  9
$SURFU
 70
     6
  9
$SURFV
 70
     6
  9
$UCSNAME
  2

  9
$UCSORG
 10
0.0
 20
0.0
 30
0.0
  9
$UCSXDIR
 10
1.0
 20
0.0
 30
0.0
  9
$UCSYDIR
 10
0.0
 20
1.0
 30
0.0
  9
$PUCSNAME
  2

  9
$PUCSORG
 10
0.0
 20
0.0
 30
0.0
  9
$PUCSXDIR
 10
1.0
 20
0.0
 30
0.0
  9
$PUCSYDIR
 10
0.0
 20
1.0
 30
0.0
  9
$USERI1
 70
     0
  9
$USERI2
 70
     0
  9
$USERI3
 70
     0
  9
$USERI4
 70
     0
  9
$USERI5
 70
     0
  9
$USERR1
 40
0.0
  9
$USERR2
 40
0.0
  9
$USERR3
 40
0.0
  9
$USERR4
 40
0.0
  9
$USERR5
 40
0.0
  9
$WORLDVIEW
 70
     1
  9
$SHADEDGE
 70
     3
  9
$SHADEDIF
 70
    70
  9
$TILEMODE
 70
     1
  9
$MAXACTVP
 70
    16
  9
$PINSBASE
 10
0.0
 20
0.0
 30
0.0
  9
$PLIMCHECK
 70
     0
  9
$PEXTMIN
 10
1.000000E+20
 20
1.000000E+20
 30
1.000000E+20
  9
$PEXTMAX
 10
-1.000000E+20
 20
-1.000000E+20
 30
-1.000000E+20
  9
$PLIMMIN
 10
0.0
 20
0.0
  9
$PLIMMAX
 10
12.0
 20
9.0
  9
$UNITMODE
 70
     0
  9
$VISRETAIN
 70
     0
  9
$PLINEGEN
 70
     0
  9
$PSLTSCALE
 70
     0
  9
$TREEDEPTH
 70
  3020
  9
$DWGCODEPAGE
  3
undefined
  0
ENDSEC
  0
SECTION
  2
TABLES
  0
TABLE
  2
VPORT
 70
     2
  0
VPORT
  2
*ACTIVE
 70
     0
 10
0.0
 20
0.0
 11
1.0
 21
1.0
 12
185.614369
 22
153.016506
 13
0.0
 23
0.0
 14
1.0
 24
1.0
 15
0.0
 25
0.0
 16
0.0
 26
0.0
 36
1.0
 17
0.0
 27
0.0
 37
0.0
 40
340.03668
 41
1.767507
 42
50.0
 43
0.0
 44
0.0
 50
0.0
 51
0.0
 71
     0
 72
   100
 73
     1
 74
     0
 75
     0
 76
     0
 77
     0
 78
     0
  0
ENDTAB
  0
TABLE
  2
LTYPE
 70
     3
  0
LTYPE
  2
CONTINUOUS
 70
    64
  3
Solid line
 72
    65
 73
     0
 40
0.0
  0
LTYPE
  2
CENTER
 70
    64
  3
____ _ ____ _ ____ _ ____ _ ____ _ ____ _ ____
 72
    65
 73
     4
 40
2.0
 49
1.25
 49
-0.25
 49
0.25
 49
-0.25
  0
LTYPE
  2
HIDDEN
 70
    64
  3
_ _ _ _ _ _ _ _ _ _ _ _ _ _ _ _ _ _ _ _ _ _ _
 72
    65
 73
     2
 40
0.375
 49
0.25
 49
-0.125
  0
ENDTAB
  0
TABLE
  2
LAYER
 70
     1
  0
LAYER
  2
0
 70
    64
 62
     7
  6
CONTINUOUS
  0
ENDTAB
  0
TABLE
  2
STYLE
 70
     1
  0
STYLE
  2
STANDARD
 70
     0
 40
0.0
 41
1.0
 50
0.0
 71
     0
 42
0.2
  3
txt
  4

  0
ENDTAB
  0
TABLE
  2
VIEW
 70
     0
  0
ENDTAB
  0
TABLE
  2
UCS
 70
     0
  0
ENDTAB
  0
TABLE
  2
APPID
 70
     1
  0
APPID
  2
ACAD
 70
    64
  0
ENDTAB
  0
TABLE
  2
DIMSTYLE
 70
     0
  0
ENDTAB
  0
ENDSEC
  0
SECTION
  2
BLOCKS
  0
BLOCK
  8
0
  2
*X0
 70
    65
 10
0.0
 20
0.0
 30
0.0
  3
*X
  0
LINE
  8
0
 62
     0
 10
-124.325085
 20
2.954136
 30
0.0
 11
-121.397667
 21
5.881554
 31
0.0
  0
LINE
  8
0
 62
     0
 10
-124.568915
 20
6.24584
 30
0.0
 11
-123.172271
 21
7.642484
 31
0.0
  0
LINE
  8
0
 62
     0
 10
-108.197667
 20
4.939418
 30
0.0
 11
-105.94153
 21
7.195555
 31
0.0
  0
LINE
  8
0
 62
     0
 10
-107.017555
 20
2.583997
 30
0.0
 11
-105.160076
 21
4.441475
 31
0.0
  0
ENDBLK
  8
0
  0
BLOCK
  8
0
  2
*X1
 70
    65
 10
0.0
 20
0.0
 30
0.0
  3
*X
  0
LINE
  8
0
 62
     0
 10
-98.711098
 20
-20.082841
 30
0.0
 11
-104.411098
 21
-14.382841
 31
0.0
  0
LINE
  8
0
 62
     0
 10
-113.011098
 20
-5.782841
 30
0.0
 11
-118.537619
 21
-0.256321
 31
0.0
  0
LINE
  8
0
 62
     0
 10
-100.292566
 20
-21.3298
 30
0.0
 11
-105.292566
 21
-16.3298
 31
0.0
  0
LINE
  8
0
 62
     0
 10
-115.042566
 20
-6.5798
 30
0.0
 11
-118.711098
 21
-2.911268
 31
0.0
  0
LINE
  8
0
 62
     0
 10
-103.120993
 20
-21.3298
 30
0.0
 11
-105.711098
 21
-18.739696
 31
0.0
  0
LINE
  8
0
 62
     0
 10
-117.870993
 20
-6.5798
 30
0.0
 11
-118.711098
 21
-5.739696
 31
0.0
  0
LINE
  8
0
 62
     0
 10
-113.011098
 20
-11.439696
 30
0.0
 11
-113.870993
 21
-10.5798
 31
0.0
  0
LINE
  8
0
 62
     0
 10
-113.011098
 20
-14.268123
 30
0.0
 11
-116.69942
 21
-10.5798
 31
0.0
  0
LINE
  8
0
 62
     0
 10
-111.711098
 20
-18.39655
 30
0.0
 11
-118.711098
 21
-11.39655
 31
0.0
  0
LINE
  8
0
 62
     0
 10
-111.711098
 20
-21.224977
 30
0.0
 11
-118.711098
 21
-14.224977
 31
0.0
  0
LINE
  8
0
 62
     0
 10
-114.434702
 20
-21.3298
 30
0.0
 11
-118.711098
 21
-17.053404
 31
0.0
  0
LINE
  8
0
 62
     0
 10
-117.263129
 20
-21.3298
 30
0.0
 11
-118.711098
 21
-19.881831
 31
0.0
  0
LINE
  8
0
 62
     0
 10
-98.711098
 20
-17.254414
 30
0.0
 11
-104.411098
 21
-11.554414
 31
0.0
  0
LINE
  8
0
 62
     0
 10
-116.311098
 20
0.345586
 30
0.0
 11
-116.935712
 21
0.9702
 31
0.0
  0
LINE
  8
0
 62
     0
 10
-113.011098
 20
-2.954414
 30
0.0
 11
-114.885712
 21
-1.0798
 31
0.0
  0
LINE
  8
0
 62
     0
 10
-98.711098
 20
-14.425987
 30
0.0
 11
-102.557285
 21
-10.5798
 31
0.0
  0
LINE
  8
0
 62
     0
 10
-98.711098
 20
-11.59756
 30
0.0
 11
-99.728858
 21
-10.5798
 31
0.0
  0
LINE
  8
0
 62
     0
 10
-103.728858
 20
-6.5798
 30
0.0
 11
-104.411098
 21
-5.89756
 31
0.0
  0
LINE
  8
0
 62
     0
 10
-100.900431
 20
-6.5798
 30
0.0
 11
-103.011098
 21
-4.469133
 31
0.0
  0
LINE
  8
0
 62
     0
 10
-98.711098
 20
-5.940706
 30
0.0
 11
-103.011098
 21
-1.640706
 31
0.0
  0
LINE
  8
0
 62
     0
 10
-98.711098
 20
-3.112279
 30
0.0
 11
-101.211098
 21
-0.612279
 31
0.0
  0
ENDBLK
  8
0
  0
BLOCK
  8
0
  2
*X2
 70
    65
 10
0.0
 20
0.0
 30
0.0
  3
*X
  0
LINE
  8
0
 62
     0
 10
-68.301101
 20
-8.066431
 30
0.0
 11
-70.701101
 21
-5.666431
 31
0.0
  0
LINE
  8
0
 62
     0
 10
-68.301101
 20
-10.894858
 30
0.0
 11
-70.701101
 21
-8.494858
 31
0.0
  0
LINE
  8
0
 62
     0
 10
-63.701101
 20
-18.323285
 30
0.0
 11
-65.694586
 21
-16.3298
 31
0.0
  0
LINE
  8
0
 62
     0
 10
-68.301101
 20
-13.723285
 30
0.0
 11
-70.701101
 21
-11.323285
 31
0.0
  0
LINE
  8
0
 62
     0
 10
-63.701101
 20
-21.151712
 30
0.0
 11
-70.701101
 21
-14.151712
 31
0.0
  0
LINE
  8
0
 62
     0
 10
-66.351441
 20
-21.3298
 30
0.0
 11
-70.701101
 21
-16.98014
 31
0.0
  0
LINE
  8
0
 62
     0
 10
-69.179868
 20
-21.3298
 30
0.0
 11
-70.701101
 21
-19.808567
 31
0.0
  0
LINE
  8
0
 62
     0
 10
-68.301101
 20
-5.238004
 30
0.0
 11
-70.701101
 21
-2.838004
 31
0.0
  0
LINE
  8
0
 62
     0
 10
-68.301101
 20
-2.409577
 30
0.0
 11
-70.49099
 21
-0.219688
 31
0.0
  0
LINE
  8
0
 62
     0
 10
-68.301101
 20
0.41885
 30
0.0
 11
-68.852451
 21
0.9702
 31
0.0
  0
ENDBLK
  8
0
  0
BLOCK
  8
0
  2
*X3
 70
    65
 10
0.0
 20
0.0
 30
0.0
  3
*X
  0
LINE
  8
0
 62
     0
 10
-23.398538
 20
14.913256
 30
0.0
 11
-24.642657
 21
16.157375
 31
0.0
  0
LINE
  8
0
 62
     0
 10
-23.398538
 20
12.084829
 30
0.0
 11
-25.798538
 21
14.484829
 31
0.0
  0
LINE
  8
0
 62
     0
 10
-23.398538
 20
9.256402
 30
0.0
 11
-25.798538
 21
11.656402
 31
0.0
  0
LINE
  8
0
 62
     0
 10
-23.822057
 20
6.851495
 30
0.0
 11
-25.798538
 21
8.827975
 31
0.0
  0
LINE
  8
0
 62
     0
 10
-8.023068
 20
10.851495
 30
0.0
 11
-9.298538
 21
12.126965
 31
0.0
  0
LINE
  8
0
 62
     0
 10
-6.770331
 20
12.427186
 30
0.0
 11
-9.53196
 21
15.188814
 31
0.0
  0
ENDBLK
  8
0
  0
BLOCK
  8
0
  2
*X4
 70
    65
 10
0.0
 20
0.0
 30
0.0
  3
*X
  0
LINE
  8
0
 62
     0
 10
-17.276098
 20
31.418234
 30
0.0
 11
-19.676098
 21
33.818234
 31
0.0
  0
LINE
  8
0
 62
     0
 10
-17.276098
 20
28.589807
 30
0.0
 11
-19.676098
 21
30.989807
 31
0.0
  0
LINE
  8
0
 62
     0
 10
-17.276098
 20
25.76138
 30
0.0
 11
-19.676098
 21
28.16138
 31
0.0
  0
LINE
  8
0
 62
     0
 10
-17.789765
 20
23.44662
 30
0.0
 11
-19.676098
 21
25.332953
 31
0.0
  0
LINE
  8
0
 62
     0
 10
-18.276098
 20
21.104525
 30
0.0
 11
-19.676098
 21
22.504525
 31
0.0
  0
LINE
  8
0
 62
     0
 10
-18.276098
 20
18.276098
 30
0.0
 11
-19.676098
 21
19.676098
 31
0.0
  0
LINE
  8
0
 62
     0
 10
-18.676098
 20
15.847671
 30
0.0
 11
-19.676098
 21
16.847671
 31
0.0
  0
LINE
  8
0
 62
     0
 10
-18.676098
 20
13.019244
 30
0.0
 11
-19.676098
 21
14.019244
 31
0.0
  0
LINE
  8
0
 62
     0
 10
-18.931901
 20
10.44662
 30
0.0
 11
-19.676098
 21
11.190817
 31
0.0
  0
LINE
  8
0
 62
     0
 10
-17.276098
 20
34.246661
 30
0.0
 11
-19.676098
 21
36.646661
 31
0.0
  0
LINE
  8
0
 62
     0
 10
-17.276098
 20
37.075088
 30
0.0
 11
-19.676098
 21
39.475088
 31
0.0
  0
LINE
  8
0
 62
     0
 10
-17.276098
 20
39.903515
 30
0.0
 11
-19.676098
 21
42.303515
 31
0.0
  0
LINE
  8
0
 62
     0
 10
-17.276098
 20
42.731942
 30
0.0
 11
-19.676098
 21
45.131942
 31
0.0
  0
LINE
  8
0
 62
     0
 10
-17.276098
 20
45.56037
 30
0.0
 11
-19.662348
 21
47.94662
 31
0.0
  0
LINE
  8
0
 62
     0
 10
-15.155883
 20
46.268581
 30
0.0
 11
-16.833921
 21
47.94662
 31
0.0
  0
LINE
  8
0
 62
     0
 10
-19.333921
 20
50.44662
 30
0.0
 11
-19.676098
 21
50.788797
 31
0.0
  0
LINE
  8
0
 62
     0
 10
-13.362732
 20
47.303858
 30
0.0
 11
-18.505494
 21
52.44662
 31
0.0
  0
LINE
  8
0
 62
     0
 10
-13.176098
 20
49.945651
 30
0.0
 11
-15.677067
 21
52.44662
 31
0.0
  0
ENDBLK
  8
0
  0
BLOCK
  8
0
  2
*X5
 70
    65
 10
0.0
 20
0.0
 30
0.0
  3
*X
  0
LINE
  8
0
 62
     0
 10
-67.90549
 20
2.098081
 30
0.0
 11
-67.322967
 21
2.680605
 31
0.0
  0
LINE
  8
0
 62
     0
 10
-65.50549
 20
4.498081
 30
0.0
 11
-64.40549
 21
5.598081
 31
0.0
  0
LINE
  8
0
 62
     0
 10
-65.50549
 20
6.619402
 30
0.0
 11
-64.40549
 21
7.719402
 31
0.0
  0
LINE
  8
0
 62
     0
 10
-67.801646
 20
0.080605
 30
0.0
 11
-64.40549
 21
3.476761
 31
0.0
  0
LINE
  8
0
 62
     0
 10
-65.680326
 20
0.080605
 30
0.0
 11
-64.40549
 21
1.355441
 31
0.0
  0
ENDBLK
  8
0
  0
BLOCK
  8
0
  2
*X6
 70
    65
 10
0.0
 20
0.0
 30
0.0
  3
*X
  0
LINE
  8
0
 62
     0
 10
-111.388458
 20
-1.0798
 30
0.0
 11
-110.337034
 21
-0.028376
 31
0.0
  0
LINE
  8
0
 62
     0
 10
-113.509778
 20
-1.0798
 30
0.0
 11
-110.337034
 21
2.092944
 31
0.0
  0
LINE
  8
0
 62
     0
 10
-113.837034
 20
0.714264
 30
0.0
 11
-113.031099
 21
1.5202
 31
0.0
  0
LINE
  8
0
 62
     0
 10
-111.437034
 20
3.114264
 30
0.0
 11
-110.337034
 21
4.214264
 31
0.0
  0
LINE
  8
0
 62
     0
 10
-111.437034
 20
5.235585
 30
0.0
 11
-110.337034
 21
6.335585
 31
0.0
  0
LINE
  8
0
 62
     0
 10
-102.337034
 20
3.728983
 30
0.0
 11
-101.237034
 21
4.828983
 31
0.0
  0
LINE
  8
0
 62
     0
 10
-102.337034
 20
1.607663
 30
0.0
 11
-101.237034
 21
2.707663
 31
0.0
  0
LINE
  8
0
 62
     0
 10
-102.337034
 20
-0.513658
 30
0.0
 11
-100.303177
 21
1.5202
 31
0.0
  0
LINE
  8
0
 62
     0
 10
-100.781856
 20
-1.0798
 30
0.0
 11
-98.837034
 21
0.865022
 31
0.0
  0
ENDBLK
  8
0
  0
BLOCK
  8
0
  2
*X7
 70
    65
 10
0.0
 20
0.0
 30
0.0
  3
*X
  0
LINE
  8
0
 62
     0
 10
-126.038944
 20
-58.8638
 30
0.0
 11
-123.355378
 21
-56.180234
 31
0.0
  0
LINE
  8
0
 62
     0
 10
-127.433771
 20
-56.723093
 30
0.0
 11
-124.553627
 21
-53.842949
 31
0.0
  0
LINE
  8
0
 62
     0
 10
-110.155378
 20
-57.12237
 30
0.0
 11
-107.789101
 21
-54.756092
 31
0.0
  0
LINE
  8
0
 62
     0
 10
-108.361275
 20
-58.8638
 30
0.0
 11
-106.063933
 21
-56.566459
 31
0.0
  0
ENDBLK
  8
0
  0
BLOCK
  8
0
  2
*X8
 70
    65
 10
0.0
 20
0.0
 30
0.0
  3
*X
  0
LINE
  8
0
 62
     0
 10
-23.880041
 20
142.290053
 30
0.0
 11
-19.027931
 21
147.142162
 31
0.0
  0
LINE
  8
0
 62
     0
 10
-23.927931
 20
145.777696
 30
0.0
 11
-19.027931
 21
150.677696
 31
0.0
  0
LINE
  8
0
 62
     0
 10
-23.927931
 20
149.31323
 30
0.0
 11
-19.027931
 21
154.21323
 31
0.0
  0
LINE
  8
0
 62
     0
 10
-15.104589
 20
158.136573
 30
0.0
 11
-12.427931
 21
160.81323
 31
0.0
  0
LINE
  8
0
 62
     0
 10
-23.927931
 20
152.848764
 30
0.0
 11
-19.027931
 21
157.748764
 31
0.0
  0
LINE
  8
0
 62
     0
 10
-18.640122
 20
158.136573
 30
0.0
 11
-12.427931
 21
164.348764
 31
0.0
  0
LINE
  8
0
 62
     0
 10
-23.927931
 20
156.384298
 30
0.0
 11
-12.427931
 21
167.884298
 31
0.0
  0
LINE
  8
0
 62
     0
 10
-23.927931
 20
159.919832
 30
0.0
 11
-12.427931
 21
171.419832
 31
0.0
  0
LINE
  8
0
 62
     0
 10
-23.927931
 20
163.455366
 30
0.0
 11
-12.427931
 21
174.955366
 31
0.0
  0
LINE
  8
0
 62
     0
 10
-23.927931
 20
166.9909
 30
0.0
 11
-12.427931
 21
178.4909
 31
0.0
  0
LINE
  8
0
 62
     0
 10
-23.927931
 20
170.526434
 30
0.0
 11
-13.531373
 21
180.922992
 31
0.0
  0
LINE
  8
0
 62
     0
 10
-23.927931
 20
174.061967
 30
0.0
 11
-17.321155
 21
180.668743
 31
0.0
  0
LINE
  8
0
 62
     0
 10
-23.740527
 20
177.784906
 30
0.0
 11
-21.557847
 21
179.967585
 31
0.0
  0
LINE
  8
0
 62
     0
 10
-23.636211
 20
138.998349
 30
0.0
 11
-19.027931
 21
143.606628
 31
0.0
  0
LINE
  8
0
 62
     0
 10
-23.392381
 20
135.706645
 30
0.0
 11
-19.027931
 21
140.071095
 31
0.0
  0
LINE
  8
0
 62
     0
 10
-23.148551
 20
132.414941
 30
0.0
 11
-19.027931
 21
136.535561
 31
0.0
  0
LINE
  8
0
 62
     0
 10
-22.904721
 20
129.123237
 30
0.0
 11
-19.027931
 21
133.000027
 31
0.0
  0
LINE
  8
0
 62
     0
 10
-22.660891
 20
125.831533
 30
0.0
 11
-19.027931
 21
129.464493
 31
0.0
  0
LINE
  8
0
 62
     0
 10
-22.417061
 20
122.539829
 30
0.0
 11
-19.027931
 21
125.928959
 31
0.0
  0
LINE
  8
0
 62
     0
 10
-22.173231
 20
119.248125
 30
0.0
 11
-19.027931
 21
122.393425
 31
0.0
  0
LINE
  8
0
 62
     0
 10
-21.929401
 20
115.956421
 30
0.0
 11
-19.027931
 21
118.857891
 31
0.0
  0
LINE
  8
0
 62
     0
 10
-19.027931
 20
146.307152
 30
0.0
 11
-23.927931
 21
151.207152
 31
0.0
  0
LINE
  8
0
 62
     0
 10
-19.027931
 20
142.771618
 30
0.0
 11
-23.927931
 21
147.671618
 31
0.0
  0
LINE
  8
0
 62
     0
 10
-19.027931
 20
139.236084
 30
0.0
 11
-23.927931
 21
144.136084
 31
0.0
  0
LINE
  8
0
 62
     0
 10
-19.027931
 20
135.70055
 30
0.0
 11
-23.741049
 21
140.413668
 31
0.0
  0
LINE
  8
0
 62
     0
 10
-19.027931
 20
132.165016
 30
0.0
 11
-23.458207
 21
136.595292
 31
0.0
  0
LINE
  8
0
 62
     0
 10
-19.027931
 20
128.629482
 30
0.0
 11
-23.175364
 21
132.776915
 31
0.0
  0
LINE
  8
0
 62
     0
 10
-19.027931
 20
125.093948
 30
0.0
 11
-22.892521
 21
128.958538
 31
0.0
  0
LINE
  8
0
 62
     0
 10
-19.027931
 20
121.558415
 30
0.0
 11
-22.609679
 21
125.140162
 31
0.0
  0
LINE
  8
0
 62
     0
 10
-19.027931
 20
118.022881
 30
0.0
 11
-22.326836
 21
121.321785
 31
0.0
  0
LINE
  8
0
 62
     0
 10
-20.477157
 20
115.936573
 30
0.0
 11
-22.043993
 21
117.503409
 31
0.0
  0
LINE
  8
0
 62
     0
 10
-19.027931
 20
149.842686
 30
0.0
 11
-23.927931
 21
154.742686
 31
0.0
  0
LINE
  8
0
 62
     0
 10
-19.027931
 20
153.37822
 30
0.0
 11
-23.927931
 21
158.27822
 31
0.0
  0
LINE
  8
0
 62
     0
 10
-19.027931
 20
156.913754
 30
0.0
 11
-23.927931
 21
161.813754
 31
0.0
  0
LINE
  8
0
 62
     0
 10
-16.715217
 20
158.136573
 30
0.0
 11
-23.927931
 21
165.349287
 31
0.0
  0
LINE
  8
0
 62
     0
 10
-13.179683
 20
158.136573
 30
0.0
 11
-23.927931
 21
168.884821
 31
0.0
  0
LINE
  8
0
 62
     0
 10
-12.427931
 20
160.920355
 30
0.0
 11
-23.927931
 21
172.420355
 31
0.0
  0
LINE
  8
0
 62
     0
 10
-12.427931
 20
164.455889
 30
0.0
 11
-23.927931
 21
175.955889
 31
0.0
  0
LINE
  8
0
 62
     0
 10
-12.427931
 20
167.991423
 30
0.0
 11
-23.212248
 21
178.77574
 31
0.0
  0
LINE
  8
0
 62
     0
 10
-12.427931
 20
171.526957
 30
0.0
 11
-21.008732
 21
180.107758
 31
0.0
  0
LINE
  8
0
 62
     0
 10
-12.427931
 20
175.062491
 30
0.0
 11
-17.959464
 21
180.594024
 31
0.0
  0
LINE
  8
0
 62
     0
 10
-12.427931
 20
178.598025
 30
0.0
 11
-14.708441
 21
180.878535
 31
0.0
  0
ENDBLK
  8
0
  0
BLOCK
  8
0
  2
*X9
 70
    65
 10
0.0
 20
0.0
 30
0.0
  3
*X
  0
LINE
  8
0
 62
     0
 10
27.960708
 20
130.491191
 30
0.0
 11
32.960708
 21
135.491191
 31
0.0
  0
LINE
  8
0
 62
     0
 10
24.425174
 20
130.491191
 30
0.0
 11
29.425174
 21
135.491191
 31
0.0
  0
LINE
  8
0
 62
     0
 10
20.88964
 20
130.491191
 30
0.0
 11
25.88964
 21
135.491191
 31
0.0
  0
LINE
  8
0
 62
     0
 10
17.354106
 20
130.491191
 30
0.0
 11
22.354106
 21
135.491191
 31
0.0
  0
LINE
  8
0
 62
     0
 10
13.818572
 20
130.491191
 30
0.0
 11
18.818572
 21
135.491191
 31
0.0
  0
LINE
  8
0
 62
     0
 10
10.283038
 20
130.491191
 30
0.0
 11
15.015786
 21
135.223939
 31
0.0
  0
LINE
  8
0
 62
     0
 10
6.747504
 20
130.491191
 30
0.0
 11
11.197409
 21
134.941096
 31
0.0
  0
LINE
  8
0
 62
     0
 10
3.21197
 20
130.491191
 30
0.0
 11
7.379033
 21
134.658253
 31
0.0
  0
LINE
  8
0
 62
     0
 10
-0.323563
 20
130.491191
 30
0.0
 11
3.560656
 21
134.375411
 31
0.0
  0
LINE
  8
0
 62
     0
 10
-3.859097
 20
130.491191
 30
0.0
 11
-0.25772
 21
134.092568
 31
0.0
  0
LINE
  8
0
 62
     0
 10
-7.394631
 20
130.491191
 30
0.0
 11
-4.076097
 21
133.809725
 31
0.0
  0
LINE
  8
0
 62
     0
 10
-8.376309
 20
133.045047
 30
0.0
 11
-7.894474
 21
133.526883
 31
0.0
  0
LINE
  8
0
 62
     0
 10
31.596242
 20
130.591191
 30
0.0
 11
36.496242
 21
135.491191
 31
0.0
  0
LINE
  8
0
 62
     0
 10
33.823691
 20
129.283106
 30
0.0
 11
40.031776
 21
135.491191
 31
0.0
  0
LINE
  8
0
 62
     0
 10
33.823691
 20
125.747573
 30
0.0
 11
43.56731
 21
135.491191
 31
0.0
  0
LINE
  8
0
 62
     0
 10
35.602843
 20
123.991191
 30
0.0
 11
47.102843
 21
135.491191
 31
0.0
  0
LINE
  8
0
 62
     0
 10
39.138377
 20
123.991191
 30
0.0
 11
50.638377
 21
135.491191
 31
0.0
  0
LINE
  8
0
 62
     0
 10
42.673911
 20
123.991191
 30
0.0
 11
53.838091
 21
135.155371
 31
0.0
  0
LINE
  8
0
 62
     0
 10
46.209445
 20
123.991191
 30
0.0
 11
55.567776
 21
133.349522
 31
0.0
  0
LINE
  8
0
 62
     0
 10
49.744979
 20
123.991191
 30
0.0
 11
56.162069
 21
130.408281
 31
0.0
  0
LINE
  8
0
 62
     0
 10
53.280513
 20
123.991191
 30
0.0
 11
56.507412
 21
127.21809
 31
0.0
  0
LINE
  8
0
 62
     0
 10
21.536767
 20
130.491191
 30
0.0
 11
16.680693
 21
135.347265
 31
0.0
  0
LINE
  8
0
 62
     0
 10
18.001233
 20
130.491191
 30
0.0
 11
13.388989
 21
135.103435
 31
0.0
  0
LINE
  8
0
 62
     0
 10
14.465699
 20
130.491191
 30
0.0
 11
10.097285
 21
134.859605
 31
0.0
  0
LINE
  8
0
 62
     0
 10
10.930165
 20
130.491191
 30
0.0
 11
6.805581
 21
134.615775
 31
0.0
  0
LINE
  8
0
 62
     0
 10
7.394631
 20
130.491191
 30
0.0
 11
3.513877
 21
134.371946
 31
0.0
  0
LINE
  8
0
 62
     0
 10
3.859097
 20
130.491191
 30
0.0
 11
0.222173
 21
134.128116
 31
0.0
  0
LINE
  8
0
 62
     0
 10
0.323563
 20
130.491191
 30
0.0
 11
-3.069531
 21
133.884286
 31
0.0
  0
LINE
  8
0
 62
     0
 10
-3.21197
 20
130.491191
 30
0.0
 11
-6.361235
 21
133.640456
 31
0.0
  0
LINE
  8
0
 62
     0
 10
-6.747504
 20
130.491191
 30
0.0
 11
-8.376309
 21
132.119996
 31
0.0
  0
LINE
  8
0
 62
     0
 10
25.072301
 20
130.491191
 30
0.0
 11
20.072301
 21
135.491191
 31
0.0
  0
LINE
  8
0
 62
     0
 10
35.107835
 20
123.991191
 30
0.0
 11
33.823691
 21
125.275335
 31
0.0
  0
LINE
  8
0
 62
     0
 10
28.507835
 20
130.591191
 30
0.0
 11
23.607835
 21
135.491191
 31
0.0
  0
LINE
  8
0
 62
     0
 10
38.643369
 20
123.991191
 30
0.0
 11
33.823691
 21
128.810869
 31
0.0
  0
LINE
  8
0
 62
     0
 10
32.043369
 20
130.591191
 30
0.0
 11
27.143369
 21
135.491191
 31
0.0
  0
LINE
  8
0
 62
     0
 10
42.178903
 20
123.991191
 30
0.0
 11
30.678903
 21
135.491191
 31
0.0
  0
LINE
  8
0
 62
     0
 10
45.714436
 20
123.991191
 30
0.0
 11
34.214436
 21
135.491191
 31
0.0
  0
LINE
  8
0
 62
     0
 10
49.24997
 20
123.991191
 30
0.0
 11
37.74997
 21
135.491191
 31
0.0
  0
LINE
  8
0
 62
     0
 10
52.785504
 20
123.991191
 30
0.0
 11
41.285504
 21
135.491191
 31
0.0
  0
LINE
  8
0
 62
     0
 10
56.321038
 20
123.991191
 30
0.0
 11
44.821038
 21
135.491191
 31
0.0
  0
LINE
  8
0
 62
     0
 10
56.497692
 20
127.350072
 30
0.0
 11
48.356572
 21
135.491191
 31
0.0
  0
LINE
  8
0
 62
     0
 10
56.012111
 20
131.371186
 30
0.0
 11
51.892106
 21
135.491191
 31
0.0
  0
ENDBLK
  8
0
  0
BLOCK
  8
0
  2
*X10
 70
    65
 10
0.0
 20
0.0
 30
0.0
  3
*X
  0
LINE
  8
0
 62
     0
 10
171.950793
 20
168.415259
 30
0.0
 11
178.350793
 21
174.815259
 31
0.0
  0
LINE
  8
0
 62
     0
 10
179.824356
 20
176.288822
 30
0.0
 11
184.950793
 21
181.415259
 31
0.0
  0
LINE
  8
0
 62
     0
 10
171.950793
 20
171.950793
 30
0.0
 11
184.950793
 21
184.950793
 31
0.0
  0
LINE
  8
0
 62
     0
 10
171.950793
 20
175.486327
 30
0.0
 11
184.950793
 21
188.486327
 31
0.0
  0
LINE
  8
0
 62
     0
 10
171.950793
 20
179.021861
 30
0.0
 11
184.950793
 21
192.021861
 31
0.0
  0
LINE
  8
0
 62
     0
 10
171.950793
 20
182.557395
 30
0.0
 11
184.950793
 21
195.557395
 31
0.0
  0
LINE
  8
0
 62
     0
 10
171.950793
 20
186.092929
 30
0.0
 11
184.950793
 21
199.092929
 31
0.0
  0
LINE
  8
0
 62
     0
 10
171.950793
 20
189.628463
 30
0.0
 11
184.950793
 21
202.628463
 31
0.0
  0
LINE
  8
0
 62
     0
 10
171.950793
 20
193.163996
 30
0.0
 11
184.950793
 21
206.163996
 31
0.0
  0
LINE
  8
0
 62
     0
 10
171.950793
 20
196.69953
 30
0.0
 11
184.950793
 21
209.69953
 31
0.0
  0
LINE
  8
0
 62
     0
 10
171.950793
 20
200.235064
 30
0.0
 11
184.950793
 21
213.235064
 31
0.0
  0
LINE
  8
0
 62
     0
 10
171.950793
 20
203.770598
 30
0.0
 11
182.180183
 21
213.999988
 31
0.0
  0
LINE
  8
0
 62
     0
 10
171.950793
 20
207.306132
 30
0.0
 11
178.20401
 21
213.559349
 31
0.0
  0
LINE
  8
0
 62
     0
 10
172.665481
 20
211.556354
 30
0.0
 11
173.331351
 21
212.222224
 31
0.0
  0
LINE
  8
0
 62
     0
 10
171.950793
 20
164.879725
 30
0.0
 11
178.350793
 21
171.279725
 31
0.0
  0
LINE
  8
0
 62
     0
 10
183.35989
 20
176.288822
 30
0.0
 11
184.950793
 21
177.879725
 31
0.0
  0
LINE
  8
0
 62
     0
 10
172.161918
 20
161.555317
 30
0.0
 11
178.350793
 21
167.744191
 31
0.0
  0
LINE
  8
0
 62
     0
 10
172.433883
 20
158.291747
 30
0.0
 11
178.350793
 21
164.208657
 31
0.0
  0
LINE
  8
0
 62
     0
 10
172.705847
 20
155.028177
 30
0.0
 11
178.350793
 21
160.673123
 31
0.0
  0
LINE
  8
0
 62
     0
 10
172.977811
 20
151.764607
 30
0.0
 11
178.350793
 21
157.13759
 31
0.0
  0
LINE
  8
0
 62
     0
 10
173.249775
 20
148.501038
 30
0.0
 11
178.350793
 21
153.602056
 31
0.0
  0
LINE
  8
0
 62
     0
 10
173.521739
 20
145.237468
 30
0.0
 11
178.350793
 21
150.066522
 31
0.0
  0
LINE
  8
0
 62
     0
 10
173.793703
 20
141.973898
 30
0.0
 11
178.350793
 21
146.530988
 31
0.0
  0
LINE
  8
0
 62
     0
 10
174.065667
 20
138.710328
 30
0.0
 11
178.350793
 21
142.995454
 31
0.0
  0
LINE
  8
0
 62
     0
 10
174.337632
 20
135.446759
 30
0.0
 11
178.350793
 21
139.45992
 31
0.0
  0
LINE
  8
0
 62
     0
 10
176.515229
 20
134.088822
 30
0.0
 11
178.350793
 21
135.924386
 31
0.0
  0
LINE
  8
0
 62
     0
 10
178.350793
 20
171.667064
 30
0.0
 11
171.950793
 21
178.067064
 31
0.0
  0
LINE
  8
0
 62
     0
 10
178.350793
 20
168.13153
 30
0.0
 11
171.950793
 21
174.53153
 31
0.0
  0
LINE
  8
0
 62
     0
 10
178.350793
 20
164.595996
 30
0.0
 11
171.950793
 21
170.995996
 31
0.0
  0
LINE
  8
0
 62
     0
 10
178.350793
 20
161.060462
 30
0.0
 11
171.950793
 21
167.460462
 31
0.0
  0
LINE
  8
0
 62
     0
 10
178.350793
 20
157.524928
 30
0.0
 11
171.965692
 21
163.910029
 31
0.0
  0
LINE
  8
0
 62
     0
 10
178.350793
 20
153.989394
 30
0.0
 11
172.287105
 21
160.053082
 31
0.0
  0
LINE
  8
0
 62
     0
 10
178.350793
 20
150.45386
 30
0.0
 11
172.608517
 21
156.196136
 31
0.0
  0
LINE
  8
0
 62
     0
 10
178.350793
 20
146.918326
 30
0.0
 11
172.929929
 21
152.33919
 31
0.0
  0
LINE
  8
0
 62
     0
 10
178.350793
 20
143.382792
 30
0.0
 11
173.251341
 21
148.482244
 31
0.0
  0
LINE
  8
0
 62
     0
 10
178.350793
 20
139.847259
 30
0.0
 11
173.572753
 21
144.625298
 31
0.0
  0
LINE
  8
0
 62
     0
 10
178.350793
 20
136.311725
 30
0.0
 11
173.894166
 21
140.768352
 31
0.0
  0
LINE
  8
0
 62
     0
 10
177.038162
 20
134.088822
 30
0.0
 11
174.215578
 21
136.911406
 31
0.0
  0
LINE
  8
0
 62
     0
 10
178.350793
 20
175.202598
 30
0.0
 11
171.950793
 21
181.602598
 31
0.0
  0
LINE
  8
0
 62
     0
 10
180.800102
 20
176.288822
 30
0.0
 11
171.950793
 21
185.138131
 31
0.0
  0
LINE
  8
0
 62
     0
 10
184.335636
 20
176.288822
 30
0.0
 11
171.950793
 21
188.673665
 31
0.0
  0
LINE
  8
0
 62
     0
 10
184.950793
 20
179.209199
 30
0.0
 11
171.950793
 21
192.209199
 31
0.0
  0
LINE
  8
0
 62
     0
 10
184.950793
 20
182.744733
 30
0.0
 11
171.950793
 21
195.744733
 31
0.0
  0
LINE
  8
0
 62
     0
 10
184.950793
 20
186.280267
 30
0.0
 11
171.950793
 21
199.280267
 31
0.0
  0
LINE
  8
0
 62
     0
 10
184.950793
 20
189.815801
 30
0.0
 11
171.950793
 21
202.815801
 31
0.0
  0
LINE
  8
0
 62
     0
 10
184.950793
 20
193.351335
 30
0.0
 11
171.950793
 21
206.351335
 31
0.0
  0
LINE
  8
0
 62
     0
 10
184.950793
 20
196.886869
 30
0.0
 11
171.97659
 21
209.861072
 31
0.0
  0
LINE
  8
0
 62
     0
 10
184.950793
 20
200.422403
 30
0.0
 11
173.230598
 21
212.142597
 31
0.0
  0
LINE
  8
0
 62
     0
 10
184.950793
 20
203.957937
 30
0.0
 11
175.799218
 21
213.109511
 31
0.0
  0
LINE
  8
0
 62
     0
 10
184.950793
 20
207.493471
 30
0.0
 11
178.795666
 21
213.648598
 31
0.0
  0
LINE
  8
0
 62
     0
 10
184.950793
 20
211.029004
 30
0.0
 11
181.992282
 21
213.987515
 31
0.0
  0
ENDBLK
  8
0
  0
BLOCK
  8
0
  2
*X11
 70
    65
 10
0.0
 20
0.0
 30
0.0
  3
*X
  0
LINE
  8
0
 62
     0
 10
236.232584
 20
158.450838
 30
0.0
 11
242.632584
 21
164.850838
 31
0.0
  0
LINE
  8
0
 62
     0
 10
232.69705
 20
158.450838
 30
0.0
 11
239.09705
 21
164.850838
 31
0.0
  0
LINE
  8
0
 62
     0
 10
229.161516
 20
158.450838
 30
0.0
 11
235.561516
 21
164.850838
 31
0.0
  0
LINE
  8
0
 62
     0
 10
225.625982
 20
158.450838
 30
0.0
 11
232.025982
 21
164.850838
 31
0.0
  0
LINE
  8
0
 62
     0
 10
222.090448
 20
158.450838
 30
0.0
 11
228.490448
 21
164.850838
 31
0.0
  0
LINE
  8
0
 62
     0
 10
218.554914
 20
158.450838
 30
0.0
 11
224.826523
 21
164.722447
 31
0.0
  0
LINE
  8
0
 62
     0
 10
215.019381
 20
158.450838
 30
0.0
 11
220.969577
 21
164.401035
 31
0.0
  0
LINE
  8
0
 62
     0
 10
211.483847
 20
158.450838
 30
0.0
 11
217.112631
 21
164.079623
 31
0.0
  0
LINE
  8
0
 62
     0
 10
207.948313
 20
158.450838
 30
0.0
 11
213.255685
 21
163.75821
 31
0.0
  0
LINE
  8
0
 62
     0
 10
204.412779
 20
158.450838
 30
0.0
 11
209.398739
 21
163.436798
 31
0.0
  0
LINE
  8
0
 62
     0
 10
200.877245
 20
158.450838
 30
0.0
 11
205.541793
 21
163.115386
 31
0.0
  0
LINE
  8
0
 62
     0
 10
197.341711
 20
158.450838
 30
0.0
 11
201.684847
 21
162.793974
 31
0.0
  0
LINE
  8
0
 62
     0
 10
196.367217
 20
161.011878
 30
0.0
 11
197.827901
 21
162.472562
 31
0.0
  0
LINE
  8
0
 62
     0
 10
238.567217
 20
157.249937
 30
0.0
 11
246.168118
 21
164.850838
 31
0.0
  0
LINE
  8
0
 62
     0
 10
238.567217
 20
153.714403
 30
0.0
 11
249.703652
 21
164.850838
 31
0.0
  0
LINE
  8
0
 62
     0
 10
240.239186
 20
151.850838
 30
0.0
 11
253.239186
 21
164.850838
 31
0.0
  0
LINE
  8
0
 62
     0
 10
243.77472
 20
151.850838
 30
0.0
 11
256.77472
 21
164.850838
 31
0.0
  0
LINE
  8
0
 62
     0
 10
247.310254
 20
151.850838
 30
0.0
 11
260.310254
 21
164.850838
 31
0.0
  0
LINE
  8
0
 62
     0
 10
250.845787
 20
151.850838
 30
0.0
 11
263.845787
 21
164.850838
 31
0.0
  0
LINE
  8
0
 62
     0
 10
254.381321
 20
151.850838
 30
0.0
 11
267.381321
 21
164.850838
 31
0.0
  0
LINE
  8
0
 62
     0
 10
257.916855
 20
151.850838
 30
0.0
 11
270.916855
 21
164.850838
 31
0.0
  0
LINE
  8
0
 62
     0
 10
261.452389
 20
151.850838
 30
0.0
 11
273.779147
 21
164.177596
 31
0.0
  0
LINE
  8
0
 62
     0
 10
264.987923
 20
151.850838
 30
0.0
 11
275.155171
 21
162.018086
 31
0.0
  0
LINE
  8
0
 62
     0
 10
268.523457
 20
151.850838
 30
0.0
 11
275.757875
 21
159.085256
 31
0.0
  0
LINE
  8
0
 62
     0
 10
272.058991
 20
151.850838
 30
0.0
 11
276.171272
 21
155.963119
 31
0.0
  0
LINE
  8
0
 62
     0
 10
275.594525
 20
151.850838
 30
0.0
 11
276.360435
 21
152.616748
 31
0.0
  0
LINE
  8
0
 62
     0
 10
240.593425
 20
151.850838
 30
0.0
 11
238.567217
 21
153.877047
 31
0.0
  0
LINE
  8
0
 62
     0
 10
233.993425
 20
158.450838
 30
0.0
 11
227.593425
 21
164.850838
 31
0.0
  0
LINE
  8
0
 62
     0
 10
230.457892
 20
158.450838
 30
0.0
 11
224.235532
 21
164.673198
 31
0.0
  0
LINE
  8
0
 62
     0
 10
226.922358
 20
158.450838
 30
0.0
 11
220.971962
 21
164.401234
 31
0.0
  0
LINE
  8
0
 62
     0
 10
223.386824
 20
158.450838
 30
0.0
 11
217.708392
 21
164.129269
 31
0.0
  0
LINE
  8
0
 62
     0
 10
219.85129
 20
158.450838
 30
0.0
 11
214.444823
 21
163.857305
 31
0.0
  0
LINE
  8
0
 62
     0
 10
216.315756
 20
158.450838
 30
0.0
 11
211.181253
 21
163.585341
 31
0.0
  0
LINE
  8
0
 62
     0
 10
212.780222
 20
158.450838
 30
0.0
 11
207.917683
 21
163.313377
 31
0.0
  0
LINE
  8
0
 62
     0
 10
209.244688
 20
158.450838
 30
0.0
 11
204.654113
 21
163.041413
 31
0.0
  0
LINE
  8
0
 62
     0
 10
205.709154
 20
158.450838
 30
0.0
 11
201.390544
 21
162.769449
 31
0.0
  0
LINE
  8
0
 62
     0
 10
202.17362
 20
158.450838
 30
0.0
 11
198.126974
 21
162.497484
 31
0.0
  0
LINE
  8
0
 62
     0
 10
198.638086
 20
158.450838
 30
0.0
 11
196.367217
 21
160.721707
 31
0.0
  0
LINE
  8
0
 62
     0
 10
244.128959
 20
151.850838
 30
0.0
 11
238.567217
 21
157.41258
 31
0.0
  0
LINE
  8
0
 62
     0
 10
237.528959
 20
158.450838
 30
0.0
 11
231.128959
 21
164.850838
 31
0.0
  0
LINE
  8
0
 62
     0
 10
247.664493
 20
151.850838
 30
0.0
 11
234.664493
 21
164.850838
 31
0.0
  0
LINE
  8
0
 62
     0
 10
251.200027
 20
151.850838
 30
0.0
 11
238.200027
 21
164.850838
 31
0.0
  0
LINE
  8
0
 62
     0
 10
254.735561
 20
151.850838
 30
0.0
 11
241.735561
 21
164.850838
 31
0.0
  0
LINE
  8
0
 62
     0
 10
258.271095
 20
151.850838
 30
0.0
 11
245.271095
 21
164.850838
 31
0.0
  0
LINE
  8
0
 62
     0
 10
261.806629
 20
151.850838
 30
0.0
 11
248.806629
 21
164.850838
 31
0.0
  0
LINE
  8
0
 62
     0
 10
265.342163
 20
151.850838
 30
0.0
 11
252.342163
 21
164.850838
 31
0.0
  0
LINE
  8
0
 62
     0
 10
268.877697
 20
151.850838
 30
0.0
 11
255.877697
 21
164.850838
 31
0.0
  0
LINE
  8
0
 62
     0
 10
272.413231
 20
151.850838
 30
0.0
 11
259.413231
 21
164.850838
 31
0.0
  0
LINE
  8
0
 62
     0
 10
275.948765
 20
151.850838
 30
0.0
 11
262.948765
 21
164.850838
 31
0.0
  0
LINE
  8
0
 62
     0
 10
276.245799
 20
155.089337
 30
0.0
 11
266.484298
 21
164.850838
 31
0.0
  0
LINE
  8
0
 62
     0
 10
275.752232
 20
159.118439
 30
0.0
 11
270.019832
 21
164.850838
 31
0.0
  0
ENDBLK
  8
0
  0
ENDSEC
  0
SECTION
  2
ENTITIES
  0
LINE
  8
0
  6
CENTER
 10
-48.868158
 20
81.050411
 30
0.0
 11
-48.868158
 21
179.669675
 31
0.0
  0
LINE
  8
0
 10
-58.868158
 20
84.7862
 30
0.0
 11
-58.868158
 21
105.6862
 31
0.0
  0
LINE
  8
0
 10
-38.868158
 20
84.7862
 30
0.0
 11
-38.868158
 21
89.7862
 31
0.0
  0
LINE
  8
0
 10
-58.868158
 20
84.7862
 30
0.0
 11
-38.868158
 21
84.7862
 31
0.0
  0
LINE
  8
0
 10
-57.468158
 20
107.0862
 30
0.0
 11
-56.368158
 21
107.0862
 31
0.0
  0
LINE
  8
0
 10
-58.868158
 20
105.6862
 30
0.0
 11
-57.468158
 21
107.0862
 31
0.0
  0
LINE
  8
0
 10
-53.968158
 20
89.7862
 30
0.0
 11
-48.868158
 21
89.7862
 31
0.0
  0
ARC
  8
0
 10
-43.839869
 20
103.0862
 30
0.0
 40
4.0
 50
0.0
 51
90.0
  0
ARC
  8
0
 10
-48.868158
 20
97.5362
 30
0.0
 40
7.5
 50
180.0
 51
270.0
  0
LINE
  8
0
 10
-56.468158
 20
92.2862
 30
0.0
 11
-56.468158
 21
107.0862
 31
0.0
  0
ARC
  8
0
 10
-53.968158
 20
92.2862
 30
0.0
 40
2.5
 50
180.0
 51
270.0
  0
LINE
  8
0
 10
-56.368158
 20
104.0362
 30
0.0
 11
-52.868158
 21
104.0362
 31
0.0
  0
LINE
  8
0
 10
-56.368158
 20
97.5362
 30
0.0
 11
-56.368158
 21
104.0362
 31
0.0
  0
LINE
  8
0
 10
-52.868158
 20
104.0362
 30
0.0
 11
-52.868158
 21
116.2362
 31
0.0
  0
LINE
  8
0
 10
-44.868158
 20
107.0862
 30
0.0
 11
-44.868158
 21
107.6362
 31
0.0
  0
ARC
  8
0
 10
-48.868158
 20
97.5362
 30
0.0
 40
5.35
 50
90.0
 51
270.0
  0
ARC
  8
0
 10
-48.868158
 20
97.5362
 30
0.0
 40
3.55
 50
90.0
 51
270.0
  0
ARC
  8
0
 10
-48.868158
 20
97.5362
 30
0.0
 40
4.95
 50
90.0
 51
270.0
  0
ARC
  8
0
 10
-48.868158
 20
97.5362
 30
0.0
 40
3.95
 50
90.0
 51
270.0
  0
ARC
  8
0
 10
-48.868158
 20
93.0862
 30
0.0
 40
0.661151
 50
90.0
 51
127.995696
  0
ARC
  8
0
 10
-48.868158
 20
93.0862
 30
0.0
 40
0.661151
 50
226.423642
 51
270.0
  0
LINE
  8
0
 10
-48.868158
 20
107.0862
 30
0.0
 11
-43.839869
 21
107.0862
 31
0.0
  0
LINE
  8
0
 10
-52.868158
 20
139.0862
 30
0.0
 11
-48.868158
 21
139.0862
 31
0.0
  0
LINE
  8
0
 10
-51.868158
 20
126.7862
 30
0.0
 11
-51.868158
 21
139.0862
 31
0.0
  0
LINE
  8
0
 10
-51.868158
 20
126.7862
 30
0.0
 11
-48.868158
 21
126.7862
 31
0.0
  0
LINE
  8
0
 10
-53.768158
 20
116.2362
 30
0.0
 11
-52.368158
 21
116.2362
 31
0.0
  0
LINE
  8
0
 10
-53.768158
 20
117.0362
 30
0.0
 11
-52.368158
 21
117.0362
 31
0.0
  0
LINE
  8
0
 10
-52.368158
 20
116.2362
 30
0.0
 11
-52.368158
 21
117.0362
 31
0.0
  0
LINE
  8
0
 10
-53.768158
 20
116.2362
 30
0.0
 11
-53.768158
 21
117.0362
 31
0.0
  0
LINE
  8
0
 10
-52.868158
 20
117.0362
 30
0.0
 11
-52.868158
 21
139.0862
 31
0.0
  0
LINE
  8
0
 10
-56.468158
 20
105.0362
 30
0.0
 11
-52.868158
 21
105.0362
 31
0.0
  0
LINE
  8
0
 10
-56.368158
 20
105.0362
 30
0.0
 11
-56.368158
 21
107.6362
 31
0.0
  0
LINE
  8
0
 10
-41.368158
 20
106.231139
 30
0.0
 11
-41.368158
 21
107.6362
 31
0.0
  0
LINE
  8
0
 10
-58.368158
 20
107.6362
 30
0.0
 11
-53.968158
 21
107.6362
 31
0.0
  0
LINE
  8
0
 10
-54.368158
 20
107.6362
 30
0.0
 11
-54.368158
 21
113.1362
 31
0.0
  0
LINE
  8
0
 10
-53.968158
 20
107.6362
 30
0.0
 11
-53.968158
 21
120.6362
 31
0.0
  0
LINE
  8
0
 10
-54.368158
 20
113.1362
 30
0.0
 11
-52.868158
 21
113.1362
 31
0.0
  0
LINE
  8
0
 10
-55.368158
 20
107.6362
 30
0.0
 11
-55.368158
 21
145.1362
 31
0.0
  0
LINE
  8
0
 10
-54.868158
 20
149.6362
 30
0.0
 11
-48.868158
 21
149.6362
 31
0.0
  0
LINE
  8
0
 10
-55.368158
 20
149.1362
 30
0.0
 11
-54.868158
 21
149.6362
 31
0.0
  0
LINE
  8
0
 10
-52.968158
 20
143.2362
 30
0.0
 11
-48.868158
 21
143.2362
 31
0.0
  0
LINE
  8
0
 10
-55.368158
 20
147.6362
 30
0.0
 11
-52.368158
 21
147.6362
 31
0.0
  0
LINE
  8
0
 10
-55.368158
 20
145.1362
 30
0.0
 11
-52.368158
 21
145.1362
 31
0.0
  0
LINE
  8
0
 10
-52.368158
 20
145.1362
 30
0.0
 11
-52.368158
 21
147.6362
 31
0.0
  0
LINE
  8
0
 10
-55.368158
 20
147.6362
 30
0.0
 11
-55.368158
 21
149.1362
 31
0.0
  0
LINE
  8
0
 10
-52.968158
 20
120.6362
 30
0.0
 11
-52.968158
 21
143.2362
 31
0.0
  0
LINE
  8
0
 10
-51.232392
 20
143.2362
 30
0.0
 11
-48.868158
 21
144.601191
 31
0.0
  0
LINE
  8
0
 10
-53.968158
 20
120.6362
 30
0.0
 11
-52.868158
 21
120.6362
 31
0.0
  0
LINE
  8
0
 10
-48.868158
 20
107.6362
 30
0.0
 11
-39.368158
 21
107.6362
 31
0.0
  0
CIRCLE
  8
0
 10
-51.363316
 20
142.8362
 30
0.0
 40
0.4
  0
CIRCLE
  8
0
 10
-51.363316
 20
127.1862
 30
0.0
 40
0.4
  0
CIRCLE
  8
0
 10
-51.363316
 20
141.2712
 30
0.0
 40
0.4
  0
CIRCLE
  8
0
 10
-51.363316
 20
139.7062
 30
0.0
 40
0.4
  0
CIRCLE
  8
0
 10
-51.363316
 20
138.1412
 30
0.0
 40
0.4
  0
CIRCLE
  8
0
 10
-51.363316
 20
136.5762
 30
0.0
 40
0.4
  0
CIRCLE
  8
0
 10
-51.363316
 20
135.0112
 30
0.0
 40
0.4
  0
CIRCLE
  8
0
 10
-51.363316
 20
133.4462
 30
0.0
 40
0.4
  0
CIRCLE
  8
0
 10
-51.363316
 20
131.8812
 30
0.0
 40
0.4
  0
CIRCLE
  8
0
 10
-51.363316
 20
130.3162
 30
0.0
 40
0.4
  0
CIRCLE
  8
0
 10
-51.363316
 20
128.7512
 30
0.0
 40
0.4
  0
LINE
  8
0
 10
-51.301352
 20
126.791028
 30
0.0
 11
-48.868158
 21
127.172562
 31
0.0
  0
LINE
  8
0
 10
-51.42528
 20
127.581371
 30
0.0
 11
-48.868158
 21
127.982337
 31
0.0
  0
LINE
  8
0
 10
-51.363316
 20
142.4362
 30
0.0
 11
-48.868158
 21
142.4362
 31
0.0
  0
LINE
  8
0
 10
-51.42528
 20
129.146371
 30
0.0
 11
-48.868158
 21
129.547337
 31
0.0
  0
LINE
  8
0
 10
-51.301352
 20
128.356028
 30
0.0
 11
-48.868158
 21
128.737562
 31
0.0
  0
LINE
  8
0
 10
-51.42528
 20
130.711371
 30
0.0
 11
-48.868158
 21
131.112337
 31
0.0
  0
LINE
  8
0
 10
-51.301352
 20
129.921028
 30
0.0
 11
-48.868158
 21
130.302562
 31
0.0
  0
LINE
  8
0
 10
-51.42528
 20
132.276371
 30
0.0
 11
-48.868158
 21
132.677337
 31
0.0
  0
LINE
  8
0
 10
-51.301352
 20
131.486028
 30
0.0
 11
-48.868158
 21
131.867562
 31
0.0
  0
LINE
  8
0
 10
-51.42528
 20
133.841371
 30
0.0
 11
-48.868158
 21
134.242337
 31
0.0
  0
LINE
  8
0
 10
-51.301352
 20
133.051028
 30
0.0
 11
-48.868158
 21
133.432562
 31
0.0
  0
LINE
  8
0
 10
-51.42528
 20
135.406371
 30
0.0
 11
-48.868158
 21
135.807337
 31
0.0
  0
LINE
  8
0
 10
-51.301352
 20
134.616028
 30
0.0
 11
-48.868158
 21
134.997562
 31
0.0
  0
LINE
  8
0
 10
-51.42528
 20
136.971371
 30
0.0
 11
-48.868158
 21
137.372337
 31
0.0
  0
LINE
  8
0
 10
-51.301352
 20
136.181028
 30
0.0
 11
-48.868158
 21
136.562562
 31
0.0
  0
LINE
  8
0
 10
-51.42528
 20
138.536371
 30
0.0
 11
-48.868158
 21
138.937337
 31
0.0
  0
LINE
  8
0
 10
-51.301352
 20
137.746028
 30
0.0
 11
-48.868158
 21
138.127562
 31
0.0
  0
LINE
  8
0
 10
-51.42528
 20
140.101371
 30
0.0
 11
-48.868158
 21
140.502337
 31
0.0
  0
LINE
  8
0
 10
-51.301352
 20
139.311028
 30
0.0
 11
-48.868158
 21
139.692562
 31
0.0
  0
LINE
  8
0
 10
-51.42528
 20
141.666371
 30
0.0
 11
-48.868158
 21
142.067337
 31
0.0
  0
LINE
  8
0
 10
-51.301352
 20
140.876028
 30
0.0
 11
-48.868158
 21
141.257562
 31
0.0
  0
CIRCLE
  8
0
 10
-54.468158
 20
146.3862
 30
0.0
 40
1.0
  0
LINE
  8
0
 10
-55.468158
 20
107.6362
 30
0.0
 11
-55.468158
 21
149.8362
 31
0.0
  0
LINE
  8
0
 10
-55.468158
 20
149.8362
 30
0.0
 11
-48.868158
 21
149.8362
 31
0.0
  0
LINE
  8
0
 10
-54.468158
 20
147.3862
 30
0.0
 11
-52.368158
 21
147.3862
 31
0.0
  0
LINE
  8
0
 10
-54.468158
 20
145.3862
 30
0.0
 11
-52.368158
 21
145.3862
 31
0.0
  0
LINE
  8
0
 10
-48.868158
 20
134.6362
 30
0.0
 11
-37.368158
 21
134.6362
 31
0.0
  0
LINE
  8
0
 10
-58.368158
 20
107.6362
 30
0.0
 11
-60.368158
 21
134.6362
 31
0.0
  0
LINE
  8
0
 10
-60.368158
 20
134.6362
 30
0.0
 11
-60.368158
 21
168.354617
 31
0.0
  0
LINE
  8
0
 10
-39.368158
 20
107.6362
 30
0.0
 11
-37.368158
 21
134.6362
 31
0.0
  0
LINE
  8
0
 10
-37.368158
 20
134.6362
 30
0.0
 11
-37.368158
 21
168.354617
 31
0.0
  0
ARC
  8
0
 10
-48.868158
 20
127.802867
 30
0.0
 40
44.833333
 50
78.840063
 51
101.159937
  0
ARC
  8
0
 10
-56.868158
 20
168.354617
 30
0.0
 40
3.5
 50
101.159937
 51
180.0
  0
ARC
  8
0
 10
-40.868158
 20
168.354617
 30
0.0
 40
3.5
 50
0.0
 51
78.840063
  0
CIRCLE
  8
0
 10
-48.868158
 20
64.715111
 30
0.0
 40
11.5
  0
CIRCLE
  8
0
 10
168.6912
 20
66.01427
 30
0.0
 40
13.0
  0
LINE
  8
0
  6
HIDDEN
 10
-60.368158
 20
168.354617
 30
0.0
 11
-60.368158
 21
171.454617
 31
0.0
  0
ARC
  8
0
  6
HIDDEN
 10
-56.868158
 20
171.454617
 30
0.0
 40
3.5
 50
101.159937
 51
180.0
  0
ARC
  8
0
  6
HIDDEN
 10
-48.868158
 20
130.902867
 30
0.0
 40
44.833333
 50
78.840063
 51
101.159937
  0
ARC
  8
0
  6
HIDDEN
 10
-40.868158
 20
171.454617
 30
0.0
 40
3.5
 50
0.0
 51
78.840063
  0
LINE
  8
0
  6
HIDDEN
 10
-37.368158
 20
168.354617
 30
0.0
 11
-37.368158
 21
171.454617
 31
0.0
  0
LINE
  8
0
  6
HIDDEN
 10
-67.690656
 20
168.354617
 30
0.0
 11
-67.690656
 21
171.454617
 31
0.0
  0
ARC
  8
0
  6
HIDDEN
 10
-71.190656
 20
171.454617
 30
0.0
 40
3.5
 50
0.0
 51
78.840063
  0
ARC
  8
0
  6
HIDDEN
 10
-79.190656
 20
130.902867
 30
0.0
 40
44.833333
 50
78.840063
 51
101.159937
  0
ARC
  8
0
  6
HIDDEN
 10
-87.190656
 20
171.454617
 30
0.0
 40
3.5
 50
101.159937
 51
180.0
  0
LINE
  8
0
  6
HIDDEN
 10
-90.690656
 20
168.354617
 30
0.0
 11
-90.690656
 21
171.454617
 31
0.0
  0
ARC
  8
0
 10
-71.190656
 20
168.354617
 30
0.0
 40
3.5
 50
0.0
 51
78.840063
  0
ARC
  8
0
 10
-87.190656
 20
168.354617
 30
0.0
 40
3.5
 50
101.159937
 51
180.0
  0
ARC
  8
0
 10
-79.190656
 20
127.802867
 30
0.0
 40
44.833333
 50
78.840063
 51
101.159937
  0
LINE
  8
0
 10
-67.690656
 20
134.6362
 30
0.0
 11
-67.690656
 21
168.354617
 31
0.0
  0
LINE
  8
0
 10
-69.690656
 20
107.6362
 30
0.0
 11
-67.690656
 21
134.6362
 31
0.0
  0
LINE
  8
0
 10
-90.690656
 20
134.6362
 30
0.0
 11
-90.690656
 21
168.354617
 31
0.0
  0
LINE
  8
0
 10
-88.690656
 20
107.6362
 30
0.0
 11
-90.690656
 21
134.6362
 31
0.0
  0
LINE
  8
0
 10
-90.690656
 20
134.6362
 30
0.0
 11
-67.690656
 21
134.6362
 31
0.0
  0
LINE
  8
0
 10
-72.590656
 20
107.6362
 30
0.0
 11
-72.590656
 21
111.846789
 31
0.0
  0
LINE
  8
0
 10
-85.790656
 20
107.6362
 30
0.0
 11
-85.790656
 21
112.787446
 31
0.0
  0
LINE
  8
0
 10
-75.190656
 20
105.0362
 30
0.0
 11
-71.690656
 21
105.0362
 31
0.0
  0
LINE
  8
0
 10
-74.090656
 20
107.6362
 30
0.0
 11
-69.690656
 21
107.6362
 31
0.0
  0
LINE
  8
0
 10
-72.690656
 20
107.6362
 30
0.0
 11
-72.690656
 21
111.851137
 31
0.0
  0
LINE
  8
0
 10
-85.690656
 20
107.6362
 30
0.0
 11
-85.690656
 21
112.798328
 31
0.0
  0
LINE
  8
0
 10
-74.090656
 20
107.6362
 30
0.0
 11
-74.090656
 21
111.912007
 31
0.0
  0
LINE
  8
0
 10
-84.290656
 20
107.6362
 30
0.0
 11
-84.290656
 21
112.948174
 31
0.0
  0
LINE
  8
0
 10
-73.690656
 20
107.6362
 30
0.0
 11
-73.690656
 21
111.894615
 31
0.0
  0
LINE
  8
0
 10
-84.690656
 20
107.6362
 30
0.0
 11
-84.690656
 21
112.90715
 31
0.0
  0
LINE
  8
0
 10
-88.690656
 20
107.6362
 30
0.0
 11
-84.290656
 21
107.6362
 31
0.0
  0
LINE
  8
0
 10
-71.690656
 20
105.0362
 30
0.0
 11
-71.690656
 21
107.6362
 31
0.0
  0
LINE
  8
0
 10
-86.690656
 20
105.0362
 30
0.0
 11
-86.690656
 21
107.6362
 31
0.0
  0
LINE
  8
0
 10
-86.790656
 20
105.0362
 30
0.0
 11
-83.190656
 21
105.0362
 31
0.0
  0
LINE
  8
0
 10
-71.690656
 20
107.0862
 30
0.0
 11
-70.590656
 21
107.0862
 31
0.0
  0
LINE
  8
0
 10
-75.190656
 20
102.4862
 30
0.0
 11
-75.190656
 21
111.959833
 31
0.0
  0
LINE
  8
0
 10
-83.190656
 20
99.5362
 30
0.0
 11
-83.190656
 21
112.79779
 31
0.0
  0
LINE
  8
0
 10
-86.790656
 20
105.0362
 30
0.0
 11
-86.790656
 21
107.0862
 31
0.0
  0
ARC
  8
0
 10
-79.190656
 20
97.5362
 30
0.0
 40
7.5
 50
237.769047
 51
302.230953
  0
LINE
  8
0
 10
-83.490656
 20
89.7862
 30
0.0
 11
-74.890656
 21
89.7862
 31
0.0
  0
LINE
  8
0
 10
-89.190656
 20
105.6862
 30
0.0
 11
-87.790656
 21
107.0862
 31
0.0
  0
LINE
  8
0
 10
-87.790656
 20
107.0862
 30
0.0
 11
-86.690656
 21
107.0862
 31
0.0
  0
LINE
  8
0
 10
-89.190656
 20
84.7862
 30
0.0
 11
-69.190656
 21
84.7862
 31
0.0
  0
LINE
  8
0
 10
-69.190656
 20
84.7862
 30
0.0
 11
-69.190656
 21
105.6862
 31
0.0
  0
LINE
  8
0
 10
-89.190656
 20
84.7862
 30
0.0
 11
-89.190656
 21
105.6862
 31
0.0
  0
LINE
  8
0
  6
CENTER
 10
-79.190656
 20
81.050411
 30
0.0
 11
-79.190656
 21
179.669675
 31
0.0
  0
LINE
  8
0
 10
-83.490656
 20
89.7862
 30
0.0
 11
-83.490656
 21
95.5362
 31
0.0
  0
LINE
  8
0
 10
-74.890656
 20
89.7862
 30
0.0
 11
-74.890656
 21
95.5362
 31
0.0
  0
LINE
  8
0
  6
CENTER
 10
-67.190656
 20
97.5362
 30
0.0
 11
-91.190656
 21
97.5362
 31
0.0
  0
LINE
  8
0
 10
-69.190656
 20
99.5362
 30
0.0
 11
-89.190656
 21
99.5362
 31
0.0
  0
LINE
  8
0
 10
-69.190656
 20
95.5362
 30
0.0
 11
-89.190656
 21
95.5362
 31
0.0
  0
LINE
  8
0
 10
-83.190656
 20
91.191911
 30
0.0
 11
-83.190656
 21
95.5362
 31
0.0
  0
LINE
  8
0
 10
-75.190656
 20
91.191911
 30
0.0
 11
-75.190656
 21
95.5362
 31
0.0
  0
LINE
  8
0
 10
-80.490656
 20
92.1862
 30
0.0
 11
-80.490656
 21
92.5862
 31
0.0
  0
LINE
  8
0
 10
-80.490656
 20
92.1862
 30
0.0
 11
-75.190656
 21
92.1862
 31
0.0
  0
LINE
  8
0
 10
-80.490656
 20
93.9862
 30
0.0
 11
-75.190656
 21
93.9862
 31
0.0
  0
LINE
  8
0
 10
-80.490656
 20
93.747351
 30
0.0
 11
-83.190656
 21
93.747351
 31
0.0
  0
LINE
  8
0
 10
-80.490656
 20
92.425049
 30
0.0
 11
-83.190656
 21
92.425049
 31
0.0
  0
ARC
  8
0
 10
-79.908244
 20
93.0862
 30
0.0
 40
0.5
 50
270.0
 51
90.0
  0
LINE
  8
0
 10
-80.490656
 20
101.0862
 30
0.0
 11
-75.190656
 21
101.0862
 31
0.0
  0
LINE
  8
0
 10
-80.490656
 20
102.8862
 30
0.0
 11
-75.190656
 21
102.8862
 31
0.0
  0
LINE
  8
0
 10
-80.490656
 20
102.8862
 30
0.0
 11
-80.490656
 21
101.0862
 31
0.0
  0
LINE
  8
0
 10
-83.490656
 20
99.5362
 30
0.0
 11
-83.490656
 21
105.0362
 31
0.0
  0
LINE
  8
0
 10
-74.890656
 20
99.5362
 30
0.0
 11
-74.890656
 21
101.4862
 31
0.0
  0
LINE
  8
0
 10
-75.190656
 20
99.5362
 30
0.0
 11
-75.190656
 21
101.4862
 31
0.0
  0
LINE
  8
0
 10
-74.890656
 20
101.375031
 30
0.0
 11
-73.490656
 21
101.375031
 31
0.0
  0
LINE
  8
0
 10
-73.490656
 20
101.375031
 30
0.0
 11
-73.490656
 21
105.0362
 31
0.0
  0
LINE
  8
0
 10
-69.190656
 20
105.6862
 30
0.0
 11
-70.590656
 21
107.0862
 31
0.0
  0
CIRCLE
  8
0
 10
-78.908244
 20
93.0862
 30
0.0
 40
0.5
  0
CIRCLE
  8
0
 10
-77.908244
 20
93.0862
 30
0.0
 40
0.5
  0
CIRCLE
  8
0
 10
-76.908244
 20
93.0862
 30
0.0
 40
0.5
  0
CIRCLE
  8
0
 10
-79.408244
 20
101.9862
 30
0.0
 40
0.5
  0
CIRCLE
  8
0
 10
-78.408244
 20
101.9862
 30
0.0
 40
0.5
  0
CIRCLE
  8
0
 10
-77.408244
 20
101.9862
 30
0.0
 40
0.5
  0
ARC
  8
0
 10
-76.408244
 20
101.9862
 30
0.0
 40
0.5
 50
90.000032
 51
269.999968
  0
LINE
  8
0
 10
-79.908244
 20
93.5862
 30
0.0
 11
-82.742613
 21
93.5862
 31
0.0
  0
LINE
  8
0
 10
-79.908244
 20
92.5862
 30
0.0
 11
-82.742613
 21
92.5862
 31
0.0
  0
LINE
  8
0
 10
-80.490656
 20
93.5862
 30
0.0
 11
-80.490656
 21
93.9862
 31
0.0
  0
LINE
  8
0
 10
-76.408244
 20
102.4862
 30
0.0
 11
-73.608244
 21
102.4862
 31
0.0
  0
LINE
  8
0
 10
-76.408244
 20
101.4862
 30
0.0
 11
-73.608244
 21
101.4862
 31
0.0
  0
LINE
  8
0
 10
-82.742613
 20
92.5862
 30
0.0
 11
-82.742613
 21
93.5862
 31
0.0
  0
LINE
  8
0
 10
-73.608244
 20
101.4862
 30
0.0
 11
-73.608244
 21
102.4862
 31
0.0
  0
LINE
  8
0
 10
-74.890656
 20
102.4862
 30
0.0
 11
-74.890656
 21
105.0362
 31
0.0
  0
LINE
  8
0
 10
-79.408244
 20
93.0862
 30
0.0
 11
-79.357683
 21
93.9862
 31
0.0
  0
LINE
  8
0
 10
-80.380154
 20
93.5862
 30
0.0
 11
-80.357683
 21
93.9862
 31
0.0
  0
LINE
  8
0
 10
-78.408244
 20
93.0862
 30
0.0
 11
-78.357683
 21
93.9862
 31
0.0
  0
LINE
  8
0
 10
-77.408244
 20
93.0862
 30
0.0
 11
-77.357683
 21
93.9862
 31
0.0
  0
LINE
  8
0
 10
-76.408244
 20
93.0862
 30
0.0
 11
-76.357683
 21
93.9862
 31
0.0
  0
LINE
  8
0
 10
-79.958806
 20
101.0862
 30
0.0
 11
-79.908244
 21
101.9862
 31
0.0
  0
LINE
  8
0
 10
-78.958806
 20
101.0862
 30
0.0
 11
-78.908244
 21
101.9862
 31
0.0
  0
LINE
  8
0
 10
-77.958806
 20
101.0862
 30
0.0
 11
-77.908244
 21
101.9862
 31
0.0
  0
LINE
  8
0
 10
-76.958806
 20
101.0862
 30
0.0
 11
-76.908244
 21
101.9862
 31
0.0
  0
LINE
  8
0
 10
-75.958806
 20
101.0862
 30
0.0
 11
-75.936334
 21
101.4862
 31
0.0
  0
LINE
  8
0
 10
-72.310361
 20
111.834602
 30
0.0
 11
-75.659897
 21
111.980234
 31
0.0
  0
LINE
  8
0
 10
-75.659897
 20
111.980234
 30
0.0
 11
-79.03243
 21
111.934316
 31
0.0
  0
LINE
  8
0
 10
-79.03243
 20
111.934316
 30
0.0
 11
-81.485177
 21
112.545429
 31
0.0
  0
LINE
  8
0
 10
-81.485177
 20
112.545429
 30
0.0
 11
-84.252185
 21
112.954865
 31
0.0
  0
LINE
  8
0
 10
-82.190656
 20
84.7862
 30
0.0
 11
-82.190656
 21
89.7862
 31
0.0
  0
LINE
  8
0
 10
-76.190656
 20
84.7862
 30
0.0
 11
-76.190656
 21
89.7862
 31
0.0
  0
LINE
  8
0
 10
-51.868158
 20
84.7862
 30
0.0
 11
-51.868158
 21
89.7862
 31
0.0
  0
LINE
  8
0
 10
-81.690656
 20
84.7862
 30
0.0
 11
-81.690656
 21
89.7862
 31
0.0
  0
LINE
  8
0
 10
-76.690656
 20
84.7862
 30
0.0
 11
-76.690656
 21
89.7862
 31
0.0
  0
LINE
  8
0
 10
-51.368158
 20
84.7862
 30
0.0
 11
-51.368158
 21
89.7862
 31
0.0
  0
LINE
  8
0
 10
-50.033217
 20
96.591405
 30
0.0
 11
-50.42157
 21
96.276473
 31
0.0
  0
LINE
  8
0
 10
-49.830907
 20
96.385932
 30
0.0
 11
-50.151823
 21
96.00251
 31
0.0
  0
LINE
  8
0
 10
-70.190656
 20
99.0362
 30
0.0
 11
-88.190656
 21
99.0362
 31
0.0
  0
LINE
  8
0
 10
-70.190656
 20
96.0362
 30
0.0
 11
-88.190656
 21
96.0362
 31
0.0
  0
LINE
  8
0
 10
-88.190656
 20
95.5362
 30
0.0
 11
-88.190656
 21
99.5362
 31
0.0
  0
LINE
  8
0
 10
-70.190656
 20
95.5362
 30
0.0
 11
-70.190656
 21
99.5362
 31
0.0
  0
LINE
  8
0
 10
-22.539057
 20
96.385932
 30
0.0
 11
-22.859974
 21
96.00251
 31
0.0
  0
LINE
  8
0
 10
-22.741368
 20
96.591405
 30
0.0
 11
-23.129721
 21
96.276473
 31
0.0
  0
ARC
  8
0
 10
-21.576309
 20
97.5362
 30
0.0
 40
1.5
 50
230.071416
 51
219.040038
  0
ARC
  8
0
 10
52.342108
 20
89.5362
 30
0.0
 40
3.5
 50
270.0
 51
348.840063
  0
ARC
  8
0
 10
52.342108
 20
105.5362
 30
0.0
 40
3.5
 50
11.159937
 51
90.0
  0
ARC
  8
0
 10
11.790358
 20
97.5362
 30
0.0
 40
44.833333
 50
348.840063
 51
11.159937
  0
LINE
  8
0
 10
18.623691
 20
86.0362
 30
0.0
 11
52.342108
 21
86.0362
 31
0.0
  0
LINE
  8
0
 10
-8.376309
 20
88.0362
 30
0.0
 11
18.623691
 21
86.0362
 31
0.0
  0
LINE
  8
0
 10
18.623691
 20
109.0362
 30
0.0
 11
52.342108
 21
109.0362
 31
0.0
  0
LINE
  8
0
 10
-8.376309
 20
107.0362
 30
0.0
 11
18.623691
 21
109.0362
 31
0.0
  0
LINE
  8
0
 10
18.623691
 20
97.5362
 30
0.0
 11
18.623691
 21
86.0362
 31
0.0
  0
LINE
  8
0
 10
29.373691
 20
103.1362
 30
0.0
 11
29.373691
 21
101.0362
 31
0.0
  0
LINE
  8
0
 10
31.373691
 20
103.1362
 30
0.0
 11
31.373691
 21
101.0362
 31
0.0
  0
LINE
  8
0
 10
33.823691
 20
104.1362
 30
0.0
 11
33.823691
 21
97.5362
 31
0.0
  0
LINE
  8
0
 10
-8.376309
 20
104.1362
 30
0.0
 11
33.823691
 21
104.1362
 31
0.0
  0
CIRCLE
  8
0
 10
30.373691
 20
103.1362
 30
0.0
 40
1.0
  0
LINE
  8
0
 10
11.42852
 20
99.969394
 30
0.0
 11
11.810053
 21
97.5362
 31
0.0
  0
LINE
  8
0
 10
12.218862
 20
100.093322
 30
0.0
 11
12.619829
 21
97.5362
 31
0.0
  0
LINE
  8
0
 10
9.55352
 20
99.969394
 30
0.0
 11
9.935053
 21
97.5362
 31
0.0
  0
LINE
  8
0
 10
10.343862
 20
100.093322
 30
0.0
 11
10.744829
 21
97.5362
 31
0.0
  0
LINE
  8
0
 10
26.423691
 20
100.031358
 30
0.0
 11
26.423691
 21
97.5362
 31
0.0
  0
LINE
  8
0
 10
8.468862
 20
100.093322
 30
0.0
 11
8.869829
 21
97.5362
 31
0.0
  0
LINE
  8
0
 10
7.67852
 20
99.969394
 30
0.0
 11
8.060053
 21
97.5362
 31
0.0
  0
CIRCLE
  8
0
 10
9.948691
 20
100.031358
 30
0.0
 40
0.4
  0
CIRCLE
  8
0
 10
11.823691
 20
100.031358
 30
0.0
 40
0.4
  0
CIRCLE
  8
0
 10
8.073691
 20
100.031358
 30
0.0
 40
0.4
  0
CIRCLE
  8
0
 10
26.823691
 20
100.031358
 30
0.0
 40
0.4
  0
LINE
  8
0
 10
-10.976309
 20
97.5362
 30
0.0
 11
-10.976309
 21
90.0362
 31
0.0
  0
LINE
  8
0
 10
-8.376309
 20
97.5362
 30
0.0
 11
-8.376309
 21
88.0362
 31
0.0
  0
LINE
  8
0
 10
4.623691
 20
102.6362
 30
0.0
 11
4.623691
 21
101.5362
 31
0.0
  0
LINE
  8
0
 10
27.223691
 20
99.900433
 30
0.0
 11
28.588682
 21
97.5362
 31
0.0
  0
LINE
  8
0
 10
4.623691
 20
101.6362
 30
0.0
 11
27.223691
 21
101.6362
 31
0.0
  0
LINE
  8
0
 10
31.623691
 20
104.0362
 30
0.0
 11
33.123691
 21
104.0362
 31
0.0
  0
LINE
  8
0
 10
29.123691
 20
101.0362
 30
0.0
 11
31.623691
 21
101.0362
 31
0.0
  0
LINE
  8
0
 10
29.123691
 20
104.0362
 30
0.0
 11
29.123691
 21
101.0362
 31
0.0
  0
LINE
  8
0
 10
31.623691
 20
104.0362
 30
0.0
 11
31.623691
 21
101.0362
 31
0.0
  0
LINE
  8
0
 10
27.223691
 20
101.6362
 30
0.0
 11
27.223691
 21
97.5362
 31
0.0
  0
LINE
  8
0
 10
33.123691
 20
104.0362
 30
0.0
 11
33.623691
 21
103.5362
 31
0.0
  0
LINE
  8
0
 10
33.623691
 20
103.5362
 30
0.0
 11
33.623691
 21
97.5362
 31
0.0
  0
LINE
  8
0
 10
-8.376309
 20
104.0362
 30
0.0
 11
29.123691
 21
104.0362
 31
0.0
  0
LINE
  8
0
 10
-2.876309
 20
103.0362
 30
0.0
 11
-2.876309
 21
101.5362
 31
0.0
  0
LINE
  8
0
 10
-8.376309
 20
102.6362
 30
0.0
 11
4.623691
 21
102.6362
 31
0.0
  0
LINE
  8
0
 10
-8.376309
 20
103.0362
 30
0.0
 11
-2.876309
 21
103.0362
 31
0.0
  0
LINE
  8
0
 10
-10.976309
 20
90.0362
 30
0.0
 11
-8.376309
 21
90.0362
 31
0.0
  0
LINE
  8
0
 10
-10.976309
 20
105.0362
 30
0.0
 11
-8.376309
 21
105.0362
 31
0.0
  0
LINE
  8
0
 10
-10.976309
 20
105.0362
 30
0.0
 11
-10.976309
 21
101.5362
 31
0.0
  0
LINE
  8
0
 10
-2.076309
 20
101.5362
 30
0.0
 11
19.973691
 21
101.5362
 31
0.0
  0
LINE
  8
0
 10
-2.876309
 20
102.4362
 30
0.0
 11
-2.076309
 21
102.4362
 31
0.0
  0
LINE
  8
0
 10
-2.876309
 20
101.0362
 30
0.0
 11
-2.076309
 21
101.0362
 31
0.0
  0
LINE
  8
0
 10
-2.076309
 20
102.4362
 30
0.0
 11
-2.076309
 21
101.0362
 31
0.0
  0
LINE
  8
0
 10
-2.876309
 20
102.4362
 30
0.0
 11
-2.876309
 21
101.0362
 31
0.0
  0
LINE
  8
0
 10
7.673691
 20
100.5362
 30
0.0
 11
7.673691
 21
97.5362
 31
0.0
  0
LINE
  8
0
 10
7.673691
 20
100.5362
 30
0.0
 11
19.973691
 21
100.5362
 31
0.0
  0
LINE
  8
0
 10
19.973691
 20
101.5362
 30
0.0
 11
19.973691
 21
98.468178
 31
0.0
  0
ARC
  8
0
 10
-26.026309
 20
97.5362
 30
0.0
 40
0.661151
 50
136.423642
 51
180.0
  0
ARC
  8
0
 10
-26.026309
 20
97.5362
 30
0.0
 40
0.661151
 50
0.0
 51
37.995696
  0
ARC
  8
0
 10
-21.576309
 20
97.5362
 30
0.0
 40
3.95
 50
0.0
 51
180.0
  0
ARC
  8
0
 10
-21.576309
 20
97.5362
 30
0.0
 40
4.95
 50
0.0
 51
180.0
  0
ARC
  8
0
 10
-21.576309
 20
97.5362
 30
0.0
 40
3.55
 50
0.0
 51
180.0
  0
ARC
  8
0
 10
-21.576309
 20
97.5362
 30
0.0
 40
5.35
 50
0.0
 51
180.0
  0
LINE
  8
0
 10
-12.54802
 20
93.5362
 30
0.0
 11
-10.976309
 21
93.5362
 31
0.0
  0
LINE
  8
0
 10
-15.076309
 20
101.5362
 30
0.0
 11
-2.876309
 21
101.5362
 31
0.0
  0
LINE
  8
0
 10
-29.176309
 20
105.0362
 30
0.0
 11
-15.076309
 21
105.0362
 31
0.0
  0
LINE
  8
0
 10
-15.076309
 20
105.0362
 30
0.0
 11
-15.076309
 21
101.5362
 31
0.0
  0
LINE
  8
0
 10
-29.176309
 20
97.5362
 30
0.0
 11
-29.176309
 21
107.0862
 31
0.0
  0
ARC
  8
0
 10
-21.576309
 20
97.5362
 30
0.0
 40
7.5
 50
90.0
 51
180.0
  0
CIRCLE
  8
0
 10
-21.576309
 20
97.5362
 30
0.0
 40
2.0
  0
LINE
  8
0
 10
-31.576309
 20
105.6862
 30
0.0
 11
-30.176309
 21
107.0862
 31
0.0
  0
LINE
  8
0
 10
-30.176309
 20
107.0862
 30
0.0
 11
-16.54802
 21
107.0862
 31
0.0
  0
LINE
  8
0
 10
-31.576309
 20
84.7862
 30
0.0
 11
-11.576309
 21
84.7862
 31
0.0
  0
LINE
  8
0
 10
-31.576309
 20
84.7862
 30
0.0
 11
-31.576309
 21
105.6862
 31
0.0
  0
ARC
  8
0
 10
-48.868158
 20
97.5362
 30
0.0
 40
1.5
 50
230.071416
 51
219.040038
  0
LINE
  8
0
 10
-39.839869
 20
103.0862
 30
0.0
 11
-39.839869
 21
89.7862
 31
0.0
  0
LINE
  8
0
 10
-39.839869
 20
89.7862
 30
0.0
 11
-38.868158
 21
89.7862
 31
0.0
  0
LINE
  8
0
  6
CENTER
 10
-34.204565
 20
97.5362
 30
0.0
 11
58.926499
 21
97.5362
 31
0.0
  0
LINE
  8
0
 10
-12.54802
 20
103.0862
 30
0.0
 11
-12.54802
 21
101.5362
 31
0.0
  0
ARC
  8
0
 10
-16.54802
 20
103.0862
 30
0.0
 40
4.0
 50
0.0
 51
90.0
  0
LINE
  8
0
 10
-11.576309
 20
84.7862
 30
0.0
 11
-11.576309
 21
89.7862
 31
0.0
  0
LINE
  8
0
 10
-12.54802
 20
89.7862
 30
0.0
 11
-11.576309
 21
89.7862
 31
0.0
  0
CIRCLE
  8
0
 10
-48.868158
 20
97.5362
 30
0.0
 40
2.0
  0
LINE
  8
0
 10
13.30352
 20
99.969394
 30
0.0
 11
13.685053
 21
97.5362
 31
0.0
  0
LINE
  8
0
 10
14.093862
 20
100.093322
 30
0.0
 11
14.494829
 21
97.5362
 31
0.0
  0
CIRCLE
  8
0
 10
13.698691
 20
100.031358
 30
0.0
 40
0.4
  0
LINE
  8
0
 10
15.968862
 20
100.093322
 30
0.0
 11
16.369829
 21
97.5362
 31
0.0
  0
LINE
  8
0
 10
15.17852
 20
99.969394
 30
0.0
 11
15.560053
 21
97.5362
 31
0.0
  0
CIRCLE
  8
0
 10
15.573691
 20
100.031358
 30
0.0
 40
0.4
  0
LINE
  8
0
 10
17.843862
 20
100.093322
 30
0.0
 11
18.244829
 21
97.5362
 31
0.0
  0
LINE
  8
0
 10
17.05352
 20
99.969394
 30
0.0
 11
17.435053
 21
97.5362
 31
0.0
  0
CIRCLE
  8
0
 10
17.448691
 20
100.031358
 30
0.0
 40
0.4
  0
LINE
  8
0
 10
19.718862
 20
100.093322
 30
0.0
 11
20.119829
 21
97.5362
 31
0.0
  0
LINE
  8
0
 10
18.92852
 20
99.969394
 30
0.0
 11
19.310053
 21
97.5362
 31
0.0
  0
CIRCLE
  8
0
 10
19.323691
 20
100.031358
 30
0.0
 40
0.4
  0
LINE
  8
0
 10
21.593862
 20
100.093322
 30
0.0
 11
21.994829
 21
97.5362
 31
0.0
  0
LINE
  8
0
 10
20.80352
 20
99.969394
 30
0.0
 11
21.185053
 21
97.5362
 31
0.0
  0
CIRCLE
  8
0
 10
21.198691
 20
100.031358
 30
0.0
 40
0.4
  0
LINE
  8
0
 10
23.468862
 20
100.093322
 30
0.0
 11
23.869829
 21
97.5362
 31
0.0
  0
LINE
  8
0
 10
22.67852
 20
99.969394
 30
0.0
 11
23.060053
 21
97.5362
 31
0.0
  0
CIRCLE
  8
0
 10
23.073691
 20
100.031358
 30
0.0
 40
0.4
  0
LINE
  8
0
 10
25.343862
 20
100.093322
 30
0.0
 11
25.744829
 21
97.5362
 31
0.0
  0
LINE
  8
0
 10
24.55352
 20
99.969394
 30
0.0
 11
24.935053
 21
97.5362
 31
0.0
  0
CIRCLE
  8
0
 10
24.948691
 20
100.031358
 30
0.0
 40
0.4
  0
LINE
  8
0
 10
-12.54802
 20
97.5362
 30
0.0
 11
-12.54802
 21
89.7862
 31
0.0
  0
LINE
  8
0
 10
-8.376309
 20
102.6362
 30
0.0
 11
-8.376309
 21
107.0362
 31
0.0
  0
ARC
  8
0
 10
-21.576309
 20
64.715111
 30
0.0
 40
10.0
 50
23.578178
 51
336.421822
  0
LINE
  8
0
 10
-29.176309
 20
69.015111
 30
0.0
 11
-12.54802
 21
69.015111
 31
0.0
  0
LINE
  8
0
 10
-29.176309
 20
60.415111
 30
0.0
 11
-12.54802
 21
60.415111
 31
0.0
  0
ARC
  8
0
 10
-21.576309
 20
64.715111
 30
0.0
 40
7.6
 50
214.457132
 51
325.542868
  0
LINE
  8
0
 10
-15.309731
 20
106.889704
 30
0.0
 11
-15.309731
 21
105.0362
 31
0.0
  0
LINE
  8
0
 10
-29.176309
 20
60.415111
 30
0.0
 11
-29.176309
 21
69.015111
 31
0.0
  0
ARC
  8
0
 10
-21.576309
 20
64.715111
 30
0.0
 40
7.6
 50
34.457132
 51
145.542868
  0
LINE
  8
0
 10
-27.920598
 20
60.715111
 30
0.0
 11
-10.976309
 21
60.715111
 31
0.0
  0
LINE
  8
0
 10
-27.920598
 20
68.715111
 30
0.0
 11
-10.976309
 21
68.715111
 31
0.0
  0
ARC
  8
0
 10
-21.576309
 20
64.715111
 30
0.0
 40
7.5
 50
147.769047
 51
212.230953
  0
LINE
  8
0
 10
-22.176309
 20
69.015111
 30
0.0
 11
-22.176309
 21
70.189534
 31
0.0
  0
LINE
  8
0
 10
-20.976309
 20
69.015111
 30
0.0
 11
-20.976309
 21
70.189534
 31
0.0
  0
ARC
  8
0
 10
-21.576309
 20
70.189534
 30
0.0
 40
0.6
 50
0.0
 51
180.0
  0
LINE
  8
0
 10
-10.976309
 20
72.215111
 30
0.0
 11
-8.376309
 21
72.215111
 31
0.0
  0
LINE
  8
0
 10
-10.976309
 20
57.215111
 30
0.0
 11
-8.376309
 21
57.215111
 31
0.0
  0
LINE
  8
0
 10
-8.376309
 20
74.215111
 30
0.0
 11
-8.376309
 21
55.215111
 31
0.0
  0
LINE
  8
0
 10
18.623691
 20
76.215111
 30
0.0
 11
18.623691
 21
53.215111
 31
0.0
  0
LINE
  8
0
 10
-8.376309
 20
74.215111
 30
0.0
 11
18.623691
 21
76.215111
 31
0.0
  0
LINE
  8
0
 10
18.623691
 20
76.215111
 30
0.0
 11
52.342108
 21
76.215111
 31
0.0
  0
LINE
  8
0
 10
-8.376309
 20
55.215111
 30
0.0
 11
18.623691
 21
53.215111
 31
0.0
  0
LINE
  8
0
 10
18.623691
 20
53.215111
 30
0.0
 11
52.342108
 21
53.215111
 31
0.0
  0
ARC
  8
0
 10
11.790358
 20
64.715111
 30
0.0
 40
44.833333
 50
348.840063
 51
11.159937
  0
ARC
  8
0
 10
52.342108
 20
72.715111
 30
0.0
 40
3.5
 50
11.159937
 51
90.0
  0
ARC
  8
0
 10
52.342108
 20
56.715111
 30
0.0
 40
3.5
 50
270.0
 51
348.840063
  0
LINE
  8
0
 10
-10.976309
 20
72.215111
 30
0.0
 11
-10.976309
 21
57.215111
 31
0.0
  0
LINE
  8
0
 10
-23.576309
 20
69.015111
 30
0.0
 11
-23.576309
 21
68.715111
 31
0.0
  0
LINE
  8
0
 10
-19.576309
 20
69.015111
 30
0.0
 11
-19.576309
 21
68.715111
 31
0.0
  0
LINE
  8
0
 10
-23.576309
 20
60.715111
 30
0.0
 11
-23.576309
 21
60.415111
 31
0.0
  0
LINE
  8
0
 10
-19.576309
 20
60.715111
 30
0.0
 11
-19.576309
 21
60.415111
 31
0.0
  0
LINE
  8
0
 10
84.018446
 20
105.6862
 30
0.0
 11
82.618446
 21
107.0862
 31
0.0
  0
LINE
  8
0
 10
64.018446
 20
84.7862
 30
0.0
 11
64.018446
 21
105.6862
 31
0.0
  0
LINE
  8
0
 10
84.018446
 20
84.7862
 30
0.0
 11
84.018446
 21
105.6862
 31
0.0
  0
LINE
  8
0
 10
64.018446
 20
84.7862
 30
0.0
 11
84.018446
 21
84.7862
 31
0.0
  0
LINE
  8
0
 10
64.018446
 20
105.6862
 30
0.0
 11
65.418446
 21
107.0862
 31
0.0
  0
LINE
  8
0
 10
65.418446
 20
107.0862
 30
0.0
 11
82.618446
 21
107.0862
 31
0.0
  0
ARC
  8
0
 10
74.018446
 20
97.5362
 30
0.0
 40
11.5
 50
330.408154
 51
29.591846
  0
ARC
  8
0
 10
74.018446
 20
97.5362
 30
0.0
 40
11.5
 50
150.408154
 51
209.591846
  0
ARC
  8
0
 10
74.018446
 20
97.5362
 30
0.0
 40
11.5
 50
56.143427
 51
123.856573
  0
LINE
  8
0
 10
-72.310361
 20
111.834602
 30
0.0
 11
-69.333555
 21
112.457064
 31
0.0
  0
LINE
  8
0
 10
-84.252185
 20
112.954865
 30
0.0
 11
-87.043775
 21
112.65108
 31
0.0
  0
LINE
  8
0
 10
-87.043775
 20
112.65108
 30
0.0
 11
-89.074708
 21
112.820908
 31
0.0
  0
INSERT
  8
0
  2
*X0
 10
35.607011
 20
105.052203
 30
0.0
  0
INSERT
  8
0
  2
*X1
 10
29.520442
 20
106.116
 30
0.0
  0
INSERT
  8
0
  2
*X2
 10
11.832943
 20
106.116
 30
0.0
  0
INSERT
  8
0
  2
*X3
 10
-5.777771
 20
90.684705
 30
0.0
  0
INSERT
  8
0
  2
*X4
 10
-35.69206
 20
97.18958
 30
0.0
  0
INSERT
  8
0
  2
*X4
 10
-18.822929
 20
84.360102
 30
0.0
 50
270.0
  0
INSERT
  8
0
  2
*X5
 10
11.537332
 20
104.955595
 30
0.0
  0
INSERT
  8
0
  2
*X5
 10
-11.056914
 20
37.13071
 30
0.0
 50
270.0
  0
INSERT
  8
0
  2
*X6
 10
27.146378
 20
106.116
 30
0.0
  0
INSERT
  8
0
  2
*X6
 10
236.526188
 20
113.22
 30
0.0
  0
INSERT
  8
0
  2
*X5
 10
212.834998
 20
44.23471
 30
0.0
 50
270.0
  0
INSERT
  8
0
  2
*X5
 10
229.09669
 20
112.059595
 30
0.0
  0
INSERT
  8
0
  2
*X4
 10
205.068983
 20
91.464102
 30
0.0
 50
270.0
  0
INSERT
  8
0
  2
*X4
 10
181.867298
 20
104.29358
 30
0.0
  0
INSERT
  8
0
  2
*X3
 10
218.11414
 20
97.788705
 30
0.0
  0
INSERT
  8
0
  2
*X2
 10
229.392301
 20
113.22
 30
0.0
  0
INSERT
  8
0
  2
*X1
 10
238.900252
 20
113.22
 30
0.0
  0
LINE
  8
0
 10
122.336035
 20
119.75508
 30
0.0
 11
119.249741
 21
120.013158
 31
0.0
  0
LINE
  8
0
 10
125.127625
 20
120.058865
 30
0.0
 11
122.336035
 21
119.75508
 31
0.0
  0
LINE
  8
0
 10
311.68728
 20
114.1902
 30
0.0
 11
328.88728
 21
114.1902
 31
0.0
  0
LINE
  8
0
 10
310.28728
 20
112.7902
 30
0.0
 11
311.68728
 21
114.1902
 31
0.0
  0
LINE
  8
0
 10
310.28728
 20
91.8902
 30
0.0
 11
330.28728
 21
91.8902
 31
0.0
  0
LINE
  8
0
 10
330.28728
 20
91.8902
 30
0.0
 11
330.28728
 21
112.7902
 31
0.0
  0
LINE
  8
0
 10
310.28728
 20
91.8902
 30
0.0
 11
310.28728
 21
112.7902
 31
0.0
  0
LINE
  8
0
 10
330.28728
 20
112.7902
 30
0.0
 11
328.88728
 21
114.1902
 31
0.0
  0
LINE
  8
0
 10
204.315603
 20
62.01427
 30
0.0
 11
204.315603
 21
61.71427
 31
0.0
  0
LINE
  8
0
 10
200.315603
 20
62.01427
 30
0.0
 11
200.315603
 21
61.71427
 31
0.0
  0
LINE
  8
0
 10
204.315603
 20
70.31427
 30
0.0
 11
204.315603
 21
70.01427
 31
0.0
  0
LINE
  8
0
 10
200.315603
 20
70.31427
 30
0.0
 11
200.315603
 21
70.01427
 31
0.0
  0
LINE
  8
0
 10
212.915603
 20
73.51427
 30
0.0
 11
212.915603
 21
58.51427
 31
0.0
  0
LINE
  8
0
 10
215.515603
 20
76.51427
 30
0.0
 11
215.515603
 21
55.51427
 31
0.0
  0
LINE
  8
0
 10
212.915603
 20
58.51427
 30
0.0
 11
215.515603
 21
58.51427
 31
0.0
  0
LINE
  8
0
 10
212.915603
 20
73.51427
 30
0.0
 11
215.515603
 21
73.51427
 31
0.0
  0
ARC
  8
0
 10
202.315603
 20
71.488693
 30
0.0
 40
0.6
 50
0.0
 51
180.0
  0
LINE
  8
0
 10
202.915603
 20
70.31427
 30
0.0
 11
202.915603
 21
71.488693
 31
0.0
  0
LINE
  8
0
 10
201.715603
 20
70.31427
 30
0.0
 11
201.715603
 21
71.488693
 31
0.0
  0
ARC
  8
0
 10
202.315603
 20
66.01427
 30
0.0
 40
7.5
 50
147.769047
 51
212.230953
  0
LINE
  8
0
 10
195.971314
 20
70.01427
 30
0.0
 11
212.915603
 21
70.01427
 31
0.0
  0
LINE
  8
0
 10
195.971314
 20
62.01427
 30
0.0
 11
212.915603
 21
62.01427
 31
0.0
  0
ARC
  8
0
 10
202.315603
 20
66.01427
 30
0.0
 40
7.6
 50
34.457132
 51
145.542868
  0
LINE
  8
0
 10
194.715603
 20
61.71427
 30
0.0
 11
194.715603
 21
70.31427
 31
0.0
  0
LINE
  8
0
 10
208.582181
 20
113.993704
 30
0.0
 11
208.582181
 21
112.1402
 31
0.0
  0
ARC
  8
0
 10
202.315603
 20
66.01427
 30
0.0
 40
7.6
 50
214.457132
 51
325.542868
  0
LINE
  8
0
 10
194.715603
 20
61.71427
 30
0.0
 11
211.343892
 21
61.71427
 31
0.0
  0
LINE
  8
0
 10
194.715603
 20
70.31427
 30
0.0
 11
211.343892
 21
70.31427
 31
0.0
  0
ARC
  8
0
 10
202.315603
 20
66.01427
 30
0.0
 40
10.0
 50
23.578178
 51
336.421822
  0
LINE
  8
0
 10
215.515603
 20
109.7402
 30
0.0
 11
215.515603
 21
115.1402
 31
0.0
  0
LINE
  8
0
 10
211.343892
 20
104.6402
 30
0.0
 11
211.343892
 21
96.8902
 31
0.0
  0
CIRCLE
  8
0
 10
248.840603
 20
107.135358
 30
0.0
 40
0.4
  0
LINE
  8
0
 10
248.445431
 20
107.073394
 30
0.0
 11
248.826965
 21
104.6402
 31
0.0
  0
LINE
  8
0
 10
249.235774
 20
107.197322
 30
0.0
 11
249.63674
 21
104.6402
 31
0.0
  0
CIRCLE
  8
0
 10
246.965603
 20
107.135358
 30
0.0
 40
0.4
  0
LINE
  8
0
 10
246.570431
 20
107.073394
 30
0.0
 11
246.951965
 21
104.6402
 31
0.0
  0
LINE
  8
0
 10
247.360774
 20
107.197322
 30
0.0
 11
247.76174
 21
104.6402
 31
0.0
  0
CIRCLE
  8
0
 10
245.090603
 20
107.135358
 30
0.0
 40
0.4
  0
LINE
  8
0
 10
244.695431
 20
107.073394
 30
0.0
 11
245.076965
 21
104.6402
 31
0.0
  0
LINE
  8
0
 10
245.485774
 20
107.197322
 30
0.0
 11
245.88674
 21
104.6402
 31
0.0
  0
CIRCLE
  8
0
 10
243.215603
 20
107.135358
 30
0.0
 40
0.4
  0
LINE
  8
0
 10
242.820431
 20
107.073394
 30
0.0
 11
243.201965
 21
104.6402
 31
0.0
  0
LINE
  8
0
 10
243.610774
 20
107.197322
 30
0.0
 11
244.01174
 21
104.6402
 31
0.0
  0
CIRCLE
  8
0
 10
241.340603
 20
107.135358
 30
0.0
 40
0.4
  0
LINE
  8
0
 10
240.945431
 20
107.073394
 30
0.0
 11
241.326965
 21
104.6402
 31
0.0
  0
LINE
  8
0
 10
241.735774
 20
107.197322
 30
0.0
 11
242.13674
 21
104.6402
 31
0.0
  0
CIRCLE
  8
0
 10
239.465603
 20
107.135358
 30
0.0
 40
0.4
  0
LINE
  8
0
 10
239.070431
 20
107.073394
 30
0.0
 11
239.451965
 21
104.6402
 31
0.0
  0
LINE
  8
0
 10
239.860774
 20
107.197322
 30
0.0
 11
240.26174
 21
104.6402
 31
0.0
  0
CIRCLE
  8
0
 10
237.590603
 20
107.135358
 30
0.0
 40
0.4
  0
LINE
  8
0
 10
237.985774
 20
107.197322
 30
0.0
 11
238.38674
 21
104.6402
 31
0.0
  0
LINE
  8
0
 10
237.195431
 20
107.073394
 30
0.0
 11
237.576965
 21
104.6402
 31
0.0
  0
CIRCLE
  8
0
 10
168.6912
 20
104.6402
 30
0.0
 40
2.0
  0
LINE
  8
0
 10
211.343892
 20
96.8902
 30
0.0
 11
212.315603
 21
96.8902
 31
0.0
  0
LINE
  8
0
 10
212.315603
 20
91.8902
 30
0.0
 11
212.315603
 21
96.8902
 31
0.0
  0
ARC
  8
0
 10
207.343892
 20
110.1902
 30
0.0
 40
4.0
 50
0.0
 51
90.0
  0
LINE
  8
0
 10
211.343892
 20
110.1902
 30
0.0
 11
211.343892
 21
108.6402
 31
0.0
  0
LINE
  8
0
  6
CENTER
 10
189.687347
 20
104.6402
 30
0.0
 11
298.214703
 21
104.6402
 31
0.0
  0
LINE
  8
0
 10
177.719489
 20
96.8902
 30
0.0
 11
178.6912
 21
96.8902
 31
0.0
  0
LINE
  8
0
 10
177.719489
 20
110.1902
 30
0.0
 11
177.719489
 21
96.8902
 31
0.0
  0
ARC
  8
0
 10
168.6912
 20
104.6402
 30
0.0
 40
1.5
 50
230.071416
 51
219.040038
  0
LINE
  8
0
 10
192.315603
 20
91.8902
 30
0.0
 11
192.315603
 21
112.7902
 31
0.0
  0
LINE
  8
0
 10
192.315603
 20
91.8902
 30
0.0
 11
212.315603
 21
91.8902
 31
0.0
  0
LINE
  8
0
 10
193.715603
 20
114.1902
 30
0.0
 11
207.343892
 21
114.1902
 31
0.0
  0
LINE
  8
0
 10
192.315603
 20
112.7902
 30
0.0
 11
193.715603
 21
114.1902
 31
0.0
  0
CIRCLE
  8
0
 10
202.315603
 20
104.6402
 30
0.0
 40
2.0
  0
ARC
  8
0
 10
202.315603
 20
104.6402
 30
0.0
 40
7.5
 50
90.0
 51
180.0
  0
LINE
  8
0
 10
194.715603
 20
104.6402
 30
0.0
 11
194.715603
 21
114.1902
 31
0.0
  0
LINE
  8
0
 10
208.815603
 20
112.1402
 30
0.0
 11
208.815603
 21
108.6402
 31
0.0
  0
LINE
  8
0
 10
194.715603
 20
112.1402
 30
0.0
 11
208.815603
 21
112.1402
 31
0.0
  0
LINE
  8
0
 10
208.815603
 20
108.6402
 30
0.0
 11
221.015603
 21
108.6402
 31
0.0
  0
LINE
  8
0
 10
211.343892
 20
100.6402
 30
0.0
 11
212.915603
 21
100.6402
 31
0.0
  0
ARC
  8
0
 10
202.315603
 20
104.6402
 30
0.0
 40
5.35
 50
0.0
 51
180.0
  0
ARC
  8
0
 10
202.315603
 20
104.6402
 30
0.0
 40
3.55
 50
0.0
 51
180.0
  0
ARC
  8
0
 10
202.315603
 20
104.6402
 30
0.0
 40
4.95
 50
0.0
 51
180.0
  0
ARC
  8
0
 10
202.315603
 20
104.6402
 30
0.0
 40
3.95
 50
0.0
 51
180.0
  0
ARC
  8
0
 10
197.865603
 20
104.6402
 30
0.0
 40
0.661151
 50
0.0
 51
37.995696
  0
ARC
  8
0
 10
197.865603
 20
104.6402
 30
0.0
 40
0.661151
 50
136.423642
 51
180.0
  0
LINE
  8
0
 10
243.865603
 20
108.6402
 30
0.0
 11
243.865603
 21
105.572178
 31
0.0
  0
LINE
  8
0
 10
231.565603
 20
107.6402
 30
0.0
 11
243.865603
 21
107.6402
 31
0.0
  0
LINE
  8
0
 10
231.565603
 20
107.6402
 30
0.0
 11
231.565603
 21
104.6402
 31
0.0
  0
LINE
  8
0
 10
221.015603
 20
109.5402
 30
0.0
 11
221.015603
 21
108.1402
 31
0.0
  0
LINE
  8
0
 10
221.815603
 20
109.5402
 30
0.0
 11
221.815603
 21
108.1402
 31
0.0
  0
LINE
  8
0
 10
221.015603
 20
108.1402
 30
0.0
 11
221.815603
 21
108.1402
 31
0.0
  0
LINE
  8
0
 10
221.015603
 20
109.5402
 30
0.0
 11
221.815603
 21
109.5402
 31
0.0
  0
LINE
  8
0
 10
221.815603
 20
108.6402
 30
0.0
 11
243.865603
 21
108.6402
 31
0.0
  0
LINE
  8
0
 10
212.915603
 20
112.1402
 30
0.0
 11
212.915603
 21
108.6402
 31
0.0
  0
LINE
  8
0
 10
212.915603
 20
112.1402
 30
0.0
 11
215.515603
 21
112.1402
 31
0.0
  0
LINE
  8
0
 10
212.915603
 20
97.1402
 30
0.0
 11
215.515603
 21
97.1402
 31
0.0
  0
LINE
  8
0
 10
215.515603
 20
110.1402
 30
0.0
 11
221.015603
 21
110.1402
 31
0.0
  0
LINE
  8
0
 10
215.515603
 20
109.7402
 30
0.0
 11
228.515603
 21
109.7402
 31
0.0
  0
LINE
  8
0
 10
221.015603
 20
110.1402
 30
0.0
 11
221.015603
 21
108.6402
 31
0.0
  0
LINE
  8
0
 10
215.515603
 20
111.1402
 30
0.0
 11
253.015603
 21
111.1402
 31
0.0
  0
LINE
  8
0
 10
257.515603
 20
110.6402
 30
0.0
 11
257.515603
 21
104.6402
 31
0.0
  0
LINE
  8
0
 10
257.015603
 20
111.1402
 30
0.0
 11
257.515603
 21
110.6402
 31
0.0
  0
LINE
  8
0
 10
251.115603
 20
108.7402
 30
0.0
 11
251.115603
 21
104.6402
 31
0.0
  0
LINE
  8
0
 10
255.515603
 20
111.1402
 30
0.0
 11
255.515603
 21
108.1402
 31
0.0
  0
LINE
  8
0
 10
253.015603
 20
111.1402
 30
0.0
 11
253.015603
 21
108.1402
 31
0.0
  0
LINE
  8
0
 10
253.015603
 20
108.1402
 30
0.0
 11
255.515603
 21
108.1402
 31
0.0
  0
LINE
  8
0
 10
255.515603
 20
111.1402
 30
0.0
 11
257.015603
 21
111.1402
 31
0.0
  0
LINE
  8
0
 10
228.515603
 20
108.7402
 30
0.0
 11
251.115603
 21
108.7402
 31
0.0
  0
LINE
  8
0
 10
251.115603
 20
107.004433
 30
0.0
 11
252.480594
 21
104.6402
 31
0.0
  0
LINE
  8
0
 10
228.515603
 20
109.7402
 30
0.0
 11
228.515603
 21
108.6402
 31
0.0
  0
LINE
  8
0
 10
215.515603
 20
104.6402
 30
0.0
 11
215.515603
 21
94.1402
 31
0.0
  0
LINE
  8
0
 10
212.915603
 20
104.6402
 30
0.0
 11
212.915603
 21
97.1402
 31
0.0
  0
CIRCLE
  8
0
 10
250.715603
 20
107.135358
 30
0.0
 40
0.4
  0
CIRCLE
  8
0
 10
231.965603
 20
107.135358
 30
0.0
 40
0.4
  0
CIRCLE
  8
0
 10
235.715603
 20
107.135358
 30
0.0
 40
0.4
  0
CIRCLE
  8
0
 10
233.840603
 20
107.135358
 30
0.0
 40
0.4
  0
LINE
  8
0
 10
231.570431
 20
107.073394
 30
0.0
 11
231.951965
 21
104.6402
 31
0.0
  0
LINE
  8
0
 10
232.360774
 20
107.197322
 30
0.0
 11
232.76174
 21
104.6402
 31
0.0
  0
LINE
  8
0
 10
250.315603
 20
107.135358
 30
0.0
 11
250.315603
 21
104.6402
 31
0.0
  0
LINE
  8
0
 10
234.235774
 20
107.197322
 30
0.0
 11
234.63674
 21
104.6402
 31
0.0
  0
LINE
  8
0
 10
233.445431
 20
107.073394
 30
0.0
 11
233.826965
 21
104.6402
 31
0.0
  0
LINE
  8
0
 10
236.110774
 20
107.197322
 30
0.0
 11
236.51174
 21
104.6402
 31
0.0
  0
LINE
  8
0
 10
235.320431
 20
107.073394
 30
0.0
 11
235.701965
 21
104.6402
 31
0.0
  0
CIRCLE
  8
0
 10
254.265603
 20
110.2402
 30
0.0
 40
1.0
  0
LINE
  8
0
 10
215.515603
 20
111.2402
 30
0.0
 11
257.715603
 21
111.2402
 31
0.0
  0
LINE
  8
0
 10
257.715603
 20
111.2402
 30
0.0
 11
257.715603
 21
104.6402
 31
0.0
  0
LINE
  8
0
 10
255.265603
 20
110.2402
 30
0.0
 11
255.265603
 21
108.1402
 31
0.0
  0
LINE
  8
0
 10
253.265603
 20
110.2402
 30
0.0
 11
253.265603
 21
108.1402
 31
0.0
  0
ARC
  8
0
 10
202.315603
 20
104.6402
 30
0.0
 40
1.5
 50
230.071416
 51
219.040038
  0
LINE
  8
0
 10
201.150544
 20
103.695405
 30
0.0
 11
200.762191
 21
103.380473
 31
0.0
  0
LINE
  8
0
 10
201.352854
 20
103.489932
 30
0.0
 11
201.031938
 21
103.10651
 31
0.0
  0
LINE
  8
0
 10
139.189154
 20
102.6402
 30
0.0
 11
139.189154
 21
106.6402
 31
0.0
  0
LINE
  8
0
 10
121.189154
 20
102.6402
 30
0.0
 11
121.189154
 21
106.6402
 31
0.0
  0
LINE
  8
0
 10
139.189154
 20
103.1402
 30
0.0
 11
121.189154
 21
103.1402
 31
0.0
  0
LINE
  8
0
 10
139.189154
 20
106.1402
 30
0.0
 11
121.189154
 21
106.1402
 31
0.0
  0
LINE
  8
0
 10
167.728452
 20
103.489932
 30
0.0
 11
167.407536
 21
103.10651
 31
0.0
  0
LINE
  8
0
 10
167.526141
 20
103.695405
 30
0.0
 11
167.137788
 21
103.380473
 31
0.0
  0
LINE
  8
0
 10
166.1912
 20
91.8902
 30
0.0
 11
166.1912
 21
96.8902
 31
0.0
  0
LINE
  8
0
 10
132.689154
 20
91.8902
 30
0.0
 11
132.689154
 21
96.8902
 31
0.0
  0
LINE
  8
0
 10
127.689154
 20
91.8902
 30
0.0
 11
127.689154
 21
96.8902
 31
0.0
  0
LINE
  8
0
 10
165.6912
 20
91.8902
 30
0.0
 11
165.6912
 21
96.8902
 31
0.0
  0
LINE
  8
0
 10
133.189154
 20
91.8902
 30
0.0
 11
133.189154
 21
96.8902
 31
0.0
  0
LINE
  8
0
 10
127.189154
 20
91.8902
 30
0.0
 11
127.189154
 21
96.8902
 31
0.0
  0
LINE
  8
0
 10
127.894633
 20
119.649429
 30
0.0
 11
125.127625
 21
120.058865
 31
0.0
  0
LINE
  8
0
 10
130.34738
 20
119.038316
 30
0.0
 11
127.894633
 21
119.649429
 31
0.0
  0
LINE
  8
0
 10
133.719913
 20
119.084234
 30
0.0
 11
130.34738
 21
119.038316
 31
0.0
  0
LINE
  8
0
 10
141.02469
 20
118.766635
 30
0.0
 11
133.719913
 21
119.084234
 31
0.0
  0
LINE
  8
0
 10
133.421004
 20
108.1902
 30
0.0
 11
133.443476
 21
108.5902
 31
0.0
  0
LINE
  8
0
 10
132.421004
 20
108.1902
 30
0.0
 11
132.471566
 21
109.0902
 31
0.0
  0
LINE
  8
0
 10
131.421004
 20
108.1902
 30
0.0
 11
131.471566
 21
109.0902
 31
0.0
  0
LINE
  8
0
 10
130.421004
 20
108.1902
 30
0.0
 11
130.471566
 21
109.0902
 31
0.0
  0
LINE
  8
0
 10
129.421004
 20
108.1902
 30
0.0
 11
129.471566
 21
109.0902
 31
0.0
  0
LINE
  8
0
 10
132.971566
 20
100.1902
 30
0.0
 11
133.022127
 21
101.0902
 31
0.0
  0
LINE
  8
0
 10
131.971566
 20
100.1902
 30
0.0
 11
132.022127
 21
101.0902
 31
0.0
  0
LINE
  8
0
 10
130.971566
 20
100.1902
 30
0.0
 11
131.022127
 21
101.0902
 31
0.0
  0
LINE
  8
0
 10
128.999655
 20
100.6902
 30
0.0
 11
129.022127
 21
101.0902
 31
0.0
  0
LINE
  8
0
 10
129.971566
 20
100.1902
 30
0.0
 11
130.022127
 21
101.0902
 31
0.0
  0
LINE
  8
0
 10
134.489154
 20
109.5902
 30
0.0
 11
134.489154
 21
112.1402
 31
0.0
  0
LINE
  8
0
 10
135.771566
 20
108.5902
 30
0.0
 11
135.771566
 21
109.5902
 31
0.0
  0
LINE
  8
0
 10
126.637197
 20
99.6902
 30
0.0
 11
126.637197
 21
100.6902
 31
0.0
  0
LINE
  8
0
 10
132.971566
 20
108.5902
 30
0.0
 11
135.771566
 21
108.5902
 31
0.0
  0
LINE
  8
0
 10
132.971566
 20
109.5902
 30
0.0
 11
135.771566
 21
109.5902
 31
0.0
  0
LINE
  8
0
 10
128.889154
 20
100.6902
 30
0.0
 11
128.889154
 21
101.0902
 31
0.0
  0
LINE
  8
0
 10
129.471566
 20
99.6902
 30
0.0
 11
126.637197
 21
99.6902
 31
0.0
  0
LINE
  8
0
 10
129.471566
 20
100.6902
 30
0.0
 11
126.637197
 21
100.6902
 31
0.0
  0
ARC
  8
0
 10
132.971566
 20
109.0902
 30
0.0
 40
0.5
 50
90.000032
 51
269.999968
  0
CIRCLE
  8
0
 10
131.971566
 20
109.0902
 30
0.0
 40
0.5
  0
CIRCLE
  8
0
 10
130.971566
 20
109.0902
 30
0.0
 40
0.5
  0
CIRCLE
  8
0
 10
129.971566
 20
109.0902
 30
0.0
 40
0.5
  0
CIRCLE
  8
0
 10
132.471566
 20
100.1902
 30
0.0
 40
0.5
  0
CIRCLE
  8
0
 10
131.471566
 20
100.1902
 30
0.0
 40
0.5
  0
CIRCLE
  8
0
 10
130.471566
 20
100.1902
 30
0.0
 40
0.5
  0
LINE
  8
0
 10
140.189154
 20
112.7902
 30
0.0
 11
138.789154
 21
114.1902
 31
0.0
  0
LINE
  8
0
 10
135.889154
 20
108.479031
 30
0.0
 11
135.889154
 21
112.1402
 31
0.0
  0
LINE
  8
0
 10
134.489154
 20
108.479031
 30
0.0
 11
135.889154
 21
108.479031
 31
0.0
  0
LINE
  8
0
 10
134.189154
 20
106.6402
 30
0.0
 11
134.189154
 21
108.5902
 31
0.0
  0
LINE
  8
0
 10
134.489154
 20
106.6402
 30
0.0
 11
134.489154
 21
108.5902
 31
0.0
  0
LINE
  8
0
 10
125.889154
 20
106.6402
 30
0.0
 11
125.889154
 21
112.1402
 31
0.0
  0
LINE
  8
0
 10
128.889154
 20
109.9902
 30
0.0
 11
128.889154
 21
108.1902
 31
0.0
  0
LINE
  8
0
 10
128.889154
 20
109.9902
 30
0.0
 11
134.189154
 21
109.9902
 31
0.0
  0
LINE
  8
0
 10
128.889154
 20
108.1902
 30
0.0
 11
134.189154
 21
108.1902
 31
0.0
  0
ARC
  8
0
 10
129.471566
 20
100.1902
 30
0.0
 40
0.5
 50
270.0
 51
90.0
  0
LINE
  8
0
 10
128.889154
 20
99.529049
 30
0.0
 11
126.189154
 21
99.529049
 31
0.0
  0
LINE
  8
0
 10
128.889154
 20
100.851351
 30
0.0
 11
126.189154
 21
100.851351
 31
0.0
  0
LINE
  8
0
 10
128.889154
 20
101.0902
 30
0.0
 11
134.189154
 21
101.0902
 31
0.0
  0
LINE
  8
0
 10
128.889154
 20
99.2902
 30
0.0
 11
134.189154
 21
99.2902
 31
0.0
  0
LINE
  8
0
 10
128.889154
 20
99.2902
 30
0.0
 11
128.889154
 21
99.6902
 31
0.0
  0
LINE
  8
0
 10
134.189154
 20
98.295911
 30
0.0
 11
134.189154
 21
102.6402
 31
0.0
  0
LINE
  8
0
 10
126.189154
 20
98.295911
 30
0.0
 11
126.189154
 21
102.6402
 31
0.0
  0
LINE
  8
0
 10
140.189154
 20
102.6402
 30
0.0
 11
120.189154
 21
102.6402
 31
0.0
  0
LINE
  8
0
 10
140.189154
 20
106.6402
 30
0.0
 11
120.189154
 21
106.6402
 31
0.0
  0
LINE
  8
0
  6
CENTER
 10
142.189154
 20
104.6402
 30
0.0
 11
118.189154
 21
104.6402
 31
0.0
  0
LINE
  8
0
 10
134.489154
 20
96.8902
 30
0.0
 11
134.489154
 21
102.6402
 31
0.0
  0
LINE
  8
0
 10
125.889154
 20
96.8902
 30
0.0
 11
125.889154
 21
102.6402
 31
0.0
  0
LINE
  8
0
  6
CENTER
 10
130.189154
 20
88.154411
 30
0.0
 11
130.189154
 21
200.879239
 31
0.0
  0
LINE
  8
0
 10
120.189154
 20
91.8902
 30
0.0
 11
120.189154
 21
112.7902
 31
0.0
  0
LINE
  8
0
 10
140.189154
 20
91.8902
 30
0.0
 11
140.189154
 21
112.7902
 31
0.0
  0
LINE
  8
0
 10
120.189154
 20
91.8902
 30
0.0
 11
140.189154
 21
91.8902
 31
0.0
  0
LINE
  8
0
 10
121.589154
 20
114.1902
 30
0.0
 11
122.689154
 21
114.1902
 31
0.0
  0
LINE
  8
0
 10
120.189154
 20
112.7902
 30
0.0
 11
121.589154
 21
114.1902
 31
0.0
  0
LINE
  8
0
 10
125.889154
 20
96.8902
 30
0.0
 11
134.489154
 21
96.8902
 31
0.0
  0
ARC
  8
0
 10
130.189154
 20
104.6402
 30
0.0
 40
7.5
 50
237.769047
 51
302.230953
  0
LINE
  8
0
 10
122.589154
 20
112.1402
 30
0.0
 11
122.589154
 21
114.1902
 31
0.0
  0
LINE
  8
0
 10
126.189154
 20
106.6402
 30
0.0
 11
126.189154
 21
119.90179
 31
0.0
  0
LINE
  8
0
 10
134.189154
 20
109.5902
 30
0.0
 11
134.189154
 21
119.063833
 31
0.0
  0
LINE
  8
0
 10
137.689154
 20
114.1902
 30
0.0
 11
138.789154
 21
114.1902
 31
0.0
  0
LINE
  8
0
 10
122.589154
 20
112.1402
 30
0.0
 11
126.189154
 21
112.1402
 31
0.0
  0
LINE
  8
0
 10
122.689154
 20
112.1402
 30
0.0
 11
122.689154
 21
114.7402
 31
0.0
  0
LINE
  8
0
 10
137.689154
 20
112.1402
 30
0.0
 11
137.689154
 21
114.7402
 31
0.0
  0
LINE
  8
0
 10
119.689154
 20
114.7402
 30
0.0
 11
125.089154
 21
114.7402
 31
0.0
  0
LINE
  8
0
 10
124.689154
 20
114.7402
 30
0.0
 11
124.689154
 21
120.01115
 31
0.0
  0
LINE
  8
0
 10
135.689154
 20
114.7402
 30
0.0
 11
135.689154
 21
118.998615
 31
0.0
  0
LINE
  8
0
 10
125.089154
 20
114.7402
 30
0.0
 11
125.089154
 21
120.052174
 31
0.0
  0
LINE
  8
0
 10
135.289154
 20
114.7402
 30
0.0
 11
135.289154
 21
119.016007
 31
0.0
  0
LINE
  8
0
 10
123.689154
 20
114.7402
 30
0.0
 11
123.689154
 21
119.902328
 31
0.0
  0
LINE
  8
0
 10
136.689154
 20
114.7402
 30
0.0
 11
136.689154
 21
118.955137
 31
0.0
  0
LINE
  8
0
 10
135.289154
 20
114.7402
 30
0.0
 11
140.689154
 21
114.7402
 31
0.0
  0
LINE
  8
0
 10
134.189154
 20
112.1402
 30
0.0
 11
137.689154
 21
112.1402
 31
0.0
  0
LINE
  8
0
 10
123.589154
 20
114.7402
 30
0.0
 11
123.589154
 21
119.891446
 31
0.0
  0
LINE
  8
0
 10
136.789154
 20
114.7402
 30
0.0
 11
136.789154
 21
118.950789
 31
0.0
  0
LINE
  8
0
 10
163.0912
 20
152.4902
 30
0.0
 11
165.1912
 21
152.4902
 31
0.0
  0
LINE
  8
0
 10
163.0912
 20
154.4902
 30
0.0
 11
165.1912
 21
154.4902
 31
0.0
  0
LINE
  8
0
 10
162.0912
 20
156.9402
 30
0.0
 11
168.6912
 21
156.9402
 31
0.0
  0
LINE
  8
0
 10
162.0912
 20
114.7402
 30
0.0
 11
162.0912
 21
156.9402
 31
0.0
  0
CIRCLE
  8
0
 10
163.0912
 20
153.4902
 30
0.0
 40
1.0
  0
LINE
  8
0
 10
166.258006
 20
147.980028
 30
0.0
 11
168.6912
 21
148.361562
 31
0.0
  0
LINE
  8
0
 10
166.134078
 20
148.770371
 30
0.0
 11
168.6912
 21
149.171337
 31
0.0
  0
LINE
  8
0
 10
166.258006
 20
146.415028
 30
0.0
 11
168.6912
 21
146.796562
 31
0.0
  0
LINE
  8
0
 10
166.134078
 20
147.205371
 30
0.0
 11
168.6912
 21
147.606337
 31
0.0
  0
LINE
  8
0
 10
166.258006
 20
144.850028
 30
0.0
 11
168.6912
 21
145.231562
 31
0.0
  0
LINE
  8
0
 10
166.134078
 20
145.640371
 30
0.0
 11
168.6912
 21
146.041337
 31
0.0
  0
LINE
  8
0
 10
166.258006
 20
143.285028
 30
0.0
 11
168.6912
 21
143.666562
 31
0.0
  0
LINE
  8
0
 10
166.134078
 20
144.075371
 30
0.0
 11
168.6912
 21
144.476337
 31
0.0
  0
LINE
  8
0
 10
166.258006
 20
141.720028
 30
0.0
 11
168.6912
 21
142.101562
 31
0.0
  0
LINE
  8
0
 10
166.134078
 20
142.510371
 30
0.0
 11
168.6912
 21
142.911337
 31
0.0
  0
LINE
  8
0
 10
166.258006
 20
140.155028
 30
0.0
 11
168.6912
 21
140.536562
 31
0.0
  0
LINE
  8
0
 10
166.134078
 20
140.945371
 30
0.0
 11
168.6912
 21
141.346337
 31
0.0
  0
LINE
  8
0
 10
166.258006
 20
138.590028
 30
0.0
 11
168.6912
 21
138.971562
 31
0.0
  0
LINE
  8
0
 10
166.134078
 20
139.380371
 30
0.0
 11
168.6912
 21
139.781337
 31
0.0
  0
LINE
  8
0
 10
166.258006
 20
137.025028
 30
0.0
 11
168.6912
 21
137.406562
 31
0.0
  0
LINE
  8
0
 10
166.134078
 20
137.815371
 30
0.0
 11
168.6912
 21
138.216337
 31
0.0
  0
LINE
  8
0
 10
166.258006
 20
135.460028
 30
0.0
 11
168.6912
 21
135.841562
 31
0.0
  0
LINE
  8
0
 10
166.134078
 20
136.250371
 30
0.0
 11
168.6912
 21
136.651337
 31
0.0
  0
LINE
  8
0
 10
166.196042
 20
149.5402
 30
0.0
 11
168.6912
 21
149.5402
 31
0.0
  0
LINE
  8
0
 10
166.134078
 20
134.685371
 30
0.0
 11
168.6912
 21
135.086337
 31
0.0
  0
LINE
  8
0
 10
166.258006
 20
133.895028
 30
0.0
 11
168.6912
 21
134.276562
 31
0.0
  0
CIRCLE
  8
0
 10
166.196042
 20
135.8552
 30
0.0
 40
0.4
  0
CIRCLE
  8
0
 10
166.196042
 20
137.4202
 30
0.0
 40
0.4
  0
CIRCLE
  8
0
 10
166.196042
 20
138.9852
 30
0.0
 40
0.4
  0
CIRCLE
  8
0
 10
166.196042
 20
140.5502
 30
0.0
 40
0.4
  0
CIRCLE
  8
0
 10
166.196042
 20
142.1152
 30
0.0
 40
0.4
  0
CIRCLE
  8
0
 10
166.196042
 20
143.6802
 30
0.0
 40
0.4
  0
CIRCLE
  8
0
 10
166.196042
 20
145.2452
 30
0.0
 40
0.4
  0
CIRCLE
  8
0
 10
166.196042
 20
146.8102
 30
0.0
 40
0.4
  0
CIRCLE
  8
0
 10
166.196042
 20
148.3752
 30
0.0
 40
0.4
  0
CIRCLE
  8
0
 10
166.196042
 20
134.2902
 30
0.0
 40
0.4
  0
CIRCLE
  8
0
 10
166.196042
 20
149.9402
 30
0.0
 40
0.4
  0
LINE
  8
0
 10
168.6912
 20
114.7402
 30
0.0
 11
179.1912
 21
114.7402
 31
0.0
  0
LINE
  8
0
 10
163.5912
 20
127.7402
 30
0.0
 11
164.6912
 21
127.7402
 31
0.0
  0
LINE
  8
0
 10
166.326967
 20
150.3402
 30
0.0
 11
168.6912
 21
151.705191
 31
0.0
  0
LINE
  8
0
 10
164.5912
 20
127.7402
 30
0.0
 11
164.5912
 21
150.3402
 31
0.0
  0
LINE
  8
0
 10
162.1912
 20
154.7402
 30
0.0
 11
162.1912
 21
156.2402
 31
0.0
  0
LINE
  8
0
 10
165.1912
 20
152.2402
 30
0.0
 11
165.1912
 21
154.7402
 31
0.0
  0
LINE
  8
0
 10
162.1912
 20
152.2402
 30
0.0
 11
165.1912
 21
152.2402
 31
0.0
  0
LINE
  8
0
 10
162.1912
 20
154.7402
 30
0.0
 11
165.1912
 21
154.7402
 31
0.0
  0
LINE
  8
0
 10
164.5912
 20
150.3402
 30
0.0
 11
168.6912
 21
150.3402
 31
0.0
  0
LINE
  8
0
 10
162.1912
 20
156.2402
 30
0.0
 11
162.6912
 21
156.7402
 31
0.0
  0
LINE
  8
0
 10
162.6912
 20
156.7402
 30
0.0
 11
168.6912
 21
156.7402
 31
0.0
  0
LINE
  8
0
 10
162.1912
 20
114.7402
 30
0.0
 11
162.1912
 21
152.2402
 31
0.0
  0
LINE
  8
0
 10
163.1912
 20
120.2402
 30
0.0
 11
164.6912
 21
120.2402
 31
0.0
  0
LINE
  8
0
 10
163.5912
 20
114.7402
 30
0.0
 11
163.5912
 21
127.7402
 31
0.0
  0
LINE
  8
0
 10
163.1912
 20
114.7402
 30
0.0
 11
163.1912
 21
120.2402
 31
0.0
  0
LINE
  8
0
 10
158.1912
 20
114.7402
 30
0.0
 11
163.5912
 21
114.7402
 31
0.0
  0
LINE
  8
0
 10
176.1912
 20
113.335139
 30
0.0
 11
176.1912
 21
114.7402
 31
0.0
  0
LINE
  8
0
 10
161.1912
 20
112.1402
 30
0.0
 11
161.1912
 21
114.7402
 31
0.0
  0
LINE
  8
0
 10
161.0912
 20
112.1402
 30
0.0
 11
164.6912
 21
112.1402
 31
0.0
  0
LINE
  8
0
 10
164.6912
 20
124.1402
 30
0.0
 11
164.6912
 21
146.1902
 31
0.0
  0
LINE
  8
0
 10
163.7912
 20
123.3402
 30
0.0
 11
163.7912
 21
124.1402
 31
0.0
  0
LINE
  8
0
 10
165.1912
 20
123.3402
 30
0.0
 11
165.1912
 21
124.1402
 31
0.0
  0
LINE
  8
0
 10
163.7912
 20
124.1402
 30
0.0
 11
165.1912
 21
124.1402
 31
0.0
  0
LINE
  8
0
 10
163.7912
 20
123.3402
 30
0.0
 11
165.1912
 21
123.3402
 31
0.0
  0
LINE
  8
0
 10
165.6912
 20
133.8902
 30
0.0
 11
168.6912
 21
133.8902
 31
0.0
  0
LINE
  8
0
 10
165.6912
 20
133.8902
 30
0.0
 11
165.6912
 21
146.1902
 31
0.0
  0
LINE
  8
0
 10
164.6912
 20
146.1902
 30
0.0
 11
168.6912
 21
146.1902
 31
0.0
  0
LINE
  8
0
 10
168.6912
 20
114.1902
 30
0.0
 11
173.719489
 21
114.1902
 31
0.0
  0
ARC
  8
0
 10
168.6912
 20
100.1902
 30
0.0
 40
0.661151
 50
226.423642
 51
270.0
  0
ARC
  8
0
 10
168.6912
 20
100.1902
 30
0.0
 40
0.661151
 50
90.0
 51
127.995696
  0
ARC
  8
0
 10
168.6912
 20
104.6402
 30
0.0
 40
3.95
 50
90.0
 51
270.0
  0
ARC
  8
0
 10
168.6912
 20
104.6402
 30
0.0
 40
4.95
 50
90.0
 51
270.0
  0
ARC
  8
0
 10
168.6912
 20
104.6402
 30
0.0
 40
3.55
 50
90.0
 51
270.0
  0
ARC
  8
0
 10
168.6912
 20
104.6402
 30
0.0
 40
5.35
 50
90.0
 51
270.0
  0
LINE
  8
0
 10
172.6912
 20
114.1902
 30
0.0
 11
172.6912
 21
114.7402
 31
0.0
  0
LINE
  8
0
 10
164.6912
 20
111.1402
 30
0.0
 11
164.6912
 21
123.3402
 31
0.0
  0
LINE
  8
0
 10
161.1912
 20
104.6402
 30
0.0
 11
161.1912
 21
111.1402
 31
0.0
  0
LINE
  8
0
 10
161.1912
 20
111.1402
 30
0.0
 11
164.6912
 21
111.1402
 31
0.0
  0
ARC
  8
0
 10
163.5912
 20
99.3902
 30
0.0
 40
2.5
 50
180.0
 51
270.0
  0
LINE
  8
0
 10
161.0912
 20
99.3902
 30
0.0
 11
161.0912
 21
114.1902
 31
0.0
  0
ARC
  8
0
 10
168.6912
 20
104.6402
 30
0.0
 40
7.5
 50
180.0
 51
270.0
  0
ARC
  8
0
 10
173.719489
 20
110.1902
 30
0.0
 40
4.0
 50
0.0
 51
90.0
  0
LINE
  8
0
 10
163.5912
 20
96.8902
 30
0.0
 11
168.6912
 21
96.8902
 31
0.0
  0
LINE
  8
0
 10
158.6912
 20
112.7902
 30
0.0
 11
160.0912
 21
114.1902
 31
0.0
  0
LINE
  8
0
 10
160.0912
 20
114.1902
 30
0.0
 11
161.1912
 21
114.1902
 31
0.0
  0
LINE
  8
0
 10
158.6912
 20
91.8902
 30
0.0
 11
178.6912
 21
91.8902
 31
0.0
  0
LINE
  8
0
 10
178.6912
 20
91.8902
 30
0.0
 11
178.6912
 21
96.8902
 31
0.0
  0
LINE
  8
0
 10
158.6912
 20
91.8902
 30
0.0
 11
158.6912
 21
112.7902
 31
0.0
  0
LINE
  8
0
  6
CENTER
 10
168.6912
 20
88.154411
 30
0.0
 11
168.6912
 21
200.879239
 31
0.0
  0
ARC
  8
0
 10
139.689154
 20
190.088289
 30
0.0
 40
3.5
 50
0.0
 51
76.172844
  0
ARC
  8
0
 10
120.689154
 20
190.088289
 30
0.0
 40
3.5
 50
103.827156
 51
180.0
  0
ARC
  8
0
 10
130.189154
 20
151.4902
 30
0.0
 40
43.25
 50
76.172844
 51
103.827156
  0
LINE
  8
0
 10
143.189154
 20
144.7402
 30
0.0
 11
143.189154
 21
190.088289
 31
0.0
  0
LINE
  8
0
 10
140.689154
 20
114.7402
 30
0.0
 11
143.189154
 21
144.7402
 31
0.0
  0
LINE
  8
0
 10
117.189154
 20
144.7402
 30
0.0
 11
117.189154
 21
190.088289
 31
0.0
  0
LINE
  8
0
 10
119.689154
 20
114.7402
 30
0.0
 11
117.189154
 21
144.7402
 31
0.0
  0
LINE
  8
0
 10
117.189154
 20
144.7402
 30
0.0
 11
143.189154
 21
144.7402
 31
0.0
  0
ARC
  8
0
 10
178.1912
 20
190.088289
 30
0.0
 40
3.5
 50
0.0
 51
76.172844
  0
ARC
  8
0
 10
159.1912
 20
190.088289
 30
0.0
 40
3.5
 50
103.827156
 51
180.0
  0
ARC
  8
0
 10
168.6912
 20
151.4902
 30
0.0
 40
43.25
 50
76.172844
 51
103.827156
  0
LINE
  8
0
 10
181.6912
 20
144.7402
 30
0.0
 11
181.6912
 21
190.088289
 31
0.0
  0
LINE
  8
0
 10
179.1912
 20
114.7402
 30
0.0
 11
181.6912
 21
144.7402
 31
0.0
  0
LINE
  8
0
 10
155.6912
 20
144.7402
 30
0.0
 11
155.6912
 21
190.088289
 31
0.0
  0
LINE
  8
0
 10
158.1912
 20
114.7402
 30
0.0
 11
155.6912
 21
144.7402
 31
0.0
  0
LINE
  8
0
 10
168.6912
 20
144.7402
 30
0.0
 11
181.6912
 21
144.7402
 31
0.0
  0
ARC
  8
0
  6
HIDDEN
 10
130.189154
 20
154.5902
 30
0.0
 40
43.25
 50
76.172844
 51
103.827156
  0
ARC
  8
0
  6
HIDDEN
 10
120.689154
 20
193.188289
 30
0.0
 40
3.5
 50
103.827156
 51
180.0
  0
LINE
  8
0
  6
HIDDEN
 10
117.189154
 20
190.088289
 30
0.0
 11
117.189154
 21
193.188289
 31
0.0
  0
ARC
  8
0
  6
HIDDEN
 10
139.689154
 20
193.188289
 30
0.0
 40
3.5
 50
0.0
 51
76.172844
  0
LINE
  8
0
  6
HIDDEN
 10
143.189154
 20
190.08829
 30
0.0
 11
143.189154
 21
193.188289
 31
0.0
  0
LINE
  8
0
  6
HIDDEN
 10
155.6912
 20
190.088289
 30
0.0
 11
155.6912
 21
193.188289
 31
0.0
  0
ARC
  8
0
  6
HIDDEN
 10
159.1912
 20
193.188289
 30
0.0
 40
3.5
 50
103.827156
 51
180.0
  0
ARC
  8
0
  6
HIDDEN
 10
168.6912
 20
154.5902
 30
0.0
 40
43.25
 50
76.172844
 51
103.827156
  0
ARC
  8
0
  6
HIDDEN
 10
178.1912
 20
193.188289
 30
0.0
 40
3.5
 50
0.0
 51
76.172844
  0
LINE
  8
0
  6
HIDDEN
 10
181.6912
 20
190.088289
 30
0.0
 11
181.6912
 21
193.188289
 31
0.0
  0
INSERT
  8
0
  2
*X7
 10
246.944532
 20
173.604
 30
0.0
  0
ARC
  8
0
 10
320.28728
 20
104.6402
 30
0.0
 40
13.0
 50
320.284863
 51
219.715137
  0
ARC
  8
0
 10
320.28728
 20
104.6402
 30
0.0
 40
13.0
 50
258.745287
 51
281.254713
  0
LINE
  8
0
 10
245.515603
 20
117.6402
 30
0.0
 11
290.863692
 21
117.6402
 31
0.0
  0
ARC
  8
0
 10
252.265603
 20
104.6402
 30
0.0
 40
43.25
 50
346.172844
 51
13.827156
  0
ARC
  8
0
 10
290.863692
 20
114.1402
 30
0.0
 40
3.5
 50
13.827156
 51
90.0
  0
ARC
  8
0
 10
290.863692
 20
95.1402
 30
0.0
 40
3.5
 50
270.0
 51
346.172844
  0
LINE
  8
0
 10
245.515603
 20
91.6402
 30
0.0
 11
290.863692
 21
91.6402
 31
0.0
  0
LINE
  8
0
 10
245.515603
 20
104.6402
 30
0.0
 11
245.515603
 21
91.6402
 31
0.0
  0
LINE
  8
0
 10
215.515603
 20
94.1402
 30
0.0
 11
245.515603
 21
91.6402
 31
0.0
  0
LINE
  8
0
 10
215.515603
 20
115.1402
 30
0.0
 11
245.515603
 21
117.6402
 31
0.0
  0
LINE
  8
0
 10
215.515603
 20
55.51427
 30
0.0
 11
245.515603
 21
53.01427
 31
0.0
  0
LINE
  8
0
 10
245.515603
 20
79.01427
 30
0.0
 11
245.515603
 21
53.01427
 31
0.0
  0
LINE
  8
0
 10
245.515603
 20
53.01427
 30
0.0
 11
290.863692
 21
53.01427
 31
0.0
  0
ARC
  8
0
 10
290.863692
 20
56.51427
 30
0.0
 40
3.5
 50
270.0
 51
346.172844
  0
ARC
  8
0
 10
252.265603
 20
66.01427
 30
0.0
 40
43.25
 50
346.172844
 51
13.827156
  0
ARC
  8
0
 10
290.863692
 20
75.51427
 30
0.0
 40
3.5
 50
13.827156
 51
90.0
  0
LINE
  8
0
 10
245.515603
 20
79.01427
 30
0.0
 11
290.863692
 21
79.01427
 31
0.0
  0
LINE
  8
0
 10
215.515603
 20
76.51427
 30
0.0
 11
245.515603
 21
79.01427
 31
0.0
  0
INSERT
  8
0
  2
*X8
 10
-36.440227
 20
-8.300373
 30
0.0
  0
INSERT
  8
0
  2
*X9
 10
0.0
 20
-26.454991
 30
0.0
  0
INSERT
  8
0
  2
*X10
 10
-16.259593
 20
-19.348622
 30
0.0
  0
INSERT
  8
0
  2
*X11
 10
19.148386
 20
-47.210638
 30
0.0
  0
ENDSEC
  0
EOF
