  0
SECTION
  2
HEADER
  9
$ACADVER
  1
AC1009
  9
$INSBASE
 10
0.0
 20
0.0
 30
0.0
  9
$EXTMIN
 10
94.803773060911126
 20
34.782654913122087
 30
-0.0015258207003583
  9
$EXTMAX
 10
327.72766200328209
 20
459.21052657930483
 30
0.0000000349246037
  9
$LIMMIN
 10
0.0
 20
0.0
  9
$LIMMAX
 10
420.0
 20
297.0
  9
$ORTHOMODE
 70
     1
  9
$REGENMODE
 70
     1
  9
$FILLMODE
 70
     1
  9
$QTEXTMODE
 70
     0
  9
$MIRRTEXT
 70
     1
  9
$DRAGMODE
 70
     2
  9
$LTSCALE
 40
1.0
  9
$OSMODE
 70
    40
  9
$ATTMODE
 70
     1
  9
$TEXTSIZE
 40
3.5
  9
$TRACEWID
 40
1.0
  9
$TEXTSTYLE
  7
STANDARD
  9
$CLAYER
  8
0
  9
$CELTYPE
  6
CONTINUOUS
  9
$CECOLOR
 62
   256
  9
$DIMSCALE
 40
1.0
  9
$DIMASZ
 40
2.5
  9
$DIMEXO
 40
0.625
  9
$DIMDLI
 40
3.75
  9
$DIMRND
 40
0.0
  9
$DIMDLE
 40
0.0
  9
$DIMEXE
 40
1.25
  9
$DIMTP
 40
0.0
  9
$DIMTM
 40
0.0
  9
$DIMTXT
 40
2.5
  9
$DIMCEN
 40
2.5
  9
$DIMTSZ
 40
0.0
  9
$DIMTOL
 70
     0
  9
$DIMLIM
 70
     0
  9
$DIMTIH
 70
     1
  9
$DIMTOH
 70
     0
  9
$DIMSE1
 70
     0
  9
$DIMSE2
 70
     0
  9
$DIMTAD
 70
     1
  9
$DIMZIN
 70
     8
  9
$DIMBLK
  1

  9
$DIMASO
 70
     1
  9
$DIMSHO
 70
     1
  9
$DIMPOST
  1

  9
$DIMAPOST
  1

  9
$DIMALT
 70
     0
  9
$DIMALTD
 70
     2
  9
$DIMALTF
 40
0.0394
  9
$DIMLFAC
 40
1.0
  9
$DIMTOFL
 70
     1
  9
$DIMTVP
 40
1.0
  9
$DIMTIX
 70
     0
  9
$DIMSOXD
 70
     0
  9
$DIMSAH
 70
     0
  9
$DIMBLK1
  1

  9
$DIMBLK2
  1

  9
$DIMSTYLE
  2
STANDARD
  9
$DIMCLRD
 70
     0
  9
$DIMCLRE
 70
     0
  9
$DIMCLRT
 70
     0
  9
$DIMTFAC
 40
1.0
  9
$DIMGAP
 40
0.625
  9
$LUNITS
 70
     2
  9
$LUPREC
 70
     4
  9
$SKETCHINC
 40
1.0
  9
$FILLETRAD
 40
17.0
  9
$AUNITS
 70
     0
  9
$AUPREC
 70
     0
  9
$MENU
  1
acad
  9
$ELEVATION
 40
0.0
  9
$PELEVATION
 40
0.0
  9
$THICKNESS
 40
0.0
  9
$LIMCHECK
 70
     0
  9
$BLIPMODE
 70
     0
  9
$CHAMFERA
 40
10.0
  9
$CHAMFERB
 40
10.0
  9
$SKPOLY
 70
     0
  9
$TDCREATE
 40
2450491.4128025458
  9
$TDUPDATE
 40
2452236.3352368171
  9
$TDINDWG
 40
0.0729363889
  9
$TDUSRTIMER
 40
0.0729363889
  9
$USRTIMER
 70
     1
  9
$ANGBASE
 50
0.0
  9
$ANGDIR
 70
     0
  9
$PDMODE
 70
     0
  9
$PDSIZE
 40
0.0
  9
$PLINEWID
 40
0.0
  9
$COORDS
 70
     2
  9
$SPLFRAME
 70
     0
  9
$SPLINETYPE
 70
     6
  9
$SPLINESEGS
 70
     8
  9
$ATTDIA
 70
     0
  9
$ATTREQ
 70
     1
  9
$HANDLING
 70
-16383
  9
$HANDSEED
  5
44E
  9
$SURFTAB1
 70
     6
  9
$SURFTAB2
 70
     6
  9
$SURFTYPE
 70
     6
  9
$SURFU
 70
     6
  9
$SURFV
 70
     6
  9
$UCSNAME
  2

  9
$UCSORG
 10
0.0
 20
0.0
 30
0.0
  9
$UCSXDIR
 10
1.0
 20
0.0
 30
0.0
  9
$UCSYDIR
 10
0.0
 20
1.0
 30
0.0
  9
$PUCSNAME
  2

  9
$PUCSORG
 10
0.0
 20
0.0
 30
0.0
  9
$PUCSXDIR
 10
1.0
 20
0.0
 30
0.0
  9
$PUCSYDIR
 10
0.0
 20
1.0
 30
0.0
  9
$USERI1
 70
     0
  9
$USERI2
 70
     0
  9
$USERI3
 70
     0
  9
$USERI4
 70
     0
  9
$USERI5
 70
     0
  9
$USERR1
 40
0.0
  9
$USERR2
 40
0.0
  9
$USERR3
 40
0.0
  9
$USERR4
 40
0.0
  9
$USERR5
 40
0.0
  9
$WORLDVIEW
 70
     1
  9
$SHADEDGE
 70
     3
  9
$SHADEDIF
 70
    70
  9
$TILEMODE
 70
     1
  9
$MAXACTVP
 70
    16
  9
$PLIMCHECK
 70
     0
  9
$PEXTMIN
 10
1.0000000000000000E+020
 20
1.0000000000000000E+020
 30
1.0000000000000000E+020
  9
$PEXTMAX
 10
-1.0000000000000000E+020
 20
-1.0000000000000000E+020
 30
-1.0000000000000000E+020
  9
$PLIMMIN
 10
0.0
 20
0.0
  9
$PLIMMAX
 10
420.0
 20
297.0
  9
$UNITMODE
 70
     0
  9
$VISRETAIN
 70
     0
  9
$PLINEGEN
 70
     0
  9
$PSLTSCALE
 70
     1
  0
ENDSEC
  0
SECTION
  2
TABLES
  0
TABLE
  2
VPORT
 70
     3
  0
VPORT
  2
*ACTIVE
 70
     0
 10
0.0
 20
0.0
 11
1.0
 21
1.0
 12
211.2657175320966
 22
246.9965907462134
 13
0.0
 23
0.0
 14
0.5
 24
0.5
 15
10.0
 25
10.0
 16
0.0
 26
0.0
 36
1.0
 17
0.0
 27
0.0
 37
0.0
 40
855.34381270815425
 41
1.5573979591836731
 42
50.0
 43
0.0
 44
0.0
 50
0.0
 51
0.0
 71
     0
 72
   100
 73
     1
 74
     0
 75
     1
 76
     0
 77
     0
 78
     0
  0
ENDTAB
  0
TABLE
  2
LTYPE
 70
    25
  0
LTYPE
  2
CONTINUOUS
 70
     0
  3
Solid line
 72
    65
 73
     0
 40
0.0
  0
LTYPE
  2
CENTER
 70
     0
  3
____ _ ____ _ ____ _ ____ _ ____ _ ____ _ ____ 
 72
    65
 73
     4
 40
2.0
 49
1.25
 49
-0.25
 49
0.25
 49
-0.25
  0
LTYPE
  2
DASHED
 70
     0
  3
__ __ __ __ __ __ __ __ __ __ __ __ __ __ __ __
 72
    65
 73
     2
 40
0.75
 49
0.5
 49
-0.25
  0
ENDTAB
  0
TABLE
  2
LAYER
 70
     1
  0
LAYER
  2
0
 70
     0
 62
     7
  6
CONTINUOUS
  0
ENDTAB
  0
TABLE
  2
STYLE
 70
     1
  0
STYLE
  2
STANDARD
 70
     0
 40
0.0
 41
1.0
 50
0.0
 71
     0
 42
3.5
  3
txt
  4

  0
ENDTAB
  0
TABLE
  2
VIEW
 70
     0
  0
ENDTAB
  0
TABLE
  2
UCS
 70
     0
  0
ENDTAB
  0
TABLE
  2
APPID
 70
     1
  0
APPID
  2
ACAD
 70
     0
  0
ENDTAB
  0
TABLE
  2
DIMSTYLE
 70
     1
  0
DIMSTYLE
  2
STANDARD
 70
     0
  3

  4

  5

  6

  7

 40
1.0
 41
0.18
 42
0.0625
 43
0.38
 44
0.18
 45
0.0
 46
0.0
 47
0.0
 48
0.0
140
0.18
141
0.09
142
0.0
143
25.399999999999999
144
1.0
145
0.0
146
1.0
147
0.09
 71
     0
 72
     0
 73
     1
 74
     1
 75
     0
 76
     0
 77
     0
 78
     0
170
     0
171
     2
172
     0
173
     0
174
     0
175
     0
176
     0
177
     0
178
     0
  0
ENDTAB
  0
ENDSEC
  0
SECTION
  2
BLOCKS
  0
BLOCK
  8
0
  2
$MODEL_SPACE
 70
     0
 10
0.0
 20
0.0
 30
0.0
  3
$MODEL_SPACE
  1

  0
ENDBLK
  5
4A
  8
0
  0
BLOCK
 67
     1
  8
0
  2
$PAPER_SPACE
 70
     0
 10
0.0
 20
0.0
 30
0.0
  3
$PAPER_SPACE
  1

  0
ENDBLK
  5
48
 67
     1
  8
0
  0
BLOCK
  8
0
  2
*X4
 70
     1
 10
0.0
 20
0.0
 30
0.0
  3
*X4
  1

  0
LINE
  5
4C
  8
0
  6
CONTINUOUS
 62
     0
 10
150.97056274847711
 20
134.0
 30
0.0
 11
153.97056274847711
 21
137.0
 31
0.0
  0
LINE
  5
4D
  8
0
  6
CONTINUOUS
 62
     0
 10
113.0
 20
100.2720779386421
 30
0.0
 11
116.0
 21
103.2720779386421
 31
0.0
  0
LINE
  5
4E
  8
0
  6
CONTINUOUS
 62
     0
 10
146.72792206135779
 20
134.0
 30
0.0
 11
149.72792206135779
 21
137.0
 31
0.0
  0
LINE
  5
4F
  8
0
  6
CONTINUOUS
 62
     0
 10
113.0
 20
104.5147186257614
 30
0.0
 11
116.0
 21
107.5147186257614
 31
0.0
  0
LINE
  5
50
  8
0
  6
CONTINUOUS
 62
     0
 10
142.4852813742385
 20
134.0
 30
0.0
 11
145.4852813742385
 21
137.0
 31
0.0
  0
LINE
  5
51
  8
0
  6
CONTINUOUS
 62
     0
 10
113.0
 20
108.75735931288069
 30
0.0
 11
116.0
 21
111.75735931288069
 31
0.0
  0
LINE
  5
52
  8
0
  6
CONTINUOUS
 62
     0
 10
138.24264068711921
 20
134.0
 30
0.0
 11
141.24264068711921
 21
137.0
 31
0.0
  0
LINE
  5
53
  8
0
  6
CONTINUOUS
 62
     0
 10
113.0
 20
113.0
 30
0.0
 11
116.0
 21
116.0
 31
0.0
  0
LINE
  5
54
  8
0
  6
CONTINUOUS
 62
     0
 10
134.0
 20
134.0
 30
0.0
 11
137.0
 21
137.0
 31
0.0
  0
LINE
  5
55
  8
0
  6
CONTINUOUS
 62
     0
 10
113.0
 20
117.24264068711921
 30
0.0
 11
116.0
 21
120.24264068711921
 31
0.0
  0
LINE
  5
56
  8
0
  6
CONTINUOUS
 62
     0
 10
129.75735931288071
 20
134.0
 30
0.0
 11
132.75735931288071
 21
137.0
 31
0.0
  0
LINE
  5
57
  8
0
  6
CONTINUOUS
 62
     0
 10
113.0
 20
121.4852813742385
 30
0.0
 11
116.0
 21
124.4852813742385
 31
0.0
  0
LINE
  5
58
  8
0
  6
CONTINUOUS
 62
     0
 10
125.5147186257614
 20
134.0
 30
0.0
 11
128.51471862576139
 21
137.0
 31
0.0
  0
LINE
  5
59
  8
0
  6
CONTINUOUS
 62
     0
 10
113.0
 20
125.7279220613578
 30
0.0
 11
116.0
 21
128.72792206135779
 31
0.0
  0
LINE
  5
5A
  8
0
  6
CONTINUOUS
 62
     0
 10
121.2720779386421
 20
134.0
 30
0.0
 11
124.2720779386421
 21
137.0
 31
0.0
  0
LINE
  5
5B
  8
0
  6
CONTINUOUS
 62
     0
 10
113.2880038497963
 20
130.2585665982734
 30
0.0
 11
119.7414334017265
 21
136.71199615020359
 31
0.0
  0
LINE
  5
5C
  8
0
  6
CONTINUOUS
 62
     0
 10
155.2132034355964
 20
134.0
 30
0.0
 11
158.2132034355964
 21
137.0
 31
0.0
  0
LINE
  5
5D
  8
0
  6
CONTINUOUS
 62
     0
 10
159.45584412271569
 20
134.0
 30
0.0
 11
162.4558441227156
 21
137.0
 31
0.0
  0
LINE
  5
5E
  8
0
  6
CONTINUOUS
 62
     0
 10
120.5764158861447
 20
133.9820253410123
 30
0.0
 11
118.33740663175119
 21
136.2210345954058
 31
0.0
  0
LINE
  5
5F
  8
0
  6
CONTINUOUS
 62
     0
 10
117.6258941113708
 20
132.68990642866689
 30
0.0
 11
115.7958984227441
 21
134.51990211729361
 31
0.0
  0
LINE
  5
60
  8
0
  6
CONTINUOUS
 62
     0
 10
116.09634496734159
 20
129.9768148855768
 30
0.0
 11
113.9830700673099
 21
132.09008978560851
 31
0.0
  0
LINE
  5
61
  8
0
  6
CONTINUOUS
 62
     0
 10
116.0
 20
125.8305191657992
 30
0.0
 11
113.0352087916776
 21
128.79531037412161
 31
0.0
  0
LINE
  5
62
  8
0
  6
CONTINUOUS
 62
     0
 10
116.0
 20
121.5878784786799
 30
0.0
 11
113.0
 21
124.5878784786799
 31
0.0
  0
LINE
  5
63
  8
0
  6
CONTINUOUS
 62
     0
 10
116.0
 20
117.34523779156061
 30
0.0
 11
113.0
 21
120.34523779156061
 31
0.0
  0
LINE
  5
64
  8
0
  6
CONTINUOUS
 62
     0
 10
116.0
 20
113.1025971044413
 30
0.0
 11
113.0
 21
116.1025971044413
 31
0.0
  0
LINE
  5
65
  8
0
  6
CONTINUOUS
 62
     0
 10
116.0
 20
108.859956417322
 30
0.0
 11
113.0
 21
111.859956417322
 31
0.0
  0
LINE
  5
66
  8
0
  6
CONTINUOUS
 62
     0
 10
116.0
 20
104.6173157302028
 30
0.0
 11
113.0
 21
107.6173157302028
 31
0.0
  0
LINE
  5
67
  8
0
  6
CONTINUOUS
 62
     0
 10
116.0
 20
100.3746750430835
 30
0.0
 11
113.0
 21
103.3746750430835
 31
0.0
  0
LINE
  5
68
  8
0
  6
CONTINUOUS
 62
     0
 10
124.8010819142763
 20
134.0
 30
0.0
 11
121.8032331270544
 21
136.9978487872219
 31
0.0
  0
LINE
  5
69
  8
0
  6
CONTINUOUS
 62
     0
 10
129.04372260139559
 20
134.0
 30
0.0
 11
126.0437226013956
 21
137.0
 31
0.0
  0
LINE
  5
6A
  8
0
  6
CONTINUOUS
 62
     0
 10
133.28636328851491
 20
134.0
 30
0.0
 11
130.28636328851491
 21
137.0
 31
0.0
  0
LINE
  5
6B
  8
0
  6
CONTINUOUS
 62
     0
 10
137.5290039756342
 20
134.0
 30
0.0
 11
134.5290039756342
 21
137.0
 31
0.0
  0
LINE
  5
6C
  8
0
  6
CONTINUOUS
 62
     0
 10
141.77164466275349
 20
134.0
 30
0.0
 11
138.77164466275349
 21
137.0
 31
0.0
  0
LINE
  5
6D
  8
0
  6
CONTINUOUS
 62
     0
 10
146.01428534987281
 20
134.0
 30
0.0
 11
143.01428534987281
 21
137.0
 31
0.0
  0
LINE
  5
6E
  8
0
  6
CONTINUOUS
 62
     0
 10
150.2569260369921
 20
134.0
 30
0.0
 11
147.2569260369921
 21
137.0
 31
0.0
  0
LINE
  5
6F
  8
0
  6
CONTINUOUS
 62
     0
 10
154.49956672411139
 20
134.0
 30
0.0
 11
151.4995667241113
 21
137.0
 31
0.0
  0
LINE
  5
70
  8
0
  6
CONTINUOUS
 62
     0
 10
158.74220741123059
 20
134.0
 30
0.0
 11
155.74220741123059
 21
137.0
 31
0.0
  0
LINE
  5
71
  8
0
  6
CONTINUOUS
 62
     0
 10
162.98484809834989
 20
134.0
 30
0.0
 11
159.98484809834989
 21
137.0
 31
0.0
  0
ENDBLK
  5
72
  8
0
  0
BLOCK
  8
0
  2
*X9
 70
     1
 10
0.0
 20
0.0
 30
0.0
  3
*X9
  1

  0
LINE
  5
94
  8
0
  6
CONTINUOUS
 62
     0
 10
170.98571465012711
 20
451.0
 30
0.0
 11
173.98571465012719
 21
454.0
 31
0.0
  0
LINE
  5
95
  8
0
  6
CONTINUOUS
 62
     0
 10
166.7430739630079
 20
451.0
 30
0.0
 11
169.74307396300779
 21
454.0
 31
0.0
  0
LINE
  5
96
  8
0
  6
CONTINUOUS
 62
     0
 10
162.50043327588861
 20
451.0
 30
0.0
 11
165.50043327588861
 21
454.0
 31
0.0
  0
LINE
  5
97
  8
0
  6
CONTINUOUS
 62
     0
 10
158.25779258876929
 20
451.0
 30
0.0
 11
161.25779258876929
 21
454.0
 31
0.0
  0
LINE
  5
98
  8
0
  6
CONTINUOUS
 62
     0
 10
154.01515190165
 20
451.0
 30
0.0
 11
157.01515190165
 21
454.0
 31
0.0
  0
LINE
  5
99
  8
0
  6
CONTINUOUS
 62
     0
 10
100.0
 20
401.22748878546918
 30
0.0
 11
103.0
 21
404.22748878546918
 31
0.0
  0
LINE
  5
9A
  8
0
  6
CONTINUOUS
 62
     0
 10
149.77251121453071
 20
451.0
 30
0.0
 11
152.77251121453071
 21
454.0
 31
0.0
  0
LINE
  5
9B
  8
0
  6
CONTINUOUS
 62
     0
 10
100.0
 20
405.4701294725885
 30
0.0
 11
103.0
 21
408.4701294725885
 31
0.0
  0
LINE
  5
9C
  8
0
  6
CONTINUOUS
 62
     0
 10
145.52987052741139
 20
451.0
 30
0.0
 11
148.52987052741139
 21
454.0
 31
0.0
  0
LINE
  5
9D
  8
0
  6
CONTINUOUS
 62
     0
 10
100.0
 20
409.71277015970782
 30
0.0
 11
103.0
 21
412.7127701597077
 31
0.0
  0
LINE
  5
9E
  8
0
  6
CONTINUOUS
 62
     0
 10
141.2872298402921
 20
451.0
 30
0.0
 11
144.2872298402921
 21
454.0
 31
0.0
  0
LINE
  5
9F
  8
0
  6
CONTINUOUS
 62
     0
 10
100.0
 20
413.95541084682708
 30
0.0
 11
103.0
 21
416.95541084682702
 31
0.0
  0
LINE
  5
A0
  8
0
  6
CONTINUOUS
 62
     0
 10
137.04458915317289
 20
451.0
 30
0.0
 11
140.04458915317289
 21
454.0
 31
0.0
  0
LINE
  5
A1
  8
0
  6
CONTINUOUS
 62
     0
 10
100.0
 20
418.19805153394628
 30
0.0
 11
103.0
 21
421.1980515339464
 31
0.0
  0
LINE
  5
A2
  8
0
  6
CONTINUOUS
 62
     0
 10
132.8019484660536
 20
451.0
 30
0.0
 11
135.8019484660536
 21
454.0
 31
0.0
  0
LINE
  5
A3
  8
0
  6
CONTINUOUS
 62
     0
 10
100.0
 20
422.4406922210656
 30
0.0
 11
103.0
 21
425.4406922210656
 31
0.0
  0
LINE
  5
A4
  8
0
  6
CONTINUOUS
 62
     0
 10
128.55930777893431
 20
451.0
 30
0.0
 11
131.55930777893431
 21
454.0
 31
0.0
  0
LINE
  5
A5
  8
0
  6
CONTINUOUS
 62
     0
 10
100.0
 20
426.68333290818481
 30
0.0
 11
103.0
 21
429.68333290818498
 31
0.0
  0
LINE
  5
A6
  8
0
  6
CONTINUOUS
 62
     0
 10
124.31666709181501
 20
451.0
 30
0.0
 11
127.31666709181501
 21
454.0
 31
0.0
  0
LINE
  5
A7
  8
0
  6
CONTINUOUS
 62
     0
 10
100.08066184224
 20
431.00663543754422
 30
0.0
 11
103.4639741165048
 21
434.3899477118091
 31
0.0
  0
LINE
  5
A8
  8
0
  6
CONTINUOUS
 62
     0
 10
119.6100522881909
 20
450.53602588349509
 30
0.0
 11
122.9933645624557
 21
453.91933815775991
 31
0.0
  0
LINE
  5
A9
  8
0
  6
CONTINUOUS
 62
     0
 10
101.07127131332579
 20
436.23988559574929
 30
0.0
 11
106.62320557845911
 21
441.7918198608827
 31
0.0
  0
LINE
  5
AA
  8
0
  6
CONTINUOUS
 62
     0
 10
112.2081801391173
 20
447.37679442154081
 30
0.0
 11
117.7601144042505
 21
452.92872868667411
 31
0.0
  0
LINE
  5
AB
  8
0
  6
CONTINUOUS
 62
     0
 10
175.2283553372464
 20
451.0
 30
0.0
 11
178.2283553372464
 21
454.0
 31
0.0
  0
LINE
  5
AC
  8
0
  6
CONTINUOUS
 62
     0
 10
179.47099602436569
 20
451.0
 30
0.0
 11
182.47099602436569
 21
454.0
 31
0.0
  0
LINE
  5
AD
  8
0
  6
CONTINUOUS
 62
     0
 10
183.71363671148501
 20
451.0
 30
0.0
 11
186.71363671148501
 21
454.0
 31
0.0
  0
LINE
  5
AE
  8
0
  6
CONTINUOUS
 62
     0
 10
118.3017330822875
 20
450.21211899169663
 30
0.0
 11
116.13746498850701
 21
452.37638708547712
 31
0.0
  0
LINE
  5
AF
  8
0
  6
CONTINUOUS
 62
     0
 10
115.2027110135181
 20
449.06850037334669
 30
0.0
 11
113.2203594888516
 21
451.05085189801321
 31
0.0
  0
LINE
  5
B0
  8
0
  6
CONTINUOUS
 62
     0
 10
112.474199936453
 20
447.55437076329252
 30
0.0
 11
110.5954999780524
 21
449.43307072169301
 31
0.0
  0
LINE
  5
B1
  8
0
  6
CONTINUOUS
 62
     0
 10
110.0705963191734
 20
445.71533369345292
 30
0.0
 11
108.23786337824249
 21
447.5480666343837
 31
0.0
  0
LINE
  5
B2
  8
0
  6
CONTINUOUS
 62
     0
 10
107.973295323538
 20
443.56999400196889
 30
0.0
 11
106.1367036884985
 21
445.4065856370085
 31
0.0
  0
LINE
  5
B3
  8
0
  6
CONTINUOUS
 62
     0
 10
106.183822570899
 20
441.1168260674886
 30
0.0
 11
104.2929145806005
 21
443.00773405778727
 31
0.0
  0
LINE
  5
B4
  8
0
  6
CONTINUOUS
 62
     0
 10
104.72435973895161
 20
438.33364821231669
 30
0.0
 11
102.7192388820532
 21
440.33876906921518
 31
0.0
  0
LINE
  5
B5
  8
0
  6
CONTINUOUS
 62
     0
 10
103.64615033198351
 20
435.16921693216563
 30
0.0
 11
101.44345072944709
 21
437.37191653470188
 31
0.0
  0
LINE
  5
B6
  8
0
  6
CONTINUOUS
 62
     0
 10
103.0549225155201
 20
431.51780406150971
 30
0.0
 11
100.5166218609445
 21
434.05610471608537
 31
0.0
  0
LINE
  5
B7
  8
0
  6
CONTINUOUS
 62
     0
 10
103.0
 20
427.33008588991061
 30
0.0
 11
100.03363816461101
 21
430.29644772529952
 31
0.0
  0
LINE
  5
B8
  8
0
  6
CONTINUOUS
 62
     0
 10
103.0
 20
423.08744520279129
 30
0.0
 11
100.0
 21
426.08744520279129
 31
0.0
  0
LINE
  5
B9
  8
0
  6
CONTINUOUS
 62
     0
 10
103.0
 20
418.84480451567208
 30
0.0
 11
100.0
 21
421.84480451567202
 31
0.0
  0
LINE
  5
BA
  8
0
  6
CONTINUOUS
 62
     0
 10
103.0
 20
414.6021638285527
 30
0.0
 11
100.0
 21
417.6021638285527
 31
0.0
  0
LINE
  5
BB
  8
0
  6
CONTINUOUS
 62
     0
 10
103.0
 20
410.3595231414335
 30
0.0
 11
100.0
 21
413.35952314143339
 31
0.0
  0
LINE
  5
BC
  8
0
  6
CONTINUOUS
 62
     0
 10
103.0
 20
406.11688245431412
 30
0.0
 11
100.0
 21
409.11688245431412
 31
0.0
  0
LINE
  5
BD
  8
0
  6
CONTINUOUS
 62
     0
 10
103.0
 20
401.87424176719492
 30
0.0
 11
100.0
 21
404.8742417671948
 31
0.0
  0
LINE
  5
BE
  8
0
  6
CONTINUOUS
 62
     0
 10
121.8652756594186
 20
450.89121710168479
 30
0.0
 11
119.3933041108708
 21
453.36318865023259
 31
0.0
  0
LINE
  5
BF
  8
0
  6
CONTINUOUS
 62
     0
 10
125.99913344822269
 20
451.0
 30
0.0
 11
123.0734740252763
 21
453.9256594229463
 31
0.0
  0
LINE
  5
C0
  8
0
  6
CONTINUOUS
 62
     0
 10
130.24177413534201
 20
451.0
 30
0.0
 11
127.241774135342
 21
454.0
 31
0.0
  0
LINE
  5
C1
  8
0
  6
CONTINUOUS
 62
     0
 10
134.4844148224613
 20
451.0
 30
0.0
 11
131.4844148224613
 21
454.0
 31
0.0
  0
LINE
  5
C2
  8
0
  6
CONTINUOUS
 62
     0
 10
138.72705550958051
 20
451.0
 30
0.0
 11
135.72705550958051
 21
454.0
 31
0.0
  0
LINE
  5
C3
  8
0
  6
CONTINUOUS
 62
     0
 10
142.9696961966998
 20
451.0
 30
0.0
 11
139.9696961966998
 21
454.0
 31
0.0
  0
LINE
  5
C4
  8
0
  6
CONTINUOUS
 62
     0
 10
147.21233688381909
 20
451.0
 30
0.0
 11
144.21233688381909
 21
454.0
 31
0.0
  0
LINE
  5
C5
  8
0
  6
CONTINUOUS
 62
     0
 10
151.45497757093841
 20
451.0
 30
0.0
 11
148.45497757093841
 21
454.0
 31
0.0
  0
LINE
  5
C6
  8
0
  6
CONTINUOUS
 62
     0
 10
155.6976182580577
 20
451.0
 30
0.0
 11
152.6976182580577
 21
454.0
 31
0.0
  0
LINE
  5
C7
  8
0
  6
CONTINUOUS
 62
     0
 10
159.94025894517699
 20
451.0
 30
0.0
 11
156.94025894517699
 21
454.0
 31
0.0
  0
LINE
  5
C8
  8
0
  6
CONTINUOUS
 62
     0
 10
164.18289963229631
 20
451.0
 30
0.0
 11
161.18289963229631
 21
454.0
 31
0.0
  0
LINE
  5
C9
  8
0
  6
CONTINUOUS
 62
     0
 10
168.4255403194156
 20
451.0
 30
0.0
 11
165.4255403194156
 21
454.0
 31
0.0
  0
LINE
  5
CA
  8
0
  6
CONTINUOUS
 62
     0
 10
172.66818100653481
 20
451.0
 30
0.0
 11
169.66818100653481
 21
454.0
 31
0.0
  0
LINE
  5
CB
  8
0
  6
CONTINUOUS
 62
     0
 10
176.9108216936541
 20
451.0
 30
0.0
 11
173.9108216936541
 21
454.0
 31
0.0
  0
LINE
  5
CC
  8
0
  6
CONTINUOUS
 62
     0
 10
181.15346238077339
 20
451.0
 30
0.0
 11
178.15346238077339
 21
454.0
 31
0.0
  0
LINE
  5
CD
  8
0
  6
CONTINUOUS
 62
     0
 10
185.39610306789271
 20
451.0
 30
0.0
 11
182.39610306789271
 21
454.0
 31
0.0
  0
ENDBLK
  5
CE
  8
0
  0
ENDSEC
  0
SECTION
  2
ENTITIES
  0
LINE
  5
102
  8
0
 10
100.0
 20
100.0
 30
0.0
 11
116.0
 21
100.0
 31
0.0
  0
LINE
  5
103
  8
0
 10
116.0
 20
100.0
 30
0.0
 11
116.0
 21
129.0
 31
0.0
  0
LINE
  5
104
  8
0
 10
121.0
 20
134.0
 30
0.0
 11
164.0
 21
134.0
 31
0.0
  0
LINE
  5
105
  8
0
 10
164.0
 20
150.0
 30
0.0
 11
121.0
 21
150.0
 31
0.0
  0
LINE
  5
106
  8
0
 10
100.0
 20
129.0
 30
0.0
 11
100.0
 21
100.0
 31
0.0
  0
ARC
  5
107
  8
0
 10
121.0
 20
129.0
 30
0.0
 40
5.0
 50
90.0
 51
180.0
  0
ARC
  5
108
  8
0
 10
121.0
 20
129.0
 30
0.0
 40
21.0
 50
90.0
 51
180.0
  0
LINE
  5
109
  8
0
 10
103.0
 20
100.0
 30
0.0
 11
103.0
 21
130.0
 31
0.0
  0
LINE
  5
10A
  8
0
 10
113.0
 20
100.0
 30
0.0
 11
113.0
 21
128.0
 31
0.0
  0
LINE
  5
10B
  8
0
 10
122.0
 20
137.0
 30
0.0
 11
164.0
 21
137.0
 31
0.0
  0
LINE
  5
10C
  8
0
 10
120.0
 20
147.0
 30
0.0
 11
164.0
 21
147.0
 31
0.0
  0
ARC
  5
10D
  8
0
 10
122.0
 20
128.0
 30
0.0
 40
9.0
 50
90.0
 51
180.0
  0
ARC
  5
10E
  8
0
 10
120.0
 20
130.0
 30
0.0
 40
17.0
 50
90.0
 51
180.0
  0
LINE
  5
10F
  8
0
 10
110.4999999999999
 20
100.0
 30
0.0
 11
110.4999999999999
 21
116.0
 31
0.0
  0
LINE
  5
110
  8
0
 10
110.4999999999999
 20
116.0
 30
0.0
 11
108.0
 21
118.0
 31
0.0
  0
LINE
  5
111
  8
0
 10
108.0
 20
118.0
 30
0.0
 11
105.4999999999999
 21
116.0
 31
0.0
  0
LINE
  5
112
  8
0
 10
105.4999999999999
 20
116.0
 30
0.0
 11
105.4999999999999
 21
100.0
 31
0.0
  0
LINE
  5
113
  8
0
 10
111.0
 20
100.0
 30
0.0
 11
111.0
 21
110.0
 31
0.0
  0
LINE
  5
114
  8
0
 10
105.0
 20
100.0
 30
0.0
 11
105.0
 21
110.0
 31
0.0
  0
LINE
  5
115
  8
0
 10
105.4999999999999
 20
116.0
 30
0.0
 11
110.4999999999999
 21
116.0
 31
0.0
  0
LINE
  5
116
  8
0
  6
CENTER
 10
108.0
 20
97.0
 30
0.0
 11
108.0
 21
129.0
 31
0.0
  0
LINE
  5
117
  8
0
  6
CENTER
 10
121.0
 20
142.0
 30
0.0
 11
164.0
 21
142.0
 31
0.0
  0
ARC
  5
118
  8
0
  6
CENTER
 10
121.0
 20
129.0
 30
0.0
 40
13.0
 50
90.0
 51
180.0
  0
ARC
  5
119
  8
0
 10
207.0
 20
129.0
 30
0.0
 40
21.0
 50
0.0
 51
90.0
  0
LINE
  5
11A
  8
0
  6
CENTER
 10
207.0
 20
142.0
 30
0.0
 11
164.0
 21
142.0
 31
0.0
  0
LINE
  5
11B
  8
0
 10
207.0
 20
134.0
 30
0.0
 11
164.0
 21
134.0
 31
0.0
  0
LINE
  5
11C
  8
0
  6
CENTER
 10
220.0
 20
97.0
 30
0.0
 11
220.0
 21
129.0
 31
0.0
  0
LINE
  5
11D
  8
0
 10
228.0
 20
129.0
 30
0.0
 11
228.0
 21
100.0
 31
0.0
  0
LINE
  5
11E
  8
0
 10
212.0
 20
100.0
 30
0.0
 11
212.0
 21
129.0
 31
0.0
  0
LINE
  5
11F
  8
0
 10
228.0
 20
100.0
 30
0.0
 11
212.0
 21
100.0
 31
0.0
  0
ARC
  5
120
  8
0
  6
CENTER
 10
207.0
 20
129.0
 30
0.0
 40
13.0
 50
0.0
 51
90.0
  0
ARC
  5
121
  8
0
 10
207.0
 20
129.0
 30
0.0
 40
5.0
 50
0.0
 51
90.0
  0
LINE
  5
122
  8
0
 10
164.0
 20
150.0
 30
0.0
 11
207.0
 21
150.0
 31
0.0
  0
LINE
  5
123
  8
0
  6
CONTINUOUS
 62
     0
 10
110.4999999999999
 20
102.0147186257614
 30
0.0
 11
113.0
 21
104.5147186257614
 31
0.0
  0
LINE
  5
124
  8
0
  6
CONTINUOUS
 62
     0
 10
145.4852813742385
 20
137.0
 30
0.0
 11
155.4852813742385
 21
147.0
 31
0.0
  0
LINE
  5
125
  8
0
  6
CONTINUOUS
 62
     0
 10
104.24264068711931
 20
100.0
 30
0.0
 11
105.4999999999999
 21
101.25735931288069
 31
0.0
  0
LINE
  5
126
  8
0
  6
CONTINUOUS
 62
     0
 10
141.24264068711921
 20
137.0
 30
0.0
 11
151.24264068711929
 21
147.0
 31
0.0
  0
LINE
  5
127
  8
0
  6
CONTINUOUS
 62
     0
 10
103.0
 20
103.0
 30
0.0
 11
105.4999999999999
 21
105.4999999999999
 31
0.0
  0
LINE
  5
128
  8
0
  6
CONTINUOUS
 62
     0
 10
137.0
 20
137.0
 30
0.0
 11
147.0
 21
147.0
 31
0.0
  0
LINE
  5
129
  8
0
  6
CONTINUOUS
 62
     0
 10
110.4999999999999
 20
110.4999999999999
 30
0.0
 11
113.0
 21
113.0
 31
0.0
  0
LINE
  5
12A
  8
0
  6
CONTINUOUS
 62
     0
 10
103.0
 20
107.24264068711921
 30
0.0
 11
105.4999999999999
 21
109.74264068711921
 31
0.0
  0
LINE
  5
12B
  8
0
  6
CONTINUOUS
 62
     0
 10
132.75735931288071
 20
137.0
 30
0.0
 11
142.75735931288071
 21
147.0
 31
0.0
  0
LINE
  5
12C
  8
0
  6
CONTINUOUS
 62
     0
 10
110.4999999999999
 20
114.74264068711931
 30
0.0
 11
113.0
 21
117.24264068711921
 31
0.0
  0
LINE
  5
12D
  8
0
  6
CONTINUOUS
 62
     0
 10
103.0
 20
111.4852813742385
 30
0.0
 11
105.4999999999999
 21
113.9852813742385
 31
0.0
  0
LINE
  5
12E
  8
0
  6
CONTINUOUS
 62
     0
 10
128.51471862576139
 20
137.0
 30
0.0
 11
138.51471862576139
 21
147.0
 31
0.0
  0
LINE
  5
12F
  8
0
  6
CONTINUOUS
 62
     0
 10
108.8415103476452
 20
117.32679172188379
 30
0.0
 11
113.0
 21
121.4852813742385
 31
0.0
  0
LINE
  5
130
  8
0
  6
CONTINUOUS
 62
     0
 10
103.0
 20
115.7279220613578
 30
0.0
 11
113.0
 21
125.7279220613578
 31
0.0
  0
LINE
  5
131
  8
0
  6
CONTINUOUS
 62
     0
 10
124.2720779386421
 20
137.0
 30
0.0
 11
134.2720779386421
 21
147.0
 31
0.0
  0
LINE
  5
132
  8
0
  6
CONTINUOUS
 62
     0
 10
103.0
 20
119.97056274847709
 30
0.0
 11
113.2880038497963
 21
130.2585665982734
 31
0.0
  0
LINE
  5
133
  8
0
  6
CONTINUOUS
 62
     0
 10
119.7414334017265
 20
136.71199615020359
 30
0.0
 11
130.02943725152281
 21
147.0
 31
0.0
  0
LINE
  5
134
  8
0
  6
CONTINUOUS
 62
     0
 10
103.0
 20
124.2132034355964
 30
0.0
 11
125.7867965644035
 21
147.0
 31
0.0
  0
LINE
  5
135
  8
0
  6
CONTINUOUS
 62
     0
 10
103.0
 20
128.45584412271569
 30
0.0
 11
121.5441558772843
 21
147.0
 31
0.0
  0
LINE
  5
136
  8
0
  6
CONTINUOUS
 62
     0
 10
103.2592828581938
 20
132.95776766802879
 30
0.0
 11
117.04223233197111
 21
146.7407171418061
 31
0.0
  0
LINE
  5
137
  8
0
  6
CONTINUOUS
 62
     0
 10
106.9314265572345
 20
140.87255205418879
 30
0.0
 11
109.1274479458111
 21
143.0685734427654
 31
0.0
  0
LINE
  5
138
  8
0
  6
CONTINUOUS
 62
     0
 10
112.7279220613578
 20
100.0
 30
0.0
 11
113.0
 21
100.2720779386421
 31
0.0
  0
LINE
  5
139
  8
0
  6
CONTINUOUS
 62
     0
 10
153.97056274847711
 20
137.0
 30
0.0
 11
164.0
 21
147.02943725152281
 31
0.0
  0
LINE
  5
13A
  8
0
  6
CONTINUOUS
 62
     0
 10
158.2132034355964
 20
137.0
 30
0.0
 11
164.0
 21
142.78679656440349
 31
0.0
  0
LINE
  5
13B
  8
0
  6
CONTINUOUS
 62
     0
 10
162.4558441227156
 20
137.0
 30
0.0
 11
164.0
 21
138.5441558772842
 31
0.0
  0
LINE
  5
13C
  8
0
  6
CONTINUOUS
 62
     0
 10
110.4999999999999
 20
106.25735931288069
 30
0.0
 11
113.0
 21
108.75735931288069
 31
0.0
  0
LINE
  5
13D
  8
0
  6
CONTINUOUS
 62
     0
 10
149.72792206135779
 20
137.0
 30
0.0
 11
159.72792206135779
 21
147.0
 31
0.0
  0
LINE
  5
13E
  8
0
  6
CONTINUOUS
 62
     0
 10
151.24264068711929
 20
147.0
 30
0.0
 11
154.24264068711929
 21
150.0
 31
0.0
  0
LINE
  5
13F
  8
0
  6
CONTINUOUS
 62
     0
 10
100.0
 20
100.0
 30
0.0
 11
103.0
 21
103.0
 31
0.0
  0
LINE
  5
140
  8
0
  6
CONTINUOUS
 62
     0
 10
100.0
 20
104.24264068711921
 30
0.0
 11
103.0
 21
107.24264068711921
 31
0.0
  0
LINE
  5
141
  8
0
  6
CONTINUOUS
 62
     0
 10
142.75735931288071
 20
147.0
 30
0.0
 11
145.75735931288071
 21
150.0
 31
0.0
  0
LINE
  5
142
  8
0
  6
CONTINUOUS
 62
     0
 10
100.0
 20
108.4852813742385
 30
0.0
 11
103.0
 21
111.4852813742385
 31
0.0
  0
LINE
  5
143
  8
0
  6
CONTINUOUS
 62
     0
 10
138.51471862576139
 20
147.0
 30
0.0
 11
141.51471862576139
 21
150.0
 31
0.0
  0
LINE
  5
144
  8
0
  6
CONTINUOUS
 62
     0
 10
100.0
 20
112.7279220613578
 30
0.0
 11
103.0
 21
115.7279220613578
 31
0.0
  0
LINE
  5
145
  8
0
  6
CONTINUOUS
 62
     0
 10
134.2720779386421
 20
147.0
 30
0.0
 11
137.2720779386421
 21
150.0
 31
0.0
  0
LINE
  5
146
  8
0
  6
CONTINUOUS
 62
     0
 10
100.0
 20
116.97056274847709
 30
0.0
 11
103.0
 21
119.97056274847709
 31
0.0
  0
LINE
  5
147
  8
0
  6
CONTINUOUS
 62
     0
 10
130.02943725152281
 20
147.0
 30
0.0
 11
133.02943725152281
 21
150.0
 31
0.0
  0
LINE
  5
148
  8
0
  6
CONTINUOUS
 62
     0
 10
100.0
 20
121.2132034355964
 30
0.0
 11
103.0
 21
124.2132034355964
 31
0.0
  0
LINE
  5
149
  8
0
  6
CONTINUOUS
 62
     0
 10
125.7867965644035
 20
147.0
 30
0.0
 11
128.78679656440349
 21
150.0
 31
0.0
  0
LINE
  5
14A
  8
0
  6
CONTINUOUS
 62
     0
 10
100.0
 20
125.4558441227157
 30
0.0
 11
103.0
 21
128.45584412271569
 31
0.0
  0
LINE
  5
14B
  8
0
  6
CONTINUOUS
 62
     0
 10
121.5441558772843
 20
147.0
 30
0.0
 11
124.5441558772842
 21
150.0
 31
0.0
  0
LINE
  5
14C
  8
0
  6
CONTINUOUS
 62
     0
 10
100.0120229975432
 20
129.71050780737821
 30
0.0
 11
103.2592828581938
 21
132.95776766802879
 31
0.0
  0
LINE
  5
14D
  8
0
  6
CONTINUOUS
 62
     0
 10
117.04223233197111
 20
146.7407171418061
 30
0.0
 11
120.28949219262169
 21
149.98797700245669
 31
0.0
  0
LINE
  5
14E
  8
0
  6
CONTINUOUS
 62
     0
 10
100.80001805024411
 20
134.74114354719839
 30
0.0
 11
106.9314265572345
 21
140.87255205418879
 31
0.0
  0
LINE
  5
14F
  8
0
  6
CONTINUOUS
 62
     0
 10
109.1274479458111
 20
143.0685734427654
 30
0.0
 11
115.2588564528015
 21
149.1999819497558
 31
0.0
  0
LINE
  5
150
  8
0
  6
CONTINUOUS
 62
     0
 10
155.4852813742385
 20
147.0
 30
0.0
 11
158.4852813742385
 21
150.0
 31
0.0
  0
LINE
  5
151
  8
0
  6
CONTINUOUS
 62
     0
 10
159.72792206135779
 20
147.0
 30
0.0
 11
162.72792206135779
 21
150.0
 31
0.0
  0
LINE
  5
152
  8
0
  6
CONTINUOUS
 62
     0
 10
110.4764601993941
 20
144.08198102776291
 30
0.0
 11
108.6059403601846
 21
145.9525008669724
 31
0.0
  0
LINE
  5
153
  8
0
  6
CONTINUOUS
 62
     0
 10
108.13812208967261
 20
142.17767845036511
 30
0.0
 11
106.3094974096191
 21
144.00630313041859
 31
0.0
  0
LINE
  5
154
  8
0
  6
CONTINUOUS
 62
     0
 10
106.17719623189829
 20
139.89596362102009
 30
0.0
 11
104.3177151055969
 21
141.75544474732149
 31
0.0
  0
LINE
  5
155
  8
0
  6
CONTINUOUS
 62
     0
 10
104.6097345740861
 20
137.220784591713
 30
0.0
 11
102.6388841421616
 21
139.1916350236375
 31
0.0
  0
LINE
  5
156
  8
0
  6
CONTINUOUS
 62
     0
 10
103.49904682440931
 20
134.08883165427051
 30
0.0
 11
101.3037646728269
 21
136.284113805853
 31
0.0
  0
LINE
  5
157
  8
0
  6
CONTINUOUS
 62
     0
 10
103.00343646921399
 20
130.3418013223465
 30
0.0
 11
100.3781191521923
 21
132.96711863936829
 31
0.0
  0
LINE
  5
158
  8
0
  6
CONTINUOUS
 62
     0
 10
103.0
 20
126.1025971044413
 30
0.0
 11
100.00024940745899
 21
129.10234769698221
 31
0.0
  0
LINE
  5
159
  8
0
  6
CONTINUOUS
 62
     0
 10
103.0
 20
121.8599564173221
 30
0.0
 11
100.0
 21
124.8599564173221
 31
0.0
  0
LINE
  5
15A
  8
0
  6
CONTINUOUS
 62
     0
 10
103.0
 20
117.6173157302028
 30
0.0
 11
100.0
 21
120.6173157302028
 31
0.0
  0
LINE
  5
15B
  8
0
  6
CONTINUOUS
 62
     0
 10
103.0
 20
113.3746750430835
 30
0.0
 11
100.0
 21
116.3746750430835
 31
0.0
  0
LINE
  5
15C
  8
0
  6
CONTINUOUS
 62
     0
 10
103.0
 20
109.13203435596419
 30
0.0
 11
100.0
 21
112.13203435596419
 31
0.0
  0
LINE
  5
15D
  8
0
  6
CONTINUOUS
 62
     0
 10
103.0
 20
104.8893936688449
 30
0.0
 11
100.0
 21
107.8893936688449
 31
0.0
  0
LINE
  5
15E
  8
0
  6
CONTINUOUS
 62
     0
 10
103.0
 20
100.6467529817256
 30
0.0
 11
100.0
 21
103.6467529817256
 31
0.0
  0
LINE
  5
15F
  8
0
  6
CONTINUOUS
 62
     0
 10
113.2141546199625
 20
145.58692729431371
 30
0.0
 11
111.21832535856009
 21
147.58275655571609
 31
0.0
  0
LINE
  5
160
  8
0
  6
CONTINUOUS
 62
     0
 10
116.4240731679204
 20
146.61964943347519
 30
0.0
 11
114.1814967938914
 21
148.86222580750419
 31
0.0
  0
LINE
  5
161
  8
0
  6
CONTINUOUS
 62
     0
 10
120.28636328851491
 20
147.0
 30
0.0
 11
117.5686045889577
 21
149.71775869955721
 31
0.0
  0
LINE
  5
162
  8
0
  6
CONTINUOUS
 62
     0
 10
124.5290039756342
 20
147.0
 30
0.0
 11
121.5290039756342
 21
150.0
 31
0.0
  0
LINE
  5
163
  8
0
  6
CONTINUOUS
 62
     0
 10
128.77164466275349
 20
147.0
 30
0.0
 11
125.7716446627535
 21
150.0
 31
0.0
  0
LINE
  5
164
  8
0
  6
CONTINUOUS
 62
     0
 10
133.01428534987281
 20
147.0
 30
0.0
 11
130.01428534987281
 21
150.0
 31
0.0
  0
LINE
  5
165
  8
0
  6
CONTINUOUS
 62
     0
 10
137.2569260369921
 20
147.0
 30
0.0
 11
134.2569260369921
 21
150.0
 31
0.0
  0
LINE
  5
166
  8
0
  6
CONTINUOUS
 62
     0
 10
141.4995667241113
 20
147.0
 30
0.0
 11
138.4995667241113
 21
150.0
 31
0.0
  0
LINE
  5
167
  8
0
  6
CONTINUOUS
 62
     0
 10
145.74220741123059
 20
147.0
 30
0.0
 11
142.74220741123059
 21
150.0
 31
0.0
  0
LINE
  5
168
  8
0
  6
CONTINUOUS
 62
     0
 10
149.98484809834989
 20
147.0
 30
0.0
 11
146.98484809834989
 21
150.0
 31
0.0
  0
LINE
  5
169
  8
0
  6
CONTINUOUS
 62
     0
 10
154.22748878546921
 20
147.0
 30
0.0
 11
151.22748878546921
 21
150.0
 31
0.0
  0
LINE
  5
16A
  8
0
  6
CONTINUOUS
 62
     0
 10
158.4701294725885
 20
147.0
 30
0.0
 11
155.4701294725885
 21
150.0
 31
0.0
  0
LINE
  5
16B
  8
0
  6
CONTINUOUS
 62
     0
 10
162.71277015970779
 20
147.0
 30
0.0
 11
159.71277015970779
 21
150.0
 31
0.0
  0
LINE
  5
16C
  8
0
  6
CONTINUOUS
 62
     0
 10
147.0
 20
147.0
 30
0.0
 11
150.0
 21
150.0
 31
0.0
  0
INSERT
  5
16D
  8
0
  6
CONTINUOUS
  2
*X4
 10
0.0
 20
0.0
 30
0.0
1001
ACAD
1000
HATCH
1002
{
1070
    16
1000
_U
1040
3.0
1040
0.7853981633974483
1070
     1
1002
}
  0
LINE
  5
16E
  8
0
  6
CENTER
 10
164.0
 20
131.0
 30
0.0
 11
164.0
 21
153.0
 31
0.0
  0
LINE
  5
16F
  8
0
  6
CONTINUOUS
 10
108.0
 20
60.0
 30
0.0
 11
220.0
 21
60.0
 31
0.0
  0
LINE
  5
170
  8
0
  6
CONTINUOUS
 10
108.0
 20
35.0
 30
0.0
 11
220.0
 21
35.0
 31
0.0
  0
POLYLINE
  5
171
  8
0
  6
CONTINUOUS
 66
     1
 10
0.0
 20
0.0
 30
0.0
  0
VERTEX
  5
38E
  8
0
  6
CONTINUOUS
 10
108.0
 20
35.0
 30
0.0
 42
0.0144016214446487
  0
VERTEX
  5
38F
  8
0
  6
CONTINUOUS
 10
108.3022523724089
 20
35.008707654522247
 30
0.0
 42
0.1071757262240082
  0
SEQEND
  5
390
  8
0
  6
CONTINUOUS
  0
POLYLINE
  5
175
  8
0
  6
CONTINUOUS
 66
     1
 10
0.0
 20
0.0
 30
0.0
  0
VERTEX
  5
391
  8
0
  6
CONTINUOUS
 10
108.0
 20
60.0
 30
0.0
 42
0.1445979367978587
  0
VERTEX
  5
392
  8
0
  6
CONTINUOUS
 10
105.1474044536938
 20
59.157424087139553
 30
0.0
 42
0.1071757262240088
  0
VERTEX
  5
393
  8
0
  6
CONTINUOUS
 10
102.3431457505076
 20
56.338834764831837
 30
0.0
 42
0.0777000840073291
  0
VERTEX
  5
394
  8
0
  6
CONTINUOUS
 10
100.64986353532569
 20
52.487517665631948
 30
0.0
 42
0.0648748006732593
  0
VERTEX
  5
395
  8
0
  6
CONTINUOUS
 10
100.0
 20
47.5
 30
0.0
 42
0.0648748006732604
  0
VERTEX
  5
396
  8
0
  6
CONTINUOUS
 10
100.64986353532569
 20
42.512482334368009
 30
0.0
 42
0.0777000840073293
  0
VERTEX
  5
397
  8
0
  6
CONTINUOUS
 10
102.3431457505076
 20
38.661165235168149
 30
0.0
 42
0.1071757262240088
  0
VERTEX
  5
398
  8
0
  6
CONTINUOUS
 10
105.1474044536937
 20
35.842575912860461
 30
0.0
 42
0.1445979367978603
  0
VERTEX
  5
399
  8
0
  6
CONTINUOUS
 10
108.0
 20
35.0
 30
0.0
 42
0.1445979367978591
  0
SEQEND
  5
39A
  8
0
  6
CONTINUOUS
  0
POLYLINE
  5
180
  8
0
  6
DASHED
 66
     1
 10
0.0
 20
0.0
 30
0.0
  0
VERTEX
  5
39B
  8
0
  6
DASHED
 10
108.0
 20
35.0
 30
0.0
 42
0.1445979367978595
  0
VERTEX
  5
39C
  8
0
  6
DASHED
 10
110.8525955463062
 20
35.842575912860447
 30
0.0
 42
0.1071757262240082
  0
VERTEX
  5
39D
  8
0
  6
DASHED
 10
113.6568542494923
 20
38.661165235168149
 30
0.0
 42
0.0777000840073269
  0
VERTEX
  5
39E
  8
0
  6
DASHED
 10
115.35013646467419
 20
42.51248233436803
 30
0.0
 42
0.0648748006732577
  0
VERTEX
  5
39F
  8
0
  6
DASHED
 10
116.0
 20
47.5
 30
0.0
 42
0.0648748006732599
  0
VERTEX
  5
3A0
  8
0
  6
DASHED
 10
115.35013646467419
 20
52.487517665632019
 30
0.0
 42
0.0777000840073276
  0
VERTEX
  5
3A1
  8
0
  6
DASHED
 10
113.6568542494923
 20
56.338834764831837
 30
0.0
 42
0.1071757262240075
  0
VERTEX
  5
3A2
  8
0
  6
DASHED
 10
110.8525955463062
 20
59.157424087139539
 30
0.0
 42
0.1445979367978599
  0
VERTEX
  5
3A3
  8
0
  6
DASHED
 10
108.0
 20
60.0
 30
0.0
 42
0.1445979367978587
  0
SEQEND
  5
3A4
  8
0
  6
DASHED
  0
POLYLINE
  5
18B
  8
0
  6
DASHED
 66
     1
 10
0.0
 20
0.0
 30
0.0
  0
VERTEX
  5
3A5
  8
0
  6
DASHED
 10
220.0
 20
35.0
 30
0.0
 42
-0.1445979367978595
  0
VERTEX
  5
3A6
  8
0
  6
DASHED
 10
217.14740445369381
 20
35.842575912860447
 30
0.0
 42
-0.1071757262240082
  0
VERTEX
  5
3A7
  8
0
  6
DASHED
 10
214.3431457505076
 20
38.661165235168149
 30
0.0
 42
-0.0777000840073269
  0
VERTEX
  5
3A8
  8
0
  6
DASHED
 10
212.64986353532569
 20
42.51248233436803
 30
0.0
 42
-0.0648748006732577
  0
VERTEX
  5
3A9
  8
0
  6
DASHED
 10
212.0
 20
47.5
 30
0.0
 42
-0.0648748006732599
  0
VERTEX
  5
3AA
  8
0
  6
DASHED
 10
212.64986353532569
 20
52.487517665632019
 30
0.0
 42
-0.0777000840073276
  0
VERTEX
  5
3AB
  8
0
  6
DASHED
 10
214.3431457505076
 20
56.338834764831837
 30
0.0
 42
-0.1071757262240075
  0
VERTEX
  5
3AC
  8
0
  6
DASHED
 10
217.1474044536937
 20
59.157424087139539
 30
0.0
 42
-0.1445979367978599
  0
VERTEX
  5
3AD
  8
0
  6
DASHED
 10
220.0
 20
60.0
 30
0.0
 42
-0.1445979367978587
  0
SEQEND
  5
3AE
  8
0
  6
DASHED
  0
POLYLINE
  5
196
  8
0
  6
CONTINUOUS
 66
     1
 10
0.0
 20
0.0
 30
0.0
  0
VERTEX
  5
3AF
  8
0
  6
CONTINUOUS
 10
220.0
 20
60.0
 30
0.0
 42
-0.1445979367978587
  0
VERTEX
  5
3B0
  8
0
  6
CONTINUOUS
 10
222.85259554630611
 20
59.157424087139553
 30
0.0
 42
-0.1071757262240088
  0
VERTEX
  5
3B1
  8
0
  6
CONTINUOUS
 10
225.65685424949231
 20
56.338834764831837
 30
0.0
 42
-0.0777000840073291
  0
VERTEX
  5
3B2
  8
0
  6
CONTINUOUS
 10
227.35013646467431
 20
52.487517665631948
 30
0.0
 42
-0.0648748006732593
  0
VERTEX
  5
3B3
  8
0
  6
CONTINUOUS
 10
228.0
 20
47.5
 30
0.0
 42
-0.0648748006732604
  0
VERTEX
  5
3B4
  8
0
  6
CONTINUOUS
 10
227.35013646467431
 20
42.512482334368009
 30
0.0
 42
-0.0777000840073293
  0
VERTEX
  5
3B5
  8
0
  6
CONTINUOUS
 10
225.65685424949231
 20
38.661165235168149
 30
0.0
 42
-0.1071757262240088
  0
VERTEX
  5
3B6
  8
0
  6
CONTINUOUS
 10
222.85259554630619
 20
35.842575912860461
 30
0.0
 42
-0.1445979367978603
  0
VERTEX
  5
3B7
  8
0
  6
CONTINUOUS
 10
220.0
 20
35.0
 30
0.0
 42
-0.1445979367978591
  0
SEQEND
  5
3B8
  8
0
  6
CONTINUOUS
  0
CIRCLE
  5
1A1
  8
0
  6
DASHED
 10
108.0
 20
47.5
 30
0.0
 40
5.0
  0
CIRCLE
  5
1A2
  8
0
  6
DASHED
 10
108.0
 20
47.5
 30
0.0
 40
2.5
  0
CIRCLE
  5
1A3
  8
0
  6
DASHED
 10
108.0
 20
47.5
 30
0.0
 40
3.0
  0
CIRCLE
  5
1A4
  8
0
  6
DASHED
 10
220.0
 20
47.5
 30
0.0
 40
5.0
  0
CIRCLE
  5
1A5
  8
0
  6
DASHED
 10
220.0
 20
47.5
 30
0.0
 40
3.0
  0
CIRCLE
  5
1A6
  8
0
  6
DASHED
 10
220.0
 20
47.5
 30
0.0
 40
2.5
  0
LINE
  5
1A7
  8
0
  6
CENTER
 10
229.0
 20
47.5
 30
0.0
 11
99.0
 21
47.5
 31
0.0
  0
LINE
  5
1A8
  8
0
  6
CENTER
 10
108.0
 20
55.5
 30
0.0
 11
108.0
 21
38.5
 31
0.0
  0
LINE
  5
1A9
  8
0
  6
CENTER
 10
220.0
 20
55.5
 30
0.0
 11
220.0
 21
38.5
 31
0.0
  0
LINE
  5
1AA
  8
0
  6
CONTINUOUS
 10
250.0
 20
100.0
 30
0.0
 11
275.0
 21
100.0
 31
0.0
  0
LINE
  5
1AB
  8
0
  6
CONTINUOUS
 10
275.0
 20
100.0
 30
0.0
 11
275.0
 21
142.0
 31
0.0
  0
LINE
  5
1AC
  8
0
  6
CONTINUOUS
 10
250.0
 20
142.0
 30
0.0
 11
250.0
 21
100.0
 31
0.0
  0
POLYLINE
  5
1AD
  8
0
  6
CONTINUOUS
 66
     1
 10
0.0
 20
0.0
 30
0.0
  0
VERTEX
  5
3B9
  8
0
  6
CONTINUOUS
 10
275.0
 20
142.0
 30
0.0
 42
0.1445979367978624
  0
VERTEX
  5
3BA
  8
0
  6
CONTINUOUS
 10
274.15742408713947
 20
144.85259554630611
 30
0.0
 42
0.107175726224012
  0
VERTEX
  5
3BB
  8
0
  6
CONTINUOUS
 10
271.3388347648318
 20
147.65685424949231
 30
0.0
 42
0.0777000840073307
  0
VERTEX
  5
3BC
  8
0
  6
CONTINUOUS
 10
267.48751766563191
 20
149.35013646467419
 30
0.0
 42
0.0648748006732627
  0
VERTEX
  5
3BD
  8
0
  6
CONTINUOUS
 10
262.5
 20
150.0
 30
0.0
 42
0.0648748006732612
  0
VERTEX
  5
3BE
  8
0
  6
CONTINUOUS
 10
257.51248233436797
 20
149.35013646467419
 30
0.0
 42
0.0777000840073293
  0
VERTEX
  5
3BF
  8
0
  6
CONTINUOUS
 10
253.66116523516811
 20
147.65685424949231
 30
0.0
 42
0.1071757262240069
  0
VERTEX
  5
3C0
  8
0
  6
CONTINUOUS
 10
250.84257591286041
 20
144.85259554630611
 30
0.0
 42
0.1445979367978586
  0
VERTEX
  5
3C1
  8
0
  6
CONTINUOUS
 10
250.0
 20
142.0
 30
0.0
 42
0.1445979367978563
  0
SEQEND
  5
3C2
  8
0
  6
CONTINUOUS
  0
POLYLINE
  5
1B8
  8
0
  6
CONTINUOUS
 66
     1
 10
0.0
 20
0.0
 30
0.0
  0
VERTEX
  5
3C3
  8
0
  6
CONTINUOUS
 10
275.0
 20
142.0
 30
0.0
  0
VERTEX
  5
3C4
  8
0
  6
CONTINUOUS
 10
275.0
 20
142.0
 30
0.0
 42
0.1445979367978629
  0
SEQEND
  5
3C5
  8
0
  6
CONTINUOUS
  0
POLYLINE
  5
1BB
  8
0
  6
DASHED
 66
     1
 10
0.0
 20
0.0
 30
0.0
  0
VERTEX
  5
3C6
  8
0
  6
DASHED
 10
250.0
 20
142.0
 30
0.0
 42
0.1445979367978563
  0
VERTEX
  5
3C7
  8
0
  6
DASHED
 10
250.84257591286041
 20
139.14740445369381
 30
0.0
 42
0.1071757262240094
  0
VERTEX
  5
3C8
  8
0
  6
DASHED
 10
253.66116523516811
 20
136.3431457505076
 30
0.0
 42
0.0777000840073258
  0
VERTEX
  5
3C9
  8
0
  6
DASHED
 10
257.51248233436797
 20
134.64986353532561
 30
0.0
 42
0.0648748006732563
  0
VERTEX
  5
3CA
  8
0
  6
DASHED
 10
262.5
 20
134.0
 30
0.0
 42
0.0648748006732598
  0
VERTEX
  5
3CB
  8
0
  6
DASHED
 10
267.48751766563191
 20
134.64986353532569
 30
0.0
 42
0.0777000840073275
  0
VERTEX
  5
3CC
  8
0
  6
DASHED
 10
271.3388347648318
 20
136.3431457505076
 30
0.0
 42
0.1071757262240069
  0
VERTEX
  5
3CD
  8
0
  6
DASHED
 10
274.15742408713959
 20
139.14740445369381
 30
0.0
 42
0.1445979367978535
  0
VERTEX
  5
3CE
  8
0
  6
DASHED
 10
275.0
 20
142.0
 30
0.0
 42
0.1445979367978629
  0
SEQEND
  5
3CF
  8
0
  6
DASHED
  0
LINE
  5
1C6
  8
0
  6
CONTINUOUS
 10
100.0
 20
250.0
 30
0.0
 11
116.0
 21
250.0
 31
0.0
  0
LINE
  5
1C7
  8
0
  6
CONTINUOUS
 10
116.0
 20
250.0
 30
0.0
 11
116.0
 21
281.0
 31
0.0
  0
LINE
  5
1C8
  8
0
  6
CONTINUOUS
 10
123.0
 20
288.0
 30
0.0
 11
172.0
 21
288.0
 31
0.0
  0
LINE
  5
1C9
  8
0
  6
CONTINUOUS
 10
172.0
 20
304.0
 30
0.0
 11
123.0
 21
304.0
 31
0.0
  0
LINE
  5
1CA
  8
0
  6
CONTINUOUS
 10
100.0
 20
281.0
 30
0.0
 11
100.0
 21
250.0
 31
0.0
  0
ARC
  5
1CB
  8
0
  6
CONTINUOUS
 10
123.0
 20
281.0
 30
0.0
 40
7.0
 50
90.0
 51
180.0
  0
ARC
  5
1CC
  8
0
  6
CONTINUOUS
 10
123.0
 20
281.0
 30
0.0
 40
23.0
 50
90.0
 51
180.0
  0
LINE
  5
1CD
  8
0
  6
CONTINUOUS
 10
103.0
 20
250.0
 30
0.0
 11
103.0
 21
282.0
 31
0.0
  0
LINE
  5
1CE
  8
0
  6
CONTINUOUS
 10
122.0
 20
301.0
 30
0.0
 11
172.0
 21
301.0
 31
0.0
  0
LINE
  5
1CF
  8
0
  6
CONTINUOUS
 10
113.0
 20
250.0
 30
0.0
 11
113.0
 21
280.0
 31
0.0
  0
LINE
  5
1D0
  8
0
  6
CONTINUOUS
 10
124.0
 20
291.0
 30
0.0
 11
172.0
 21
291.0
 31
0.0
  0
ARC
  5
1D1
  8
0
  6
CONTINUOUS
 10
124.0
 20
280.0
 30
0.0
 40
11.0
 50
90.0
 51
180.0
  0
ARC
  5
1D2
  8
0
  6
CONTINUOUS
 10
122.0
 20
282.0
 30
0.0
 40
19.0
 50
90.0
 51
180.0
  0
LINE
  5
1D3
  8
0
  6
CONTINUOUS
 10
110.4999999999999
 20
250.0
 30
0.0
 11
110.4999999999999
 21
267.0
 31
0.0
  0
LINE
  5
1D4
  8
0
  6
CONTINUOUS
 10
110.4999999999999
 20
267.0
 30
0.0
 11
108.0
 21
269.0
 31
0.0
  0
LINE
  5
1D5
  8
0
  6
CONTINUOUS
 10
108.0
 20
269.0
 30
0.0
 11
105.4999999999999
 21
267.0
 31
0.0
  0
LINE
  5
1D6
  8
0
  6
CONTINUOUS
 10
105.4999999999999
 20
267.0
 30
0.0
 11
105.4999999999999
 21
250.0
 31
0.0
  0
LINE
  5
1D7
  8
0
  6
CONTINUOUS
 10
111.0
 20
250.0
 30
0.0
 11
111.0
 21
260.0
 31
0.0
  0
LINE
  5
1D8
  8
0
  6
CONTINUOUS
 10
105.0
 20
250.0
 30
0.0
 11
105.0
 21
260.0
 31
0.0
  0
LINE
  5
1D9
  8
0
  6
CONTINUOUS
 10
105.4999999999999
 20
267.0
 30
0.0
 11
110.4999999999999
 21
267.0
 31
0.0
  0
LINE
  5
1DA
  8
0
  6
CENTER
 10
108.0
 20
247.0
 30
0.0
 11
108.0
 21
281.0
 31
0.0
  0
LINE
  5
1DB
  8
0
  6
CENTER
 10
123.0
 20
296.0
 30
0.0
 11
172.0
 21
296.0
 31
0.0
  0
ARC
  5
1DC
  8
0
  6
CENTER
 10
123.0
 20
281.0
 30
0.0
 40
15.0
 50
90.0
 51
180.0
  0
LINE
  5
1DD
  8
0
  6
CONTINUOUS
 62
     0
 10
155.2354980121828
 20
291.0
 30
0.0
 11
165.2354980121828
 21
301.0
 31
0.0
  0
LINE
  5
1DE
  8
0
  6
CONTINUOUS
 62
     0
 10
110.4999999999999
 20
250.50714267493629
 30
0.0
 11
113.0
 21
253.0071426749364
 31
0.0
  0
LINE
  5
1DF
  8
0
  6
CONTINUOUS
 62
     0
 10
150.99285732506351
 20
291.0
 30
0.0
 11
160.9928573250636
 21
301.0
 31
0.0
  0
LINE
  5
1E0
  8
0
  6
CONTINUOUS
 62
     0
 10
110.4999999999999
 20
254.74978336205561
 30
0.0
 11
113.0
 21
257.24978336205572
 31
0.0
  0
LINE
  5
1E1
  8
0
  6
CONTINUOUS
 62
     0
 10
146.75021663794431
 20
291.0
 30
0.0
 11
156.75021663794431
 21
301.0
 31
0.0
  0
LINE
  5
1E2
  8
0
  6
CONTINUOUS
 62
     0
 10
103.0
 20
251.4924240491749
 30
0.0
 11
105.4999999999999
 21
253.9924240491749
 31
0.0
  0
LINE
  5
1E3
  8
0
  6
CONTINUOUS
 62
     0
 10
142.50757595082499
 20
291.0
 30
0.0
 11
152.50757595082499
 21
301.0
 31
0.0
  0
LINE
  5
1E4
  8
0
  6
CONTINUOUS
 62
     0
 10
110.4999999999999
 20
258.99242404917487
 30
0.0
 11
113.0
 21
261.49242404917487
 31
0.0
  0
LINE
  5
1E5
  8
0
  6
CONTINUOUS
 62
     0
 10
103.0
 20
255.73506473629419
 30
0.0
 11
105.4999999999999
 21
258.23506473629419
 31
0.0
  0
LINE
  5
1E6
  8
0
  6
CONTINUOUS
 62
     0
 10
138.26493526370569
 20
291.0
 30
0.0
 11
148.26493526370569
 21
301.0
 31
0.0
  0
LINE
  5
1E7
  8
0
  6
CONTINUOUS
 62
     0
 10
110.4999999999999
 20
263.23506473629419
 30
0.0
 11
113.0
 21
265.73506473629419
 31
0.0
  0
LINE
  5
1E8
  8
0
  6
CONTINUOUS
 62
     0
 10
103.0
 20
259.97770542341351
 30
0.0
 11
105.4999999999999
 21
262.47770542341351
 31
0.0
  0
LINE
  5
1E9
  8
0
  6
CONTINUOUS
 62
     0
 10
134.0222945765864
 20
291.0
 30
0.0
 11
144.0222945765864
 21
301.0
 31
0.0
  0
LINE
  5
1EA
  8
0
  6
CONTINUOUS
 62
     0
 10
110.23460809810349
 20
267.2123135215171
 30
0.0
 11
113.0
 21
269.97770542341351
 31
0.0
  0
LINE
  5
1EB
  8
0
  6
CONTINUOUS
 62
     0
 10
103.0
 20
264.22034611053277
 30
0.0
 11
105.4999999999999
 21
266.72034611053277
 31
0.0
  0
LINE
  5
1EC
  8
0
  6
CONTINUOUS
 62
     0
 10
129.77965388946711
 20
291.0
 30
0.0
 11
139.77965388946711
 21
301.0
 31
0.0
  0
LINE
  5
1ED
  8
0
  6
CONTINUOUS
 62
     0
 10
106.89826944733581
 20
268.11861555786862
 30
0.0
 11
113.0
 21
274.22034611053277
 31
0.0
  0
LINE
  5
1EE
  8
0
  6
CONTINUOUS
 62
     0
 10
103.0
 20
268.46298679765209
 30
0.0
 11
113.0
 21
278.46298679765209
 31
0.0
  0
LINE
  5
1EF
  8
0
  6
CONTINUOUS
 62
     0
 10
125.53701320234779
 20
291.0
 30
0.0
 11
135.53701320234791
 21
301.0
 31
0.0
  0
LINE
  5
1F0
  8
0
  6
CONTINUOUS
 62
     0
 10
103.0
 20
272.70562748477141
 30
0.0
 11
113.4676558783172
 21
283.17328336308861
 31
0.0
  0
LINE
  5
1F1
  8
0
  6
CONTINUOUS
 62
     0
 10
120.8267166369113
 20
290.53234412168268
 30
0.0
 11
131.29437251522859
 21
301.0
 31
0.0
  0
LINE
  5
1F2
  8
0
  6
CONTINUOUS
 62
     0
 10
103.0
 20
276.94826817189062
 30
0.0
 11
127.0517318281093
 21
301.0
 31
0.0
  0
LINE
  5
1F3
  8
0
  6
CONTINUOUS
 62
     0
 10
103.0
 20
281.19090885900988
 30
0.0
 11
122.80909114099001
 21
301.0
 31
0.0
  0
LINE
  5
1F4
  8
0
  6
CONTINUOUS
 62
     0
 10
103.3883646000985
 20
285.82191414622781
 30
0.0
 11
118.1780858537721
 21
300.61163539990139
 31
0.0
  0
LINE
  5
1F5
  8
0
  6
CONTINUOUS
 62
     0
 10
107.050936646605
 20
293.72712687985347
 30
0.0
 11
110.2728731201464
 21
296.94906335339488
 31
0.0
  0
LINE
  5
1F6
  8
0
  6
CONTINUOUS
 62
     0
 10
159.47813869930209
 20
291.0
 30
0.0
 11
169.47813869930209
 21
301.0
 31
0.0
  0
LINE
  5
1F7
  8
0
  6
CONTINUOUS
 62
     0
 10
163.72077938642141
 20
291.0
 30
0.0
 11
172.0
 21
299.2792206135785
 31
0.0
  0
LINE
  5
1F8
  8
0
  6
CONTINUOUS
 62
     0
 10
167.9634200735407
 20
291.0
 30
0.0
 11
172.0
 21
295.03657992645918
 31
0.0
  0
LINE
  5
1F9
  8
0
  6
CENTER
 10
221.0
 20
296.0
 30
0.0
 11
172.0
 21
296.0
 31
0.0
  0
LINE
  5
1FA
  8
0
  6
CONTINUOUS
 10
172.0
 20
304.0
 30
0.0
 11
221.0
 21
304.0
 31
0.0
  0
LINE
  5
1FB
  8
0
  6
CONTINUOUS
 10
221.0
 20
288.0
 30
0.0
 11
172.0
 21
288.0
 31
0.0
  0
ARC
  5
1FC
  8
0
  6
CENTER
 10
221.0
 20
281.0
 30
0.0
 40
15.0
 50
0.0
 51
90.0
  0
ARC
  5
1FD
  8
0
  6
CONTINUOUS
 10
221.0
 20
281.0
 30
0.0
 40
23.0
 50
0.0
 51
90.0
  0
ARC
  5
1FE
  8
0
  6
CONTINUOUS
 10
221.0
 20
281.0
 30
0.0
 40
7.0
 50
0.0
 51
90.0
  0
LINE
  5
1FF
  8
0
  6
CONTINUOUS
 10
244.0
 20
250.0
 30
0.0
 11
228.0
 21
250.0
 31
0.0
  0
LINE
  5
200
  8
0
  6
CENTER
 10
236.0
 20
247.0
 30
0.0
 11
236.0
 21
281.0
 31
0.0
  0
LINE
  5
201
  8
0
  6
CONTINUOUS
 10
244.0
 20
281.0
 30
0.0
 11
244.0
 21
250.0
 31
0.0
  0
LINE
  5
202
  8
0
  6
CONTINUOUS
 10
228.0
 20
250.0
 30
0.0
 11
228.0
 21
281.0
 31
0.0
  0
LINE
  5
203
  8
0
  6
CONTINUOUS
 62
     0
 10
160.9928573250636
 20
301.0
 30
0.0
 11
163.99285732506351
 21
304.0
 31
0.0
  0
LINE
  5
204
  8
0
  6
CONTINUOUS
 62
     0
 10
156.75021663794431
 20
301.0
 30
0.0
 11
159.75021663794431
 21
304.0
 31
0.0
  0
LINE
  5
205
  8
0
  6
CONTINUOUS
 62
     0
 10
101.507575950825
 20
250.0
 30
0.0
 11
103.0
 21
251.4924240491749
 31
0.0
  0
LINE
  5
206
  8
0
  6
CONTINUOUS
 62
     0
 10
100.0
 20
252.73506473629419
 30
0.0
 11
103.0
 21
255.73506473629419
 31
0.0
  0
LINE
  5
207
  8
0
  6
CONTINUOUS
 62
     0
 10
148.26493526370569
 20
301.0
 30
0.0
 11
151.26493526370569
 21
304.0
 31
0.0
  0
LINE
  5
208
  8
0
  6
CONTINUOUS
 62
     0
 10
100.0
 20
256.97770542341351
 30
0.0
 11
103.0
 21
259.97770542341351
 31
0.0
  0
LINE
  5
209
  8
0
  6
CONTINUOUS
 62
     0
 10
144.0222945765864
 20
301.0
 30
0.0
 11
147.0222945765864
 21
304.0
 31
0.0
  0
LINE
  5
20A
  8
0
  6
CONTINUOUS
 62
     0
 10
100.0
 20
261.22034611053277
 30
0.0
 11
103.0
 21
264.22034611053277
 31
0.0
  0
LINE
  5
20B
  8
0
  6
CONTINUOUS
 62
     0
 10
139.77965388946711
 20
301.0
 30
0.0
 11
142.77965388946711
 21
304.0
 31
0.0
  0
LINE
  5
20C
  8
0
  6
CONTINUOUS
 62
     0
 10
100.0
 20
265.46298679765198
 30
0.0
 11
103.0
 21
268.46298679765209
 31
0.0
  0
LINE
  5
20D
  8
0
  6
CONTINUOUS
 62
     0
 10
135.53701320234791
 20
301.0
 30
0.0
 11
138.53701320234779
 21
304.0
 31
0.0
  0
LINE
  5
20E
  8
0
  6
CONTINUOUS
 62
     0
 10
100.0
 20
269.70562748477141
 30
0.0
 11
103.0
 21
272.70562748477141
 31
0.0
  0
LINE
  5
20F
  8
0
  6
CONTINUOUS
 62
     0
 10
131.29437251522859
 20
301.0
 30
0.0
 11
134.29437251522859
 21
304.0
 31
0.0
  0
LINE
  5
210
  8
0
  6
CONTINUOUS
 62
     0
 10
100.0
 20
273.94826817189062
 30
0.0
 11
103.0
 21
276.94826817189062
 31
0.0
  0
LINE
  5
211
  8
0
  6
CONTINUOUS
 62
     0
 10
127.0517318281093
 20
301.0
 30
0.0
 11
130.0517318281093
 21
304.0
 31
0.0
  0
LINE
  5
212
  8
0
  6
CONTINUOUS
 62
     0
 10
100.0
 20
278.19090885900988
 30
0.0
 11
103.0
 21
281.19090885900988
 31
0.0
  0
LINE
  5
213
  8
0
  6
CONTINUOUS
 62
     0
 10
122.80909114099001
 20
301.0
 30
0.0
 11
125.80909114099001
 21
304.0
 31
0.0
  0
LINE
  5
214
  8
0
  6
CONTINUOUS
 62
     0
 10
100.0477506615418
 20
282.48130020767098
 30
0.0
 11
103.3883646000985
 21
285.82191414622781
 31
0.0
  0
LINE
  5
215
  8
0
  6
CONTINUOUS
 62
     0
 10
118.1780858537721
 20
300.61163539990139
 30
0.0
 11
121.5186997923289
 21
303.9522493384581
 31
0.0
  0
LINE
  5
216
  8
0
  6
CONTINUOUS
 62
     0
 10
100.9860317456385
 20
287.66222197888698
 30
0.0
 11
107.050936646605
 21
293.72712687985347
 31
0.0
  0
LINE
  5
217
  8
0
  6
CONTINUOUS
 62
     0
 10
110.2728731201464
 20
296.94906335339488
 30
0.0
 11
116.3377780211129
 21
303.01396825436149
 31
0.0
  0
LINE
  5
218
  8
0
  6
CONTINUOUS
 62
     0
 10
165.2354980121828
 20
301.0
 30
0.0
 11
168.2354980121828
 21
304.0
 31
0.0
  0
LINE
  5
219
  8
0
  6
CONTINUOUS
 62
     0
 10
112.8722746522571
 20
298.66387199831343
 30
0.0
 11
110.9471497297655
 21
300.58899692080502
 31
0.0
  0
LINE
  5
21A
  8
0
  6
CONTINUOUS
 62
     0
 10
110.3130286476478
 20
296.9804773158034
 30
0.0
 11
108.4668826294274
 21
298.82662333402379
 31
0.0
  0
LINE
  5
21B
  8
0
  6
CONTINUOUS
 62
     0
 10
108.09878801565949
 20
294.95207726067241
 30
0.0
 11
106.268902079062
 21
296.78196319726999
 31
0.0
  0
LINE
  5
21C
  8
0
  6
CONTINUOUS
 62
     0
 10
106.2222547995115
 20
292.5859697897011
 30
0.0
 11
104.3491639290405
 21
294.45906066017221
 31
0.0
  0
LINE
  5
21D
  8
0
  6
CONTINUOUS
 62
     0
 10
104.7031278767206
 20
289.86245602537281
 30
0.0
 11
102.71847544748989
 21
291.84710845460347
 31
0.0
  0
LINE
  5
21E
  8
0
  6
CONTINUOUS
 62
     0
 10
103.5971069719009
 20
286.72583624307322
 30
0.0
 11
101.4056412538677
 21
288.91730196110638
 31
0.0
  0
LINE
  5
21F
  8
0
  6
CONTINUOUS
 62
     0
 10
103.0291018370841
 20
283.0512006907706
 30
0.0
 11
100.4673434988885
 21
285.61295902896632
 31
0.0
  0
LINE
  5
220
  8
0
  6
CONTINUOUS
 62
     0
 10
103.0
 20
278.83766184073562
 30
0.0
 11
100.0147269293652
 21
281.82293491137028
 31
0.0
  0
LINE
  5
221
  8
0
  6
CONTINUOUS
 62
     0
 10
103.0
 20
274.5950211536163
 30
0.0
 11
100.0
 21
277.5950211536163
 31
0.0
  0
LINE
  5
222
  8
0
  6
CONTINUOUS
 62
     0
 10
103.0
 20
270.35238046649698
 30
0.0
 11
100.0
 21
273.35238046649698
 31
0.0
  0
LINE
  5
223
  8
0
  6
CONTINUOUS
 62
     0
 10
103.0
 20
266.10973977937772
 30
0.0
 11
100.0
 21
269.10973977937772
 31
0.0
  0
LINE
  5
224
  8
0
  6
CONTINUOUS
 62
     0
 10
103.0
 20
261.8670990922584
 30
0.0
 11
100.0
 21
264.8670990922584
 31
0.0
  0
LINE
  5
225
  8
0
  6
CONTINUOUS
 62
     0
 10
103.0
 20
257.62445840513919
 30
0.0
 11
100.0
 21
260.62445840513908
 31
0.0
  0
LINE
  5
226
  8
0
  6
CONTINUOUS
 62
     0
 10
103.0
 20
253.3818177180199
 30
0.0
 11
100.0
 21
256.38181771801982
 31
0.0
  0
LINE
  5
227
  8
0
  6
CONTINUOUS
 62
     0
 10
115.8140037284178
 20
299.9647836092721
 30
0.0
 11
113.7297418848042
 21
302.04904545288559
 31
0.0
  0
LINE
  5
228
  8
0
  6
CONTINUOUS
 62
     0
 10
119.2251467574353
 20
300.79628126737379
 30
0.0
 11
116.856970302295
 21
303.1644577225141
 31
0.0
  0
LINE
  5
229
  8
0
  6
CONTINUOUS
 62
     0
 10
123.2640687119284
 20
301.0
 30
0.0
 11
120.41032535875939
 21
303.85374335316891
 31
0.0
  0
LINE
  5
22A
  8
0
  6
CONTINUOUS
 62
     0
 10
127.50670939904769
 20
301.0
 30
0.0
 11
124.50670939904769
 21
304.0
 31
0.0
  0
LINE
  5
22B
  8
0
  6
CONTINUOUS
 62
     0
 10
131.749350086167
 20
301.0
 30
0.0
 11
128.749350086167
 21
304.0
 31
0.0
  0
LINE
  5
22C
  8
0
  6
CONTINUOUS
 62
     0
 10
135.99199077328629
 20
301.0
 30
0.0
 11
132.99199077328629
 21
304.0
 31
0.0
  0
LINE
  5
22D
  8
0
  6
CONTINUOUS
 62
     0
 10
140.23463146040561
 20
301.0
 30
0.0
 11
137.23463146040561
 21
304.0
 31
0.0
  0
LINE
  5
22E
  8
0
  6
CONTINUOUS
 62
     0
 10
144.47727214752479
 20
301.0
 30
0.0
 11
141.4772721475249
 21
304.0
 31
0.0
  0
LINE
  5
22F
  8
0
  6
CONTINUOUS
 62
     0
 10
148.71991283464411
 20
301.0
 30
0.0
 11
145.71991283464411
 21
304.0
 31
0.0
  0
LINE
  5
230
  8
0
  6
CONTINUOUS
 62
     0
 10
152.9625535217634
 20
301.0
 30
0.0
 11
149.9625535217634
 21
304.0
 31
0.0
  0
LINE
  5
231
  8
0
  6
CONTINUOUS
 62
     0
 10
157.20519420888269
 20
301.0
 30
0.0
 11
154.20519420888269
 21
304.0
 31
0.0
  0
LINE
  5
232
  8
0
  6
CONTINUOUS
 62
     0
 10
161.44783489600201
 20
301.0
 30
0.0
 11
158.44783489600201
 21
304.0
 31
0.0
  0
LINE
  5
233
  8
0
  6
CONTINUOUS
 62
     0
 10
165.6904755831213
 20
301.0
 30
0.0
 11
162.6904755831213
 21
304.0
 31
0.0
  0
LINE
  5
234
  8
0
  6
CONTINUOUS
 62
     0
 10
169.93311627024059
 20
301.0
 30
0.0
 11
166.93311627024059
 21
304.0
 31
0.0
  0
LINE
  5
235
  8
0
  6
CONTINUOUS
 62
     0
 10
152.50757595082499
 20
301.0
 30
0.0
 11
155.50757595082499
 21
304.0
 31
0.0
  0
LINE
  5
236
  8
0
  6
CONTINUOUS
 10
102.0
 20
250.0
 30
0.0
 11
100.0
 21
252.0
 31
0.0
  0
LINE
  5
237
  8
0
  6
CONTINUOUS
 62
     0
 10
160.72077938642141
 20
288.0
 30
0.0
 11
163.72077938642141
 21
291.0
 31
0.0
  0
LINE
  5
238
  8
0
  6
CONTINUOUS
 62
     0
 10
156.47813869930209
 20
288.0
 30
0.0
 11
159.47813869930209
 21
291.0
 31
0.0
  0
LINE
  5
239
  8
0
  6
CONTINUOUS
 62
     0
 10
114.2354980121829
 20
250.0
 30
0.0
 11
116.0
 21
251.76450198781711
 31
0.0
  0
LINE
  5
23A
  8
0
  6
CONTINUOUS
 62
     0
 10
113.0
 20
253.0071426749364
 30
0.0
 11
116.0
 21
256.0071426749364
 31
0.0
  0
LINE
  5
23B
  8
0
  6
CONTINUOUS
 62
     0
 10
147.99285732506351
 20
288.0
 30
0.0
 11
150.99285732506351
 21
291.0
 31
0.0
  0
LINE
  5
23C
  8
0
  6
CONTINUOUS
 62
     0
 10
113.0
 20
257.24978336205572
 30
0.0
 11
116.0
 21
260.24978336205561
 31
0.0
  0
LINE
  5
23D
  8
0
  6
CONTINUOUS
 62
     0
 10
143.75021663794431
 20
288.0
 30
0.0
 11
146.75021663794431
 21
291.0
 31
0.0
  0
LINE
  5
23E
  8
0
  6
CONTINUOUS
 62
     0
 10
113.0
 20
261.49242404917487
 30
0.0
 11
116.0
 21
264.49242404917487
 31
0.0
  0
LINE
  5
23F
  8
0
  6
CONTINUOUS
 62
     0
 10
139.50757595082499
 20
288.0
 30
0.0
 11
142.50757595082499
 21
291.0
 31
0.0
  0
LINE
  5
240
  8
0
  6
CONTINUOUS
 62
     0
 10
113.0
 20
265.73506473629419
 30
0.0
 11
116.0
 21
268.73506473629419
 31
0.0
  0
LINE
  5
241
  8
0
  6
CONTINUOUS
 62
     0
 10
135.26493526370569
 20
288.0
 30
0.0
 11
138.26493526370569
 21
291.0
 31
0.0
  0
LINE
  5
242
  8
0
  6
CONTINUOUS
 62
     0
 10
113.0
 20
269.97770542341351
 30
0.0
 11
116.0
 21
272.97770542341351
 31
0.0
  0
LINE
  5
243
  8
0
  6
CONTINUOUS
 62
     0
 10
131.0222945765864
 20
288.0
 30
0.0
 11
134.0222945765864
 21
291.0
 31
0.0
  0
LINE
  5
244
  8
0
  6
CONTINUOUS
 62
     0
 10
113.0
 20
274.22034611053277
 30
0.0
 11
116.0
 21
277.22034611053277
 31
0.0
  0
LINE
  5
245
  8
0
  6
CONTINUOUS
 62
     0
 10
126.7796538894671
 20
288.0
 30
0.0
 11
129.77965388946711
 21
291.0
 31
0.0
  0
LINE
  5
246
  8
0
  6
CONTINUOUS
 62
     0
 10
113.0
 20
278.46298679765209
 30
0.0
 11
116.0164369502412
 21
281.47942374789329
 31
0.0
  0
LINE
  5
247
  8
0
  6
CONTINUOUS
 62
     0
 10
122.52057625210659
 20
287.98356304975869
 30
0.0
 11
125.53701320234779
 21
291.0
 31
0.0
  0
LINE
  5
248
  8
0
  6
CONTINUOUS
 62
     0
 10
113.4676558783172
 20
283.17328336308861
 30
0.0
 11
120.8267166369113
 21
290.53234412168268
 31
0.0
  0
LINE
  5
249
  8
0
  6
CONTINUOUS
 62
     0
 10
164.9634200735407
 20
288.0
 30
0.0
 11
167.9634200735407
 21
291.0
 31
0.0
  0
LINE
  5
24A
  8
0
  6
CONTINUOUS
 62
     0
 10
123.5361466505706
 20
288.0
 30
0.0
 11
120.96354370044909
 21
290.57260295012151
 31
0.0
  0
LINE
  5
24B
  8
0
  6
CONTINUOUS
 62
     0
 10
119.9789692873823
 20
287.31453667606888
 30
0.0
 11
118.0448976412724
 21
289.24860832217888
 31
0.0
  0
LINE
  5
24C
  8
0
  6
CONTINUOUS
 62
     0
 10
117.5984877613603
 20
285.45237751497172
 30
0.0
 11
115.7617488592449
 21
287.28911641708697
 31
0.0
  0
LINE
  5
24D
  8
0
  6
CONTINUOUS
 62
     0
 10
116.18968860672371
 20
282.61853598248899
 30
0.0
 11
114.07189796188349
 21
284.73632662732922
 31
0.0
  0
LINE
  5
24E
  8
0
  6
CONTINUOUS
 62
     0
 10
116.0
 20
278.56558390209341
 30
0.0
 11
113.0982993911926
 21
281.46728451090081
 31
0.0
  0
LINE
  5
24F
  8
0
  6
CONTINUOUS
 62
     0
 10
116.0
 20
274.32294321497409
 30
0.0
 11
113.0
 21
277.32294321497409
 31
0.0
  0
LINE
  5
250
  8
0
  6
CONTINUOUS
 62
     0
 10
116.0
 20
270.08030252785488
 30
0.0
 11
113.0
 21
273.08030252785488
 31
0.0
  0
LINE
  5
251
  8
0
  6
CONTINUOUS
 62
     0
 10
116.0
 20
265.83766184073562
 30
0.0
 11
113.0
 21
268.83766184073562
 31
0.0
  0
LINE
  5
252
  8
0
  6
CONTINUOUS
 62
     0
 10
116.0
 20
261.5950211536163
 30
0.0
 11
113.0
 21
264.5950211536163
 31
0.0
  0
LINE
  5
253
  8
0
  6
CONTINUOUS
 62
     0
 10
116.0
 20
257.35238046649698
 30
0.0
 11
113.0
 21
260.35238046649698
 31
0.0
  0
LINE
  5
254
  8
0
  6
CONTINUOUS
 62
     0
 10
116.0
 20
253.10973977937769
 30
0.0
 11
113.0
 21
256.10973977937772
 31
0.0
  0
LINE
  5
255
  8
0
  6
CONTINUOUS
 62
     0
 10
127.77878733768991
 20
288.0
 30
0.0
 11
124.77878733768991
 21
291.0
 31
0.0
  0
LINE
  5
256
  8
0
  6
CONTINUOUS
 62
     0
 10
132.0214280248091
 20
288.0
 30
0.0
 11
129.0214280248091
 21
291.0
 31
0.0
  0
LINE
  5
257
  8
0
  6
CONTINUOUS
 62
     0
 10
136.26406871192839
 20
288.0
 30
0.0
 11
133.26406871192839
 21
291.0
 31
0.0
  0
LINE
  5
258
  8
0
  6
CONTINUOUS
 62
     0
 10
140.50670939904771
 20
288.0
 30
0.0
 11
137.50670939904771
 21
291.0
 31
0.0
  0
LINE
  5
259
  8
0
  6
CONTINUOUS
 62
     0
 10
144.749350086167
 20
288.0
 30
0.0
 11
141.749350086167
 21
291.0
 31
0.0
  0
LINE
  5
25A
  8
0
  6
CONTINUOUS
 62
     0
 10
148.99199077328629
 20
288.0
 30
0.0
 11
145.99199077328629
 21
291.0
 31
0.0
  0
LINE
  5
25B
  8
0
  6
CONTINUOUS
 62
     0
 10
153.23463146040561
 20
288.0
 30
0.0
 11
150.23463146040561
 21
291.0
 31
0.0
  0
LINE
  5
25C
  8
0
  6
CONTINUOUS
 62
     0
 10
157.47727214752479
 20
288.0
 30
0.0
 11
154.4772721475249
 21
291.0
 31
0.0
  0
LINE
  5
25D
  8
0
  6
CONTINUOUS
 62
     0
 10
161.71991283464419
 20
288.0
 30
0.0
 11
158.71991283464411
 21
291.0
 31
0.0
  0
LINE
  5
25E
  8
0
  6
CONTINUOUS
 62
     0
 10
165.9625535217634
 20
288.0
 30
0.0
 11
162.9625535217634
 21
291.0
 31
0.0
  0
LINE
  5
25F
  8
0
  6
CONTINUOUS
 62
     0
 10
170.20519420888269
 20
288.0
 30
0.0
 11
167.20519420888269
 21
291.0
 31
0.0
  0
LINE
  5
260
  8
0
  6
CONTINUOUS
 62
     0
 10
152.23549801218289
 20
288.0
 30
0.0
 11
155.2354980121828
 21
291.0
 31
0.0
  0
LINE
  5
261
  8
0
  6
CONTINUOUS
 10
115.0
 20
250.0
 30
0.0
 11
113.0
 21
252.0
 31
0.0
  0
LINE
  5
262
  8
0
  6
CONTINUOUS
 10
272.0
 20
296.0
 30
0.0
 11
272.0
 21
250.0
 31
0.0
  0
LINE
  5
263
  8
0
  6
CONTINUOUS
 10
297.0
 20
250.0
 30
0.0
 11
297.0
 21
296.0
 31
0.0
  0
LINE
  5
264
  8
0
  6
CONTINUOUS
 10
272.0
 20
250.0
 30
0.0
 11
297.0
 21
250.0
 31
0.0
  0
POLYLINE
  5
265
  8
0
  6
DASHED
 66
     1
 10
0.0
 20
0.0
 30
0.0
  0
VERTEX
  5
3D0
  8
0
  6
DASHED
 10
272.0
 20
296.0
 30
0.0
 42
0.1445979367978563
  0
VERTEX
  5
3D1
  8
0
  6
DASHED
 10
272.84257591286041
 20
293.14740445369381
 30
0.0
 42
0.1071757262240094
  0
VERTEX
  5
3D2
  8
0
  6
DASHED
 10
275.66116523516808
 20
290.34314575050757
 30
0.0
 42
0.0777000840073258
  0
VERTEX
  5
3D3
  8
0
  6
DASHED
 10
279.51248233436797
 20
288.64986353532572
 30
0.0
 42
0.0648748006732563
  0
VERTEX
  5
3D4
  8
0
  6
DASHED
 10
284.5
 20
288.0
 30
0.0
 42
0.0648748006732598
  0
VERTEX
  5
3D5
  8
0
  6
DASHED
 10
289.48751766563191
 20
288.64986353532572
 30
0.0
 42
0.0777000840073275
  0
VERTEX
  5
3D6
  8
0
  6
DASHED
 10
293.3388347648318
 20
290.34314575050757
 30
0.0
 42
0.1071757262240069
  0
VERTEX
  5
3D7
  8
0
  6
DASHED
 10
296.15742408713947
 20
293.14740445369381
 30
0.0
 42
0.1445979367978535
  0
VERTEX
  5
3D8
  8
0
  6
DASHED
 10
297.0
 20
296.0
 30
0.0
 42
0.1445979367978629
  0
SEQEND
  5
3D9
  8
0
  6
DASHED
  0
POLYLINE
  5
270
  8
0
  6
CONTINUOUS
 66
     1
 10
0.0
 20
0.0
 30
0.0
  0
VERTEX
  5
3DA
  8
0
  6
CONTINUOUS
 10
297.0
 20
296.0
 30
0.0
 42
0.1445979367978624
  0
VERTEX
  5
3DB
  8
0
  6
CONTINUOUS
 10
296.15742408713947
 20
298.85259554630619
 30
0.0
 42
0.107175726224012
  0
VERTEX
  5
3DC
  8
0
  6
CONTINUOUS
 10
293.3388347648318
 20
301.65685424949231
 30
0.0
 42
0.0777000840073307
  0
VERTEX
  5
3DD
  8
0
  6
CONTINUOUS
 10
289.48751766563191
 20
303.35013646467422
 30
0.0
 42
0.0648748006732627
  0
VERTEX
  5
3DE
  8
0
  6
CONTINUOUS
 10
284.5
 20
304.0
 30
0.0
 42
0.0648748006732612
  0
VERTEX
  5
3DF
  8
0
  6
CONTINUOUS
 10
279.51248233436797
 20
303.35013646467422
 30
0.0
 42
0.0777000840073293
  0
VERTEX
  5
3E0
  8
0
  6
CONTINUOUS
 10
275.66116523516808
 20
301.65685424949231
 30
0.0
 42
0.1071757262240069
  0
VERTEX
  5
3E1
  8
0
  6
CONTINUOUS
 10
272.84257591286041
 20
298.85259554630619
 30
0.0
 42
0.1445979367978586
  0
VERTEX
  5
3E2
  8
0
  6
CONTINUOUS
 10
272.0
 20
296.0
 30
0.0
 42
0.1445979367978563
  0
SEQEND
  5
3E3
  8
0
  6
CONTINUOUS
  0
LINE
  5
27B
  8
0
  6
CENTER
 10
277.0
 20
361.0
 30
0.0
 11
99.0
 21
361.0
 31
0.0
  0
LINE
  5
27C
  8
0
  6
CONTINUOUS
 10
108.0
 20
373.49999999999989
 30
0.0
 11
268.0
 21
373.49999999999989
 31
0.0
  0
LINE
  5
27D
  8
0
  6
CONTINUOUS
 10
108.0
 20
348.49999999999989
 30
0.0
 11
268.0
 21
348.49999999999989
 31
0.0
  0
POLYLINE
  5
27E
  8
0
  6
DASHED
 66
     1
 10
0.0
 20
0.0
 30
0.0
  0
VERTEX
  5
3E4
  8
0
  6
DASHED
 10
108.0
 20
348.49999999999989
 30
0.0
 42
0.1445979367978595
  0
VERTEX
  5
3E5
  8
0
  6
DASHED
 10
110.8525955463062
 20
349.34257591286041
 30
0.0
 42
0.1071757262240082
  0
VERTEX
  5
3E6
  8
0
  6
DASHED
 10
113.6568542494923
 20
352.16116523516808
 30
0.0
 42
0.0777000840073269
  0
VERTEX
  5
3E7
  8
0
  6
DASHED
 10
115.35013646467419
 20
356.01248233436797
 30
0.0
 42
0.0648748006732577
  0
VERTEX
  5
3E8
  8
0
  6
DASHED
 10
116.0
 20
361.0
 30
0.0
 42
0.0648748006732599
  0
VERTEX
  5
3E9
  8
0
  6
DASHED
 10
115.35013646467419
 20
365.98751766563203
 30
0.0
 42
0.0777000840073276
  0
VERTEX
  5
3EA
  8
0
  6
DASHED
 10
113.6568542494923
 20
369.8388347648318
 30
0.0
 42
0.1071757262240075
  0
VERTEX
  5
3EB
  8
0
  6
DASHED
 10
110.8525955463062
 20
372.65742408713947
 30
0.0
 42
0.1445979367978599
  0
VERTEX
  5
3EC
  8
0
  6
DASHED
 10
108.0
 20
373.49999999999989
 30
0.0
 42
0.1445979367978587
  0
SEQEND
  5
3ED
  8
0
  6
DASHED
  0
POLYLINE
  5
289
  8
0
  6
CONTINUOUS
 66
     1
 10
0.0
 20
0.0
 30
0.0
  0
VERTEX
  5
3EE
  8
0
  6
CONTINUOUS
 10
108.0
 20
373.49999999999989
 30
0.0
 42
0.1445979367978587
  0
VERTEX
  5
3EF
  8
0
  6
CONTINUOUS
 10
105.1474044536938
 20
372.65742408713947
 30
0.0
 42
0.1071757262240088
  0
VERTEX
  5
3F0
  8
0
  6
CONTINUOUS
 10
102.3431457505076
 20
369.8388347648318
 30
0.0
 42
0.0777000840073291
  0
VERTEX
  5
3F1
  8
0
  6
CONTINUOUS
 10
100.64986353532569
 20
365.98751766563191
 30
0.0
 42
0.0648748006732593
  0
VERTEX
  5
3F2
  8
0
  6
CONTINUOUS
 10
100.0
 20
361.0
 30
0.0
 42
0.0648748006732604
  0
VERTEX
  5
3F3
  8
0
  6
CONTINUOUS
 10
100.64986353532569
 20
356.01248233436797
 30
0.0
 42
0.0777000840073293
  0
VERTEX
  5
3F4
  8
0
  6
CONTINUOUS
 10
102.3431457505076
 20
352.16116523516808
 30
0.0
 42
0.1071757262240088
  0
VERTEX
  5
3F5
  8
0
  6
CONTINUOUS
 10
105.1474044536937
 20
349.34257591286041
 30
0.0
 42
0.1445979367978603
  0
VERTEX
  5
3F6
  8
0
  6
CONTINUOUS
 10
108.0
 20
348.49999999999989
 30
0.0
 42
0.1445979367978591
  0
SEQEND
  5
3F7
  8
0
  6
CONTINUOUS
  0
CIRCLE
  5
294
  8
0
  6
DASHED
 10
108.0
 20
361.0
 30
0.0
 40
5.0
  0
CIRCLE
  5
295
  8
0
  6
DASHED
 10
108.0
 20
361.0
 30
0.0
 40
3.0
  0
CIRCLE
  5
296
  8
0
  6
DASHED
 10
108.0
 20
361.0
 30
0.0
 40
2.5
  0
LINE
  5
297
  8
0
  6
CENTER
 10
108.0
 20
369.0
 30
0.0
 11
108.0
 21
352.0
 31
0.0
  0
POLYLINE
  5
298
  8
0
  6
CONTINUOUS
 66
     1
 10
0.0
 20
0.0
 30
0.0
  0
VERTEX
  5
3F8
  8
0
  6
CONTINUOUS
 10
108.0
 20
348.49999999999989
 30
0.0
 42
0.0144016214446487
  0
VERTEX
  5
3F9
  8
0
  6
CONTINUOUS
 10
108.3022523724089
 20
348.5087076545222
 30
0.0
 42
0.1071757262240082
  0
SEQEND
  5
3FA
  8
0
  6
CONTINUOUS
  0
POLYLINE
  5
29C
  8
0
  6
DASHED
 66
     1
 10
0.0
 20
0.0
 30
0.0
  0
VERTEX
  5
3FB
  8
0
  6
DASHED
 10
268.0
 20
348.49999999999989
 30
0.0
 42
-0.1445979367978595
  0
VERTEX
  5
3FC
  8
0
  6
DASHED
 10
265.1474044536937
 20
349.34257591286041
 30
0.0
 42
-0.1071757262240082
  0
VERTEX
  5
3FD
  8
0
  6
DASHED
 10
262.34314575050757
 20
352.16116523516808
 30
0.0
 42
-0.0777000840073269
  0
VERTEX
  5
3FE
  8
0
  6
DASHED
 10
260.64986353532572
 20
356.01248233436797
 30
0.0
 42
-0.0648748006732577
  0
VERTEX
  5
3FF
  8
0
  6
DASHED
 10
260.0
 20
361.0
 30
0.0
 42
-0.0648748006732599
  0
VERTEX
  5
400
  8
0
  6
DASHED
 10
260.64986353532572
 20
365.98751766563203
 30
0.0
 42
-0.0777000840073276
  0
VERTEX
  5
401
  8
0
  6
DASHED
 10
262.34314575050757
 20
369.8388347648318
 30
0.0
 42
-0.1071757262240075
  0
VERTEX
  5
402
  8
0
  6
DASHED
 10
265.1474044536937
 20
372.65742408713947
 30
0.0
 42
-0.1445979367978599
  0
VERTEX
  5
403
  8
0
  6
DASHED
 10
268.0
 20
373.49999999999989
 30
0.0
 42
-0.1445979367978587
  0
SEQEND
  5
404
  8
0
  6
DASHED
  0
POLYLINE
  5
2A7
  8
0
  6
CONTINUOUS
 66
     1
 10
0.0
 20
0.0
 30
0.0
  0
VERTEX
  5
405
  8
0
  6
CONTINUOUS
 10
268.0
 20
373.49999999999989
 30
0.0
 42
-0.1445979367978587
  0
VERTEX
  5
406
  8
0
  6
CONTINUOUS
 10
270.85259554630608
 20
372.65742408713947
 30
0.0
 42
-0.1071757262240088
  0
VERTEX
  5
407
  8
0
  6
CONTINUOUS
 10
273.65685424949231
 20
369.8388347648318
 30
0.0
 42
-0.0777000840073291
  0
VERTEX
  5
408
  8
0
  6
CONTINUOUS
 10
275.35013646467422
 20
365.98751766563191
 30
0.0
 42
-0.0648748006732593
  0
VERTEX
  5
409
  8
0
  6
CONTINUOUS
 10
276.0
 20
361.0
 30
0.0
 42
-0.0648748006732604
  0
VERTEX
  5
40A
  8
0
  6
CONTINUOUS
 10
275.35013646467422
 20
356.01248233436797
 30
0.0
 42
-0.0777000840073293
  0
VERTEX
  5
40B
  8
0
  6
CONTINUOUS
 10
273.65685424949231
 20
352.16116523516808
 30
0.0
 42
-0.1071757262240088
  0
VERTEX
  5
40C
  8
0
  6
CONTINUOUS
 10
270.85259554630619
 20
349.34257591286041
 30
0.0
 42
-0.1445979367978603
  0
VERTEX
  5
40D
  8
0
  6
CONTINUOUS
 10
268.0
 20
348.49999999999989
 30
0.0
 42
-0.1445979367978591
  0
SEQEND
  5
40E
  8
0
  6
CONTINUOUS
  0
CIRCLE
  5
2B2
  8
0
  6
DASHED
 10
268.0
 20
361.0
 30
0.0
 40
2.5
  0
CIRCLE
  5
2B3
  8
0
  6
DASHED
 10
268.0
 20
361.0
 30
0.0
 40
3.0
  0
LINE
  5
2B4
  8
0
  6
CENTER
 10
268.0
 20
369.0
 30
0.0
 11
268.0
 21
352.0
 31
0.0
  0
CIRCLE
  5
2B5
  8
0
  6
DASHED
 10
268.0
 20
361.0
 30
0.0
 40
5.0
  0
LINE
  5
2B6
  8
0
  6
CONTINUOUS
 10
100.0
 20
400.0
 30
0.0
 11
116.0
 21
400.0
 31
0.0
  0
LINE
  5
2B7
  8
0
  6
CONTINUOUS
 10
116.0
 20
400.0
 30
0.0
 11
116.0
 21
429.0
 31
0.0
  0
LINE
  5
2B8
  8
0
  6
CONTINUOUS
 10
125.0
 20
438.0
 30
0.0
 11
188.0
 21
438.0
 31
0.0
  0
LINE
  5
2B9
  8
0
  6
CONTINUOUS
 10
188.0
 20
454.0
 30
0.0
 11
125.0
 21
454.0
 31
0.0
  0
LINE
  5
2BA
  8
0
  6
CONTINUOUS
 10
100.0
 20
429.0
 30
0.0
 11
100.0
 21
400.0
 31
0.0
  0
LINE
  5
2BB
  8
0
  6
CONTINUOUS
 10
110.4999999999999
 20
400.0
 30
0.0
 11
110.4999999999999
 21
417.0
 31
0.0
  0
LINE
  5
2BC
  8
0
  6
CONTINUOUS
 10
105.4999999999999
 20
417.0
 30
0.0
 11
110.4999999999999
 21
417.0
 31
0.0
  0
LINE
  5
2BD
  8
0
  6
CONTINUOUS
 10
110.4999999999999
 20
417.0
 30
0.0
 11
108.0
 21
419.0
 31
0.0
  0
LINE
  5
2BE
  8
0
  6
CONTINUOUS
 10
108.0
 20
419.0
 30
0.0
 11
105.4999999999999
 21
417.0
 31
0.0
  0
LINE
  5
2BF
  8
0
  6
CONTINUOUS
 10
105.4999999999999
 20
417.0
 30
0.0
 11
105.4999999999999
 21
400.0
 31
0.0
  0
LINE
  5
2C0
  8
0
  6
CONTINUOUS
 10
105.0
 20
400.0
 30
0.0
 11
105.0
 21
410.0
 31
0.0
  0
LINE
  5
2C1
  8
0
  6
CONTINUOUS
 10
111.0
 20
400.0
 30
0.0
 11
111.0
 21
410.0
 31
0.0
  0
ARC
  5
2C2
  8
0
  6
CONTINUOUS
 10
125.0
 20
429.0
 30
0.0
 40
9.0
 50
90.0
 51
180.0
  0
ARC
  5
2C3
  8
0
  6
CONTINUOUS
 10
125.0
 20
429.0
 30
0.0
 40
25.0
 50
90.0
 51
180.0
  0
LINE
  5
2C4
  8
0
  6
CONTINUOUS
 10
113.0
 20
400.0
 30
0.0
 11
113.0
 21
428.0
 31
0.0
  0
LINE
  5
2C5
  8
0
  6
CONTINUOUS
 10
126.0
 20
441.0
 30
0.0
 11
188.0
 21
441.0
 31
0.0
  0
LINE
  5
2C6
  8
0
  6
CONTINUOUS
 10
103.0
 20
400.0
 30
0.0
 11
103.0
 21
430.0
 31
0.0
  0
LINE
  5
2C7
  8
0
  6
CONTINUOUS
 10
124.0
 20
451.0
 30
0.0
 11
188.0
 21
451.0
 31
0.0
  0
ARC
  5
2C8
  8
0
  6
CONTINUOUS
 10
126.0
 20
428.0
 30
0.0
 40
13.0
 50
90.0
 51
180.0
  0
ARC
  5
2C9
  8
0
  6
CONTINUOUS
 10
124.0
 20
430.0
 30
0.0
 40
21.0
 50
90.0
 51
180.0
  0
LINE
  5
2CA
  8
0
  6
CENTER
 10
108.0
 20
397.0
 30
0.0
 11
108.0
 21
429.0
 31
0.0
  0
LINE
  5
2CB
  8
0
  6
CENTER
 10
125.0
 20
446.0
 30
0.0
 11
188.0
 21
446.0
 31
0.0
  0
ARC
  5
2CC
  8
0
  6
CENTER
 10
125.0
 20
429.0
 30
0.0
 40
17.0
 50
90.0
 51
180.0
  0
LINE
  5
2CD
  8
0
  6
CONTINUOUS
 10
260.0
 20
400.0
 30
0.0
 11
260.0
 21
429.0
 31
0.0
  0
LINE
  5
2CE
  8
0
  6
CONTINUOUS
 10
276.0
 20
400.0
 30
0.0
 11
260.0
 21
400.0
 31
0.0
  0
LINE
  5
2CF
  8
0
  6
CONTINUOUS
 10
276.0
 20
429.0
 30
0.0
 11
276.0
 21
400.0
 31
0.0
  0
ARC
  5
2D0
  8
0
  6
CONTINUOUS
 10
251.0
 20
429.0
 30
0.0
 40
25.0
 50
0.0
 51
90.0
  0
ARC
  5
2D1
  8
0
  6
CONTINUOUS
 10
251.0
 20
429.0
 30
0.0
 40
9.0
 50
0.0
 51
90.0
  0
LINE
  5
2D2
  8
0
  6
CONTINUOUS
 10
251.0
 20
438.0
 30
0.0
 11
188.0
 21
438.0
 31
0.0
  0
LINE
  5
2D3
  8
0
  6
CONTINUOUS
 10
188.0
 20
454.0
 30
0.0
 11
251.0
 21
454.0
 31
0.0
  0
LINE
  5
2D4
  8
0
  6
CENTER
 10
251.0
 20
446.0
 30
0.0
 11
188.0
 21
446.0
 31
0.0
  0
ARC
  5
2D5
  8
0
  6
CENTER
 10
251.0
 20
429.0
 30
0.0
 40
17.0
 50
0.0
 51
90.0
  0
LINE
  5
2D6
  8
0
  6
CENTER
 10
268.0
 20
397.0
 30
0.0
 11
268.0
 21
429.0
 31
0.0
  0
LINE
  5
2D7
  8
0
  6
CONTINUOUS
 62
     0
 10
160.98571465012711
 20
441.0
 30
0.0
 11
170.98571465012711
 21
451.0
 31
0.0
  0
LINE
  5
2D8
  8
0
  6
CONTINUOUS
 62
     0
 10
156.7430739630079
 20
441.0
 30
0.0
 11
166.7430739630079
 21
451.0
 31
0.0
  0
LINE
  5
2D9
  8
0
  6
CONTINUOUS
 62
     0
 10
111.5004332758886
 20
400.0
 30
0.0
 11
113.0
 21
401.49956672411128
 31
0.0
  0
LINE
  5
2DA
  8
0
  6
CONTINUOUS
 62
     0
 10
110.4999999999999
 20
403.24220741123059
 30
0.0
 11
113.0
 21
405.74220741123071
 31
0.0
  0
LINE
  5
2DB
  8
0
  6
CONTINUOUS
 62
     0
 10
148.25779258876929
 20
441.0
 30
0.0
 11
158.25779258876929
 21
451.0
 31
0.0
  0
LINE
  5
2DC
  8
0
  6
CONTINUOUS
 62
     0
 10
103.01515190165
 20
400.0
 30
0.0
 11
105.4999999999999
 21
402.4848480983498
 31
0.0
  0
LINE
  5
2DD
  8
0
  6
CONTINUOUS
 62
     0
 10
144.01515190165
 20
441.0
 30
0.0
 11
154.01515190165
 21
451.0
 31
0.0
  0
LINE
  5
2DE
  8
0
  6
CONTINUOUS
 62
     0
 10
103.0
 20
404.22748878546918
 30
0.0
 11
105.4999999999999
 21
406.72748878546918
 31
0.0
  0
LINE
  5
2DF
  8
0
  6
CONTINUOUS
 62
     0
 10
139.77251121453071
 20
441.0
 30
0.0
 11
149.77251121453071
 21
451.0
 31
0.0
  0
LINE
  5
2E0
  8
0
  6
CONTINUOUS
 62
     0
 10
110.4999999999999
 20
411.72748878546918
 30
0.0
 11
113.0
 21
414.22748878546929
 31
0.0
  0
LINE
  5
2E1
  8
0
  6
CONTINUOUS
 62
     0
 10
103.0
 20
408.4701294725885
 30
0.0
 11
105.4999999999999
 21
410.97012947258838
 31
0.0
  0
LINE
  5
2E2
  8
0
  6
CONTINUOUS
 62
     0
 10
135.52987052741139
 20
441.0
 30
0.0
 11
145.52987052741139
 21
451.0
 31
0.0
  0
LINE
  5
2E3
  8
0
  6
CONTINUOUS
 62
     0
 10
110.4999999999999
 20
415.97012947258838
 30
0.0
 11
113.0
 21
418.4701294725885
 31
0.0
  0
LINE
  5
2E4
  8
0
  6
CONTINUOUS
 62
     0
 10
103.0
 20
412.7127701597077
 30
0.0
 11
105.4999999999999
 21
415.21277015970782
 31
0.0
  0
LINE
  5
2E5
  8
0
  6
CONTINUOUS
 62
     0
 10
131.2872298402921
 20
441.0
 30
0.0
 11
141.2872298402921
 21
451.0
 31
0.0
  0
LINE
  5
2E6
  8
0
  6
CONTINUOUS
 62
     0
 10
108.7151276890512
 20
418.42789784875902
 30
0.0
 11
113.0
 21
422.71277015970782
 31
0.0
  0
LINE
  5
2E7
  8
0
  6
CONTINUOUS
 62
     0
 10
103.0
 20
416.95541084682702
 30
0.0
 11
113.0
 21
426.95541084682708
 31
0.0
  0
LINE
  5
2E8
  8
0
  6
CONTINUOUS
 62
     0
 10
127.04458915317289
 20
441.0
 30
0.0
 11
137.04458915317289
 21
451.0
 31
0.0
  0
LINE
  5
2E9
  8
0
  6
CONTINUOUS
 62
     0
 10
103.0
 20
421.1980515339464
 30
0.0
 11
113.552896309863
 21
431.75094784380929
 31
0.0
  0
LINE
  5
2EA
  8
0
  6
CONTINUOUS
 62
     0
 10
122.2490521561905
 20
440.44710369013688
 30
0.0
 11
132.8019484660536
 21
451.0
 31
0.0
  0
LINE
  5
2EB
  8
0
  6
CONTINUOUS
 62
     0
 10
103.0
 20
425.4406922210656
 30
0.0
 11
128.55930777893431
 21
451.0
 31
0.0
  0
LINE
  5
2EC
  8
0
  6
CONTINUOUS
 62
     0
 10
103.0
 20
429.68333290818498
 30
0.0
 11
124.31666709181501
 21
451.0
 31
0.0
  0
LINE
  5
2ED
  8
0
  6
CONTINUOUS
 62
     0
 10
103.4639741165048
 20
434.3899477118091
 30
0.0
 11
119.6100522881909
 21
450.53602588349509
 31
0.0
  0
LINE
  5
2EE
  8
0
  6
CONTINUOUS
 62
     0
 10
106.62320557845911
 20
441.7918198608827
 30
0.0
 11
112.2081801391173
 21
447.37679442154081
 31
0.0
  0
LINE
  5
2EF
  8
0
  6
CONTINUOUS
 62
     0
 10
165.2283553372464
 20
441.0
 30
0.0
 11
175.2283553372464
 21
451.0
 31
0.0
  0
LINE
  5
2F0
  8
0
  6
CONTINUOUS
 62
     0
 10
169.47099602436569
 20
441.0
 30
0.0
 11
179.47099602436569
 21
451.0
 31
0.0
  0
LINE
  5
2F1
  8
0
  6
CONTINUOUS
 62
     0
 10
173.71363671148501
 20
441.0
 30
0.0
 11
183.71363671148501
 21
451.0
 31
0.0
  0
LINE
  5
2F2
  8
0
  6
CONTINUOUS
 62
     0
 10
177.9562773986043
 20
441.0
 30
0.0
 11
188.0
 21
451.04372260139559
 31
0.0
  0
LINE
  5
2F3
  8
0
  6
CONTINUOUS
 62
     0
 10
182.19891808572359
 20
441.0
 30
0.0
 11
188.0
 21
446.80108191427632
 31
0.0
  0
LINE
  5
2F4
  8
0
  6
CONTINUOUS
 62
     0
 10
186.44155877284291
 20
441.0
 30
0.0
 11
188.0
 21
442.55844122715712
 31
0.0
  0
LINE
  5
2F5
  8
0
  6
CONTINUOUS
 62
     0
 10
152.50043327588861
 20
441.0
 30
0.0
 11
162.50043327588861
 21
451.0
 31
0.0
  0
LINE
  5
2F6
  8
0
  6
CONTINUOUS
 62
     0
 10
110.4999999999999
 20
407.4848480983498
 30
0.0
 11
113.0
 21
409.9848480983498
 31
0.0
  0
INSERT
  5
2F7
  8
0
  6
CONTINUOUS
  2
*X9
 10
0.0
 20
0.0
 30
0.0
1001
ACAD
1000
HATCH
1002
{
1070
    16
1000
_U
1040
3.0
1040
0.7853981633974483
1070
     1
1002
}
  0
LINE
  5
2F8
  8
0
  6
CONTINUOUS
 10
186.5
 20
454.0
 30
0.0
 11
188.0
 21
452.5
 31
0.0
  0
LINE
  5
2F9
  8
0
  6
CONTINUOUS
 62
     0
 10
170.71363671148501
 20
438.0
 30
0.0
 11
173.71363671148501
 21
441.0
 31
0.0
  0
LINE
  5
2FA
  8
0
  6
CONTINUOUS
 62
     0
 10
166.47099602436569
 20
438.0
 30
0.0
 11
169.47099602436569
 21
441.0
 31
0.0
  0
LINE
  5
2FB
  8
0
  6
CONTINUOUS
 62
     0
 10
162.2283553372464
 20
438.0
 30
0.0
 11
165.2283553372464
 21
441.0
 31
0.0
  0
LINE
  5
2FC
  8
0
  6
CONTINUOUS
 62
     0
 10
157.98571465012719
 20
438.0
 30
0.0
 11
160.98571465012711
 21
441.0
 31
0.0
  0
LINE
  5
2FD
  8
0
  6
CONTINUOUS
 62
     0
 10
115.7430739630079
 20
400.0
 30
0.0
 11
116.0
 21
400.25692603699213
 31
0.0
  0
LINE
  5
2FE
  8
0
  6
CONTINUOUS
 62
     0
 10
113.0
 20
401.49956672411128
 30
0.0
 11
116.0
 21
404.49956672411139
 31
0.0
  0
LINE
  5
2FF
  8
0
  6
CONTINUOUS
 62
     0
 10
149.50043327588861
 20
438.0
 30
0.0
 11
152.50043327588861
 21
441.0
 31
0.0
  0
LINE
  5
300
  8
0
  6
CONTINUOUS
 62
     0
 10
113.0
 20
405.74220741123071
 30
0.0
 11
116.0
 21
408.74220741123059
 31
0.0
  0
LINE
  5
301
  8
0
  6
CONTINUOUS
 62
     0
 10
145.25779258876929
 20
438.0
 30
0.0
 11
148.25779258876929
 21
441.0
 31
0.0
  0
LINE
  5
302
  8
0
  6
CONTINUOUS
 62
     0
 10
113.0
 20
409.98484809834991
 30
0.0
 11
116.0
 21
412.98484809834991
 31
0.0
  0
LINE
  5
303
  8
0
  6
CONTINUOUS
 62
     0
 10
141.01515190165
 20
438.0
 30
0.0
 11
144.01515190165
 21
441.0
 31
0.0
  0
LINE
  5
304
  8
0
  6
CONTINUOUS
 62
     0
 10
113.0
 20
414.22748878546929
 30
0.0
 11
116.0
 21
417.22748878546918
 31
0.0
  0
LINE
  5
305
  8
0
  6
CONTINUOUS
 62
     0
 10
136.77251121453071
 20
438.0
 30
0.0
 11
139.77251121453071
 21
441.0
 31
0.0
  0
LINE
  5
306
  8
0
  6
CONTINUOUS
 62
     0
 10
113.0
 20
418.4701294725885
 30
0.0
 11
116.0
 21
421.4701294725885
 31
0.0
  0
LINE
  5
307
  8
0
  6
CONTINUOUS
 62
     0
 10
132.52987052741139
 20
438.0
 30
0.0
 11
135.52987052741139
 21
441.0
 31
0.0
  0
LINE
  5
308
  8
0
  6
CONTINUOUS
 62
     0
 10
113.0
 20
422.71277015970782
 30
0.0
 11
116.0
 21
425.7127701597077
 31
0.0
  0
LINE
  5
309
  8
0
  6
CONTINUOUS
 62
     0
 10
128.2872298402921
 20
438.0
 30
0.0
 11
131.2872298402921
 21
441.0
 31
0.0
  0
LINE
  5
30A
  8
0
  6
CONTINUOUS
 62
     0
 10
113.0
 20
426.95541084682708
 30
0.0
 11
116.0571402646183
 21
430.01255111144542
 31
0.0
  0
LINE
  5
30B
  8
0
  6
CONTINUOUS
 62
     0
 10
123.9874488885545
 20
437.9428597353816
 30
0.0
 11
127.04458915317289
 21
441.0
 31
0.0
  0
LINE
  5
30C
  8
0
  6
CONTINUOUS
 62
     0
 10
113.552896309863
 20
431.75094784380929
 30
0.0
 11
122.2490521561905
 21
440.44710369013688
 31
0.0
  0
LINE
  5
30D
  8
0
  6
CONTINUOUS
 62
     0
 10
174.9562773986043
 20
438.0
 30
0.0
 11
177.9562773986043
 21
441.0
 31
0.0
  0
LINE
  5
30E
  8
0
  6
CONTINUOUS
 62
     0
 10
179.19891808572359
 20
438.0
 30
0.0
 11
182.19891808572359
 21
441.0
 31
0.0
  0
LINE
  5
30F
  8
0
  6
CONTINUOUS
 62
     0
 10
183.44155877284291
 20
438.0
 30
0.0
 11
186.44155877284291
 21
441.0
 31
0.0
  0
LINE
  5
310
  8
0
  6
CONTINUOUS
 62
     0
 10
130.51385207398411
 20
438.0
 30
0.0
 11
127.5138520739841
 21
441.0
 31
0.0
  0
LINE
  5
311
  8
0
  6
CONTINUOUS
 62
     0
 10
126.27121138686491
 20
438.0
 30
0.0
 11
123.5115940091822
 21
440.75961737768262
 31
0.0
  0
LINE
  5
312
  8
0
  6
CONTINUOUS
 62
     0
 10
122.4094585167278
 20
437.61911218301782
 30
0.0
 11
120.3301570787368
 21
439.69841362100868
 31
0.0
  0
LINE
  5
313
  8
0
  6
CONTINUOUS
 62
     0
 10
119.59196401460549
 20
436.1939659980207
 30
0.0
 11
117.7440517649767
 21
438.04187824764949
 31
0.0
  0
LINE
  5
314
  8
0
  6
CONTINUOUS
 62
     0
 10
117.5273558189012
 20
434.01593350660579
 30
0.0
 11
115.66169717852181
 21
435.8815921469851
 31
0.0
  0
LINE
  5
315
  8
0
  6
CONTINUOUS
 62
     0
 10
116.239254846953
 20
431.06139379143463
 30
0.0
 11
114.08996960496521
 21
433.21067903342248
 31
0.0
  0
LINE
  5
316
  8
0
  6
CONTINUOUS
 62
     0
 10
116.0
 20
427.05800795126839
 30
0.0
 11
113.14197463351201
 21
429.91603331775639
 31
0.0
  0
LINE
  5
317
  8
0
  6
CONTINUOUS
 62
     0
 10
116.0
 20
422.81536726414907
 30
0.0
 11
113.0
 21
425.81536726414919
 31
0.0
  0
LINE
  5
318
  8
0
  6
CONTINUOUS
 62
     0
 10
116.0
 20
418.57272657702993
 30
0.0
 11
113.0
 21
421.57272657702993
 31
0.0
  0
LINE
  5
319
  8
0
  6
CONTINUOUS
 62
     0
 10
116.0
 20
414.33008588991061
 30
0.0
 11
113.0
 21
417.33008588991061
 31
0.0
  0
LINE
  5
31A
  8
0
  6
CONTINUOUS
 62
     0
 10
116.0
 20
410.08744520279129
 30
0.0
 11
113.0
 21
413.08744520279129
 31
0.0
  0
LINE
  5
31B
  8
0
  6
CONTINUOUS
 62
     0
 10
116.0
 20
405.84480451567202
 30
0.0
 11
113.0
 21
408.84480451567202
 31
0.0
  0
LINE
  5
31C
  8
0
  6
CONTINUOUS
 62
     0
 10
116.0
 20
401.6021638285527
 30
0.0
 11
113.0
 21
404.60216382855282
 31
0.0
  0
LINE
  5
31D
  8
0
  6
CONTINUOUS
 62
     0
 10
134.7564927611034
 20
438.0
 30
0.0
 11
131.7564927611034
 21
441.0
 31
0.0
  0
LINE
  5
31E
  8
0
  6
CONTINUOUS
 62
     0
 10
138.99913344822269
 20
438.0
 30
0.0
 11
135.99913344822269
 21
441.0
 31
0.0
  0
LINE
  5
31F
  8
0
  6
CONTINUOUS
 62
     0
 10
143.24177413534201
 20
438.0
 30
0.0
 11
140.24177413534201
 21
441.0
 31
0.0
  0
LINE
  5
320
  8
0
  6
CONTINUOUS
 62
     0
 10
147.4844148224613
 20
438.0
 30
0.0
 11
144.4844148224613
 21
441.0
 31
0.0
  0
LINE
  5
321
  8
0
  6
CONTINUOUS
 62
     0
 10
151.72705550958051
 20
438.0
 30
0.0
 11
148.72705550958059
 21
441.0
 31
0.0
  0
LINE
  5
322
  8
0
  6
CONTINUOUS
 62
     0
 10
155.9696961966998
 20
438.0
 30
0.0
 11
152.9696961966998
 21
441.0
 31
0.0
  0
LINE
  5
323
  8
0
  6
CONTINUOUS
 62
     0
 10
160.21233688381909
 20
438.0
 30
0.0
 11
157.21233688381909
 21
441.0
 31
0.0
  0
LINE
  5
324
  8
0
  6
CONTINUOUS
 62
     0
 10
164.45497757093841
 20
438.0
 30
0.0
 11
161.45497757093841
 21
441.0
 31
0.0
  0
LINE
  5
325
  8
0
  6
CONTINUOUS
 62
     0
 10
168.6976182580577
 20
438.0
 30
0.0
 11
165.6976182580577
 21
441.0
 31
0.0
  0
LINE
  5
326
  8
0
  6
CONTINUOUS
 62
     0
 10
172.94025894517699
 20
438.0
 30
0.0
 11
169.94025894517699
 21
441.0
 31
0.0
  0
LINE
  5
327
  8
0
  6
CONTINUOUS
 62
     0
 10
177.18289963229631
 20
438.0
 30
0.0
 11
174.18289963229631
 21
441.0
 31
0.0
  0
LINE
  5
328
  8
0
  6
CONTINUOUS
 62
     0
 10
181.4255403194156
 20
438.0
 30
0.0
 11
178.4255403194156
 21
441.0
 31
0.0
  0
LINE
  5
329
  8
0
  6
CONTINUOUS
 62
     0
 10
185.66818100653489
 20
438.0
 30
0.0
 11
182.66818100653481
 21
441.0
 31
0.0
  0
LINE
  5
32A
  8
0
  6
CONTINUOUS
 62
     0
 10
153.74307396300779
 20
438.0
 30
0.0
 11
156.7430739630079
 21
441.0
 31
0.0
  0
LINE
  5
32B
  8
0
  6
CONTINUOUS
 10
187.0
 20
441.0
 30
0.0
 11
188.0
 21
440.0
 31
0.0
  0
LINE
  5
32C
  8
0
  6
CENTER
 10
188.0
 20
435.0
 30
0.0
 11
188.0
 21
457.0
 31
0.0
  0
LINE
  5
32D
  8
0
  6
CENTER
 10
172.0
 20
285.0
 30
0.0
 11
172.0
 21
307.0
 31
0.0
  0
LINE
  5
32E
  8
0
  6
CONTINUOUS
 10
169.5
 20
301.0
 30
0.0
 11
172.0
 21
303.5
 31
0.0
  0
LINE
  5
32F
  8
0
  6
CONTINUOUS
 10
171.5
 20
304.0
 30
0.0
 11
172.0
 21
303.5
 31
0.0
  0
LINE
  5
330
  8
0
  6
CONTINUOUS
 10
169.5
 20
288.0
 30
0.0
 11
172.0
 21
290.5
 31
0.0
  0
LINE
  5
331
  8
0
  6
CONTINUOUS
 10
171.5
 20
291.0
 30
0.0
 11
172.0
 21
290.5
 31
0.0
  0
POLYLINE
  5
332
  8
0
  6
CONTINUOUS
 66
     1
 10
0.0
 20
0.0
 30
0.0
  0
VERTEX
  5
40F
  8
0
  6
CONTINUOUS
 10
327.49999999999989
 20
446.0
 30
0.0
 42
0.1445979367978624
  0
VERTEX
  5
410
  8
0
  6
CONTINUOUS
 10
326.65742408713947
 20
448.85259554630608
 30
0.0
 42
0.107175726224012
  0
VERTEX
  5
411
  8
0
  6
CONTINUOUS
 10
323.8388347648318
 20
451.65685424949243
 30
0.0
 42
0.0777000840073307
  0
VERTEX
  5
412
  8
0
  6
CONTINUOUS
 10
319.98751766563191
 20
453.35013646467428
 30
0.0
 42
0.0648748006732627
  0
VERTEX
  5
413
  8
0
  6
CONTINUOUS
 10
315.0
 20
454.0
 30
0.0
 42
0.0648748006732612
  0
VERTEX
  5
414
  8
0
  6
CONTINUOUS
 10
310.01248233436797
 20
453.35013646467428
 30
0.0
 42
0.0777000840073293
  0
VERTEX
  5
415
  8
0
  6
CONTINUOUS
 10
306.16116523516808
 20
451.65685424949243
 30
0.0
 42
0.1071757262240069
  0
VERTEX
  5
416
  8
0
  6
CONTINUOUS
 10
303.34257591286041
 20
448.85259554630608
 30
0.0
 42
0.1445979367978586
  0
VERTEX
  5
417
  8
0
  6
CONTINUOUS
 10
302.49999999999989
 20
446.0
 30
0.0
 42
0.1445979367978563
  0
SEQEND
  5
418
  8
0
  6
CONTINUOUS
  0
POLYLINE
  5
33D
  8
0
  6
DASHED
 66
     1
 10
0.0
 20
0.0
 30
0.0
  0
VERTEX
  5
419
  8
0
  6
DASHED
 10
302.49999999999989
 20
446.0
 30
0.0
 42
0.1445979367978563
  0
VERTEX
  5
41A
  8
0
  6
DASHED
 10
303.34257591286041
 20
443.14740445369392
 30
0.0
 42
0.1071757262240094
  0
VERTEX
  5
41B
  8
0
  6
DASHED
 10
306.16116523516808
 20
440.34314575050757
 30
0.0
 42
0.0777000840073258
  0
VERTEX
  5
41C
  8
0
  6
DASHED
 10
310.01248233436797
 20
438.64986353532572
 30
0.0
 42
0.0648748006732563
  0
VERTEX
  5
41D
  8
0
  6
DASHED
 10
315.0
 20
438.0
 30
0.0
 42
0.0648748006732598
  0
VERTEX
  5
41E
  8
0
  6
DASHED
 10
319.98751766563191
 20
438.64986353532572
 30
0.0
 42
0.0777000840073275
  0
VERTEX
  5
41F
  8
0
  6
DASHED
 10
323.8388347648318
 20
440.34314575050757
 30
0.0
 42
0.1071757262240069
  0
VERTEX
  5
420
  8
0
  6
DASHED
 10
326.65742408713959
 20
443.14740445369381
 30
0.0
 42
0.1445979367978535
  0
VERTEX
  5
421
  8
0
  6
DASHED
 10
327.49999999999989
 20
446.0
 30
0.0
 42
0.1445979367978629
  0
SEQEND
  5
422
  8
0
  6
DASHED
  0
LINE
  5
348
  8
0
  6
CONTINUOUS
 10
302.49999999999989
 20
400.0
 30
0.0
 11
327.49999999999989
 21
400.0
 31
0.0
  0
LINE
  5
349
  8
0
  6
CONTINUOUS
 10
302.49999999999989
 20
446.0
 30
0.0
 11
302.49999999999989
 21
400.0
 31
0.0
  0
LINE
  5
34A
  8
0
  6
CONTINUOUS
 10
327.49999999999989
 20
400.0
 30
0.0
 11
327.49999999999989
 21
446.0
 31
0.0
  0
LINE
  5
34B
  8
0
  6
CENTER
 10
245.0
 20
205.0
 30
0.0
 11
99.0
 21
205.0
 31
0.0
  0
LINE
  5
34C
  8
0
  6
CONTINUOUS
 10
108.0
 20
192.5
 30
0.0
 11
236.0
 21
192.5
 31
0.0
  0
LINE
  5
34D
  8
0
  6
CONTINUOUS
 10
108.0
 20
217.5
 30
0.0
 11
236.0
 21
217.5
 31
0.0
  0
CIRCLE
  5
34E
  8
0
  6
DASHED
 10
108.0
 20
205.0
 30
0.0
 40
5.0
  0
POLYLINE
  5
34F
  8
0
  6
DASHED
 66
     1
 10
0.0
 20
0.0
 30
0.0
  0
VERTEX
  5
423
  8
0
  6
DASHED
 10
108.0
 20
192.5
 30
0.0
 42
0.1445979367978595
  0
VERTEX
  5
424
  8
0
  6
DASHED
 10
110.8525955463062
 20
193.34257591286041
 30
0.0
 42
0.1071757262240082
  0
VERTEX
  5
425
  8
0
  6
DASHED
 10
113.6568542494923
 20
196.16116523516811
 30
0.0
 42
0.0777000840073269
  0
VERTEX
  5
426
  8
0
  6
DASHED
 10
115.35013646467419
 20
200.012482334368
 30
0.0
 42
0.0648748006732577
  0
VERTEX
  5
427
  8
0
  6
DASHED
 10
116.0
 20
205.0
 30
0.0
 42
0.0648748006732599
  0
VERTEX
  5
428
  8
0
  6
DASHED
 10
115.35013646467419
 20
209.987517665632
 30
0.0
 42
0.0777000840073276
  0
VERTEX
  5
429
  8
0
  6
DASHED
 10
113.6568542494923
 20
213.8388347648318
 30
0.0
 42
0.1071757262240075
  0
VERTEX
  5
42A
  8
0
  6
DASHED
 10
110.8525955463062
 20
216.6574240871395
 30
0.0
 42
0.1445979367978599
  0
VERTEX
  5
42B
  8
0
  6
DASHED
 10
108.0
 20
217.5
 30
0.0
 42
0.1445979367978587
  0
SEQEND
  5
42C
  8
0
  6
DASHED
  0
CIRCLE
  5
35A
  8
0
  6
DASHED
 10
108.0
 20
205.0
 30
0.0
 40
2.5
  0
LINE
  5
35B
  8
0
  6
CENTER
 10
108.0
 20
213.0
 30
0.0
 11
108.0
 21
196.0
 31
0.0
  0
CIRCLE
  5
35C
  8
0
  6
DASHED
 10
108.0
 20
205.0
 30
0.0
 40
3.0
  0
POLYLINE
  5
35D
  8
0
  6
CONTINUOUS
 66
     1
 10
0.0
 20
0.0
 30
0.0
  0
VERTEX
  5
42D
  8
0
  6
CONTINUOUS
 10
108.0
 20
217.5
 30
0.0
 42
0.1445979367978587
  0
VERTEX
  5
42E
  8
0
  6
CONTINUOUS
 10
105.1474044536938
 20
216.6574240871395
 30
0.0
 42
0.1071757262240088
  0
VERTEX
  5
42F
  8
0
  6
CONTINUOUS
 10
102.3431457505076
 20
213.8388347648318
 30
0.0
 42
0.0777000840073291
  0
VERTEX
  5
430
  8
0
  6
CONTINUOUS
 10
100.64986353532569
 20
209.98751766563191
 30
0.0
 42
0.0648748006732593
  0
VERTEX
  5
431
  8
0
  6
CONTINUOUS
 10
100.0
 20
205.0
 30
0.0
 42
0.0648748006732604
  0
VERTEX
  5
432
  8
0
  6
CONTINUOUS
 10
100.64986353532569
 20
200.012482334368
 30
0.0
 42
0.0777000840073293
  0
VERTEX
  5
433
  8
0
  6
CONTINUOUS
 10
102.3431457505076
 20
196.16116523516811
 30
0.0
 42
0.1071757262240088
  0
VERTEX
  5
434
  8
0
  6
CONTINUOUS
 10
105.1474044536937
 20
193.34257591286041
 30
0.0
 42
0.1445979367978603
  0
VERTEX
  5
435
  8
0
  6
CONTINUOUS
 10
108.0
 20
192.5
 30
0.0
 42
0.1445979367978591
  0
SEQEND
  5
436
  8
0
  6
CONTINUOUS
  0
POLYLINE
  5
368
  8
0
  6
CONTINUOUS
 66
     1
 10
0.0
 20
0.0
 30
0.0
  0
VERTEX
  5
437
  8
0
  6
CONTINUOUS
 10
108.0
 20
192.5
 30
0.0
 42
0.0144016214446487
  0
VERTEX
  5
438
  8
0
  6
CONTINUOUS
 10
108.3022523724089
 20
192.5087076545222
 30
0.0
 42
0.1071757262240082
  0
SEQEND
  5
439
  8
0
  6
CONTINUOUS
  0
CIRCLE
  5
36C
  8
0
  6
DASHED
 10
236.0
 20
205.0
 30
0.0
 40
2.5
  0
LINE
  5
36D
  8
0
  6
CENTER
 10
236.0
 20
213.0
 30
0.0
 11
236.0
 21
196.0
 31
0.0
  0
CIRCLE
  5
36E
  8
0
  6
DASHED
 10
236.0
 20
205.0
 30
0.0
 40
3.0
  0
CIRCLE
  5
36F
  8
0
  6
DASHED
 10
236.0
 20
205.0
 30
0.0
 40
5.0
  0
POLYLINE
  5
370
  8
0
  6
CONTINUOUS
 66
     1
 10
0.0
 20
0.0
 30
0.0
  0
VERTEX
  5
43A
  8
0
  6
CONTINUOUS
 10
236.0
 20
217.5
 30
0.0
 42
-0.1445979367978587
  0
VERTEX
  5
43B
  8
0
  6
CONTINUOUS
 10
238.85259554630619
 20
216.6574240871395
 30
0.0
 42
-0.1071757262240088
  0
VERTEX
  5
43C
  8
0
  6
CONTINUOUS
 10
241.65685424949231
 20
213.8388347648318
 30
0.0
 42
-0.0777000840073291
  0
VERTEX
  5
43D
  8
0
  6
CONTINUOUS
 10
243.35013646467419
 20
209.98751766563191
 30
0.0
 42
-0.0648748006732593
  0
VERTEX
  5
43E
  8
0
  6
CONTINUOUS
 10
244.0
 20
205.0
 30
0.0
 42
-0.0648748006732604
  0
VERTEX
  5
43F
  8
0
  6
CONTINUOUS
 10
243.35013646467419
 20
200.012482334368
 30
0.0
 42
-0.0777000840073293
  0
VERTEX
  5
440
  8
0
  6
CONTINUOUS
 10
241.65685424949231
 20
196.16116523516811
 30
0.0
 42
-0.1071757262240088
  0
VERTEX
  5
441
  8
0
  6
CONTINUOUS
 10
238.85259554630619
 20
193.34257591286041
 30
0.0
 42
-0.1445979367978603
  0
VERTEX
  5
442
  8
0
  6
CONTINUOUS
 10
236.0
 20
192.5
 30
0.0
 42
-0.1445979367978591
  0
SEQEND
  5
443
  8
0
  6
CONTINUOUS
  0
POLYLINE
  5
37B
  8
0
  6
DASHED
 66
     1
 10
0.0
 20
0.0
 30
0.0
  0
VERTEX
  5
444
  8
0
  6
DASHED
 10
236.0
 20
192.5
 30
0.0
 42
-0.1445979367978595
  0
VERTEX
  5
445
  8
0
  6
DASHED
 10
233.1474044536937
 20
193.34257591286041
 30
0.0
 42
-0.1071757262240082
  0
VERTEX
  5
446
  8
0
  6
DASHED
 10
230.3431457505076
 20
196.16116523516811
 30
0.0
 42
-0.0777000840073269
  0
VERTEX
  5
447
  8
0
  6
DASHED
 10
228.64986353532569
 20
200.012482334368
 30
0.0
 42
-0.0648748006732577
  0
VERTEX
  5
448
  8
0
  6
DASHED
 10
228.0
 20
205.0
 30
0.0
 42
-0.0648748006732599
  0
VERTEX
  5
449
  8
0
  6
DASHED
 10
228.64986353532569
 20
209.987517665632
 30
0.0
 42
-0.0777000840073276
  0
VERTEX
  5
44A
  8
0
  6
DASHED
 10
230.3431457505076
 20
213.8388347648318
 30
0.0
 42
-0.1071757262240075
  0
VERTEX
  5
44B
  8
0
  6
DASHED
 10
233.1474044536937
 20
216.6574240871395
 30
0.0
 42
-0.1445979367978599
  0
VERTEX
  5
44C
  8
0
  6
DASHED
 10
236.0
 20
217.5
 30
0.0
 42
-0.1445979367978587
  0
SEQEND
  5
44D
  8
0
  6
DASHED
  0
ENDSEC
  0
EOF
