  0
SECTION
  2
HEADER
  9
$ACADVER
  1
AC1009
  9
$INSBASE
 10
0.0
 20
0.0
 30
0.0
  9
$EXTMIN
 10
435.26168308365448
 20
246.52553405836019
 30
-0.000000000000013
  9
$EXTMAX
 10
1003.806744527258
 20
379.9719891824131
 30
0.0000000000000023
  9
$LIMMIN
 10
0.0
 20
0.0
  9
$LIMMAX
 10
420.0
 20
297.0
  9
$ORTHOMODE
 70
     1
  9
$REGENMODE
 70
     1
  9
$FILLMODE
 70
     1
  9
$QTEXTMODE
 70
     0
  9
$MIRRTEXT
 70
     1
  9
$DRAGMODE
 70
     2
  9
$LTSCALE
 40
1.0
  9
$OSMODE
 70
    40
  9
$ATTMODE
 70
     1
  9
$TEXTSIZE
 40
2.5
  9
$TRACEWID
 40
1.0
  9
$TEXTSTYLE
  7
STANDARD
  9
$CLAYER
  8
0
  9
$CELTYPE
  6
BYLAYER
  9
$CECOLOR
 62
   256
  9
$DIMSCALE
 40
1.0
  9
$DIMASZ
 40
2.5
  9
$DIMEXO
 40
0.625
  9
$DIMDLI
 40
3.75
  9
$DIMRND
 40
0.0
  9
$DIMDLE
 40
0.0
  9
$DIMEXE
 40
1.25
  9
$DIMTP
 40
0.0
  9
$DIMTM
 40
0.0
  9
$DIMTXT
 40
2.5
  9
$DIMCEN
 40
2.5
  9
$DIMTSZ
 40
0.0
  9
$DIMTOL
 70
     0
  9
$DIMLIM
 70
     0
  9
$DIMTIH
 70
     1
  9
$DIMTOH
 70
     1
  9
$DIMSE1
 70
     0
  9
$DIMSE2
 70
     0
  9
$DIMTAD
 70
     1
  9
$DIMZIN
 70
     8
  9
$DIMBLK
  1

  9
$DIMASO
 70
     1
  9
$DIMSHO
 70
     1
  9
$DIMPOST
  1

  9
$DIMAPOST
  1

  9
$DIMALT
 70
     0
  9
$DIMALTD
 70
     3
  9
$DIMALTF
 40
0.03937007874016
  9
$DIMLFAC
 40
1.0
  9
$DIMTOFL
 70
     1
  9
$DIMTVP
 40
0.0
  9
$DIMTIX
 70
     0
  9
$DIMSOXD
 70
     0
  9
$DIMSAH
 70
     0
  9
$DIMBLK1
  1

  9
$DIMBLK2
  1

  9
$DIMSTYLE
  2
ISO-25
  9
$DIMCLRD
 70
     0
  9
$DIMCLRE
 70
     0
  9
$DIMCLRT
 70
     0
  9
$DIMTFAC
 40
1.0
  9
$DIMGAP
 40
0.625
  9
$LUNITS
 70
     2
  9
$LUPREC
 70
     4
  9
$SKETCHINC
 40
1.0
  9
$FILLETRAD
 40
10.0
  9
$AUNITS
 70
     0
  9
$AUPREC
 70
     0
  9
$MENU
  1
.
  9
$ELEVATION
 40
0.0
  9
$PELEVATION
 40
0.0
  9
$THICKNESS
 40
0.0
  9
$LIMCHECK
 70
     0
  9
$BLIPMODE
 70
     0
  9
$CHAMFERA
 40
10.0
  9
$CHAMFERB
 40
10.0
  9
$SKPOLY
 70
     0
  9
$TDCREATE
 40
2453291.6691657398
  9
$TDUPDATE
 40
2453293.4760550112
  9
$TDINDWG
 40
0.7846603588
  9
$TDUSRTIMER
 40
0.7846603588
  9
$USRTIMER
 70
     1
  9
$ANGBASE
 50
0.0
  9
$ANGDIR
 70
     0
  9
$PDMODE
 70
     3
  9
$PDSIZE
 40
2.0
  9
$PLINEWID
 40
0.0
  9
$COORDS
 70
     0
  9
$SPLFRAME
 70
     0
  9
$SPLINETYPE
 70
     6
  9
$SPLINESEGS
 70
     8
  9
$ATTDIA
 70
     0
  9
$ATTREQ
 70
     1
  9
$HANDLING
 70
-16383
  9
$HANDSEED
  5
883
  9
$SURFTAB1
 70
     6
  9
$SURFTAB2
 70
     6
  9
$SURFTYPE
 70
     6
  9
$SURFU
 70
     6
  9
$SURFV
 70
     6
  9
$UCSNAME
  2

  9
$UCSORG
 10
0.0
 20
0.0
 30
0.0
  9
$UCSXDIR
 10
1.0
 20
0.0
 30
0.0
  9
$UCSYDIR
 10
0.0
 20
1.0
 30
0.0
  9
$PUCSNAME
  2

  9
$PUCSORG
 10
0.0
 20
0.0
 30
0.0
  9
$PUCSXDIR
 10
1.0
 20
0.0
 30
0.0
  9
$PUCSYDIR
 10
0.0
 20
1.0
 30
0.0
  9
$USERI1
 70
     0
  9
$USERI2
 70
     0
  9
$USERI3
 70
     0
  9
$USERI4
 70
     0
  9
$USERI5
 70
     0
  9
$USERR1
 40
0.0
  9
$USERR2
 40
0.0
  9
$USERR3
 40
0.0
  9
$USERR4
 40
0.0
  9
$USERR5
 40
0.0
  9
$WORLDVIEW
 70
     1
  9
$SHADEDGE
 70
     3
  9
$SHADEDIF
 70
    70
  9
$TILEMODE
 70
     1
  9
$MAXACTVP
 70
    48
  9
$PLIMCHECK
 70
     0
  9
$PEXTMIN
 10
28.674485683441159
 20
19.97498331069945
 30
0.0
  9
$PEXTMAX
 10
258.0703711509704
 20
179.77484979629509
 30
0.0
  9
$PLIMMIN
 10
-5.027069091796875
 20
-5.0270833969116211
  9
$PLIMMAX
 10
291.98358154296869
 20
204.98858737945551
  9
$UNITMODE
 70
     0
  9
$VISRETAIN
 70
     1
  9
$PLINEGEN
 70
     0
  9
$PSLTSCALE
 70
     1
  0
ENDSEC
  0
SECTION
  2
TABLES
  0
TABLE
  2
VPORT
 70
    10
  0
VPORT
  2
*ACTIVE
 70
     0
 10
0.0
 20
0.0
 11
1.0
 21
1.0
 12
719.53421380545626
 22
313.24876162038657
 13
0.0
 23
0.0
 14
10.0
 24
10.0
 15
10.0
 25
10.0
 16
0.0
 26
0.0
 36
1.0
 17
0.0
 27
0.0
 37
0.0
 40
378.86024032015581
 41
1.508135168961201
 42
50.0
 43
0.0
 44
0.0
 50
0.0
 51
0.0
 71
     0
 72
   100
 73
     1
 74
     2
 75
     0
 76
     0
 77
     0
 78
     0
  0
ENDTAB
  0
TABLE
  2
LTYPE
 70
    14
  0
LTYPE
  2
CONTINUOUS
 70
     0
  3
Solid line
 72
    65
 73
     0
 40
0.0
  0
LTYPE
  2
CENTER
 70
     0
  3
Center (.5x) ___ _ ___ _ ___ _ ___ _ ___ _ ___
 72
    65
 73
     4
 40
28.574999999999989
 49
19.050000000000001
 49
-3.1749999999999989
 49
3.1749999999999989
 49
-3.1749999999999989
  0
LTYPE
  2
DASHED
 70
     0
  3
Dashed (.5x) _ _ _ _ _ _ _ _ _ _ _ _ _ _ _ _ _
 72
    65
 73
     2
 40
9.5249999999999986
 49
6.3499999999999988
 49
-3.1749999999999989
  0
ENDTAB
  0
TABLE
  2
LAYER
 70
     5
  0
LAYER
  2
0
 70
     0
 62
     7
  6
CONTINUOUS
  0
ENDTAB
  0
TABLE
  2
STYLE
 70
     4
  0
STYLE
  2
STANDARD
 70
     0
 40
0.0
 41
1.0
 50
0.0
 71
     0
 42
2.5
  3
txt
  4

  0
ENDTAB
  0
TABLE
  2
VIEW
 70
     0
  0
ENDTAB
  0
TABLE
  2
UCS
 70
     0
  0
ENDTAB
  0
TABLE
  2
APPID
 70
     3
  0
APPID
  2
ACAD
 70
     0
  0
APPID
  2
GENIUS_GENODEF_13
 70
     0
  0
APPID
  2
GENIUS_GENOBJ-N-CEN_13
 70
     0
  0
ENDTAB
  0
TABLE
  2
DIMSTYLE
 70
     8
  0
DIMSTYLE
  2
ISO-25
 70
     0
  3

  4

  5

  6

  7

 40
1.0
 41
2.5
 42
0.625
 43
3.75
 44
1.25
 45
0.0
 46
0.0
 47
0.0
 48
0.0
140
2.5
141
2.5
142
0.0
143
0.03937007874016
144
1.0
145
0.0
146
1.0
147
0.625
 71
     0
 72
     0
 73
     1
 74
     1
 75
     0
 76
     0
 77
     1
 78
     8
170
     0
171
     3
172
     1
173
     0
174
     0
175
     0
176
     0
177
     0
178
     0
  0
ENDTAB
  0
ENDSEC
  0
SECTION
  2
BLOCKS
  0
BLOCK
  8
0
  2
$MODEL_SPACE
 70
     0
 10
0.0
 20
0.0
 30
0.0
  3
$MODEL_SPACE
  1

  0
ENDBLK
  5
21
  8
0
  0
BLOCK
 67
     1
  8
0
  2
$PAPER_SPACE
 70
     0
 10
0.0
 20
0.0
 30
0.0
  3
$PAPER_SPACE
  1

  0
ENDBLK
  5
53
 67
     1
  8
0
  0
ENDSEC
  0
SECTION
  2
ENTITIES
  0
LINE
  5
1B0
  8
0
 10
659.20529370552401
 20
271.53668575239811
 30
0.0
 11
506.27852984616169
 21
271.53668575239811
 31
0.0
  0
LINE
  5
1B1
  8
0
 10
506.27852984616169
 20
246.53668575239811
 30
0.0
 11
659.20529370552401
 21
246.53668575239811
 31
0.0
  0
LINE
  5
1B2
  8
0
  6
CENTER
 10
500.24191177584282
 20
259.03668575239811
 30
0.0
 11
665.24191177584271
 21
259.03668575239811
 31
0.0
  0
ARC
  5
1B3
  8
0
 10
526.74191177584282
 20
259.03668575239811
 30
0.0
 40
25.0
 50
152.8371115778356
 51
207.16288842216429
  0
ARC
  5
1B5
  8
0
 10
532.30751004520459
 20
259.03668575239811
 30
0.0
 40
13.43440173063815
 50
291.4953842545126
 51
68.504615745487399
  0
CIRCLE
  5
1B7
  8
0
  6
DASHED
 10
514.24191177584282
 20
259.03668575239811
 30
0.0
 40
3.399999999999999
  0
LINE
  5
1B8
  8
0
 10
514.24191177584282
 20
253.786685752398
 30
0.0
 11
514.24191177584282
 21
264.28668575239789
 31
0.0
  0
ARC
  5
1B9
  8
0
 10
506.27852984616169
 20
248.53668575239811
 30
0.0
 40
2.0
 50
207.16288842216429
 51
270.0
  0
CIRCLE
  5
1BB
  8
0
  6
DASHED
 10
526.24191177584282
 20
259.03668575239811
 30
0.0
 40
3.399999999999999
  0
LINE
  5
1BC
  8
0
 10
526.24191177584282
 20
253.786685752398
 30
0.0
 11
526.24191177584282
 21
264.28668575239789
 31
0.0
  0
ARC
  5
1BD
  8
0
 10
506.27852984616169
 20
269.53668575239811
 30
0.0
 40
2.0
 50
90.0
 51
152.8371115778356
  0
ARC
  5
1BE
  8
0
 10
638.74191177584282
 20
259.03668575239811
 30
0.0
 40
25.0
 50
332.83711157783563
 51
27.162888422164318
  0
CIRCLE
  5
1C1
  8
0
 10
654.24191177584282
 20
259.036685752398
 30
0.0
 40
3.399999999999999
  0
LINE
  5
1C2
  8
0
 10
654.24191177584282
 20
253.786685752398
 30
0.0
 11
654.24191177584282
 21
264.28668575239789
 31
0.0
  0
ARC
  5
1C3
  8
0
 10
659.20529370552401
 20
248.53668575239811
 30
0.0
 40
2.0
 50
270.0
 51
332.83711157783563
  0
ARC
  5
1C4
  8
0
 10
659.20529370552401
 20
269.53668575239811
 30
0.0
 40
2.0
 50
27.162888422164318
 51
90.0
  0
LINE
  5
1C5
  8
0
 10
638.74191177584271
 20
375.95164693288621
 30
0.0
 11
545.7419117758426
 21
375.95164693288621
 31
0.0
  0
LINE
  5
1C6
  8
0
 10
551.74191177584271
 20
356.95164693288598
 30
0.0
 11
638.74191177584271
 21
356.95164693288621
 31
0.0
  0
LINE
  5
1C7
  8
0
 10
638.74191177584271
 20
363.66008495699759
 30
0.0
 11
551.74191177584271
 21
363.66008495699759
 31
0.0
  0
LINE
  5
1C8
  8
0
 10
638.74191177584271
 20
371.95164693288621
 30
0.0
 11
537.23022777631343
 21
371.95164693288621
 31
0.0
  0
ARC
  5
1C9
  8
0
 10
551.74191177584271
 20
344.95164693288621
 30
0.0
 40
12.0
 50
90.0
 51
180.0
  0
ARC
  5
1CA
  8
0
 10
551.74191177584271
 20
344.95164693288621
 30
0.0
 40
18.708438024111501
 50
90.0
 51
180.0
  0
LINE
  5
1CB
  8
0
 10
505.09127668123159
 20
320.95164693288621
 30
0.0
 11
505.09127668123159
 21
347.66316389017692
 31
0.0
  0
ARC
  5
1CC
  8
0
 10
592.48506868343327
 20
265.42980618494931
 30
0.0
 40
120.0
 50
112.92502808870501
 51
139.12971868150021
  0
LINE
  5
1CD
  8
0
 10
501.74191177584282
 20
320.95164693288621
 30
0.0
 11
539.74191177584271
 21
320.95164693288621
 31
0.0
  0
LINE
  5
1CE
  8
0
 10
501.74191177584282
 20
320.95164693288621
 30
0.0
 11
501.74191177584282
 21
343.95164693288621
 31
0.0
  0
POLYLINE
  5
1CF
  8
0
  6
DASHED
 66
     1
 10
0.0
 20
0.0
 30
0.0
  0
VERTEX
  5
84B
  8
0
  6
DASHED
 10
529.6419117758428
 20
322.94239466169762
 30
0.0
  0
VERTEX
  5
84C
  8
0
  6
DASHED
 10
530.49191177584282
 20
322.45164693288621
 30
0.0
  0
VERTEX
  5
84D
  8
0
  6
DASHED
 10
530.49191177584282
 20
320.95164693288621
 30
0.0
  0
SEQEND
  5
84E
  8
0
  6
DASHED
  0
LINE
  5
1D0
  8
0
 10
533.03347375173132
 20
344.95164693288598
 30
0.0
 11
533.03347375173132
 21
320.95164693288621
 31
0.0
  0
POLYLINE
  5
1D1
  8
0
  6
DASHED
 66
     1
 10
0.0
 20
0.0
 30
0.0
  0
VERTEX
  5
84F
  8
0
  6
DASHED
 10
509.99191177584282
 20
320.95164693288621
 30
0.0
  0
VERTEX
  5
850
  8
0
  6
DASHED
 10
509.99191177584282
 20
322.45164693288621
 30
0.0
  0
VERTEX
  5
851
  8
0
  6
DASHED
 10
510.84191177584262
 20
322.94239466169762
 30
0.0
  0
SEQEND
  5
852
  8
0
  6
DASHED
  0
POLYLINE
  5
1D2
  8
0
  6
DASHED
 66
     1
 10
0.0
 20
0.0
 30
0.0
  0
VERTEX
  5
853
  8
0
  6
DASHED
 10
521.99191177584282
 20
320.95164693288621
 30
0.0
  0
VERTEX
  5
854
  8
0
  6
DASHED
 10
521.99191177584282
 20
322.45164693288621
 30
0.0
  0
VERTEX
  5
855
  8
0
  6
DASHED
 10
522.84191177584262
 20
322.94239466169762
 30
0.0
  0
SEQEND
  5
856
  8
0
  6
DASHED
  0
POLYLINE
  5
1D3
  8
0
  6
DASHED
 66
     1
 10
0.0
 20
0.0
 30
0.0
  0
VERTEX
  5
857
  8
0
  6
DASHED
 10
517.6419117758428
 20
322.94239466169762
 30
0.0
  0
VERTEX
  5
858
  8
0
  6
DASHED
 10
518.49191177584282
 20
322.45164693288621
 30
0.0
  0
VERTEX
  5
859
  8
0
  6
DASHED
 10
518.49191177584282
 20
320.95164693288621
 30
0.0
  0
SEQEND
  5
85A
  8
0
  6
DASHED
  0
LINE
  5
1D4
  8
0
  6
CENTER
 10
526.24191177584282
 20
317.95164693288621
 30
0.0
 11
526.24191177584282
 21
339.91463784813078
 31
0.0
  0
LINE
  5
1D5
  8
0
  6
CENTER
 10
514.24191177584282
 20
317.95164693288621
 30
0.0
 11
514.24191177584282
 21
339.91463784813078
 31
0.0
  0
LINE
  5
1D6
  8
0
  6
DASHED
 10
518.24191177584282
 20
322.59598450018359
 30
0.0
 11
518.24191177584282
 21
332.95164693288609
 31
0.0
  0
LINE
  5
1D7
  8
0
  6
DASHED
 10
510.24191177584282
 20
322.59598450018359
 30
0.0
 11
510.24191177584282
 21
332.95164693288609
 31
0.0
  0
LINE
  5
1D8
  8
0
  6
DASHED
 10
510.84191177584262
 20
322.94239466169751
 30
0.0
 11
510.84191177584262
 21
334.95164693288621
 31
0.0
  0
LINE
  5
1D9
  8
0
  6
DASHED
 10
517.6419117758428
 20
334.95164693288621
 30
0.0
 11
517.6419117758428
 21
322.94239466169751
 31
0.0
  0
LINE
  5
1DA
  8
0
  6
DASHED
 10
509.99191177584282
 20
322.45164693288609
 30
0.0
 11
518.49191177584282
 21
322.45164693288609
 31
0.0
  0
LINE
  5
1DB
  8
0
  6
DASHED
 10
510.84191177584262
 20
322.94239466169722
 30
0.0
 11
517.6419117758428
 21
322.94239466169722
 31
0.0
  0
LINE
  5
1DC
  8
0
  6
DASHED
 10
518.24191177584282
 20
332.95164693288609
 30
0.0
 11
510.24191177584282
 21
332.95164693288609
 31
0.0
  0
LINE
  5
1DD
  8
0
  6
DASHED
 10
510.84191177584262
 20
334.95164693288609
 30
0.0
 11
517.6419117758428
 21
334.95164693288609
 31
0.0
  0
LINE
  5
1DE
  8
0
  6
DASHED
 10
510.84191177584262
 20
334.95164693288621
 30
0.0
 11
514.24191177584282
 21
336.91463784813101
 31
0.0
  0
LINE
  5
1DF
  8
0
  6
DASHED
 10
514.24191177584282
 20
336.91463784813101
 30
0.0
 11
517.6419117758428
 21
334.95164693288621
 31
0.0
  0
LINE
  5
1E0
  8
0
  6
DASHED
 10
530.24191177584282
 20
322.59598450018359
 30
0.0
 11
530.24191177584282
 21
332.95164693288609
 31
0.0
  0
LINE
  5
1E1
  8
0
  6
DASHED
 10
529.6419117758428
 20
334.95164693288621
 30
0.0
 11
529.6419117758428
 21
322.94239466169751
 31
0.0
  0
LINE
  5
1E2
  8
0
  6
DASHED
 10
522.24191177584282
 20
322.59598450018359
 30
0.0
 11
522.24191177584282
 21
332.95164693288609
 31
0.0
  0
LINE
  5
1E3
  8
0
  6
DASHED
 10
522.84191177584262
 20
322.94239466169751
 30
0.0
 11
522.84191177584262
 21
334.95164693288621
 31
0.0
  0
LINE
  5
1E4
  8
0
  6
DASHED
 10
521.99191177584282
 20
322.45164693288609
 30
0.0
 11
530.49191177584282
 21
322.45164693288609
 31
0.0
  0
LINE
  5
1E5
  8
0
  6
DASHED
 10
522.84191177584262
 20
322.94239466169722
 30
0.0
 11
529.6419117758428
 21
322.94239466169722
 31
0.0
  0
LINE
  5
1E6
  8
0
  6
DASHED
 10
530.24191177584282
 20
332.95164693288609
 30
0.0
 11
522.24191177584282
 21
332.95164693288609
 31
0.0
  0
LINE
  5
1E7
  8
0
  6
DASHED
 10
522.84191177584262
 20
334.95164693288609
 30
0.0
 11
529.6419117758428
 21
334.95164693288609
 31
0.0
  0
LINE
  5
1E8
  8
0
  6
DASHED
 10
526.24191177584282
 20
336.91463784813101
 30
0.0
 11
529.6419117758428
 21
334.95164693288621
 31
0.0
  0
LINE
  5
1E9
  8
0
  6
DASHED
 10
522.84191177584262
 20
334.95164693288621
 30
0.0
 11
526.24191177584282
 21
336.91463784813101
 31
0.0
  0
LINE
  5
1EA
  8
0
 10
539.74191177584271
 20
320.95164693288621
 30
0.0
 11
539.74191177584271
 21
344.95164693288598
 31
0.0
  0
LINE
  5
1EB
  8
0
 10
663.74191177584271
 20
320.95164693288621
 30
0.0
 11
663.74191177584271
 21
350.95164693288621
 31
0.0
  0
LINE
  5
1EC
  8
0
 10
644.74191177584271
 20
350.95164693288621
 30
0.0
 11
644.74191177584271
 21
320.95164693288621
 31
0.0
  0
LINE
  5
1ED
  8
0
 10
651.45034979995432
 20
320.95164693288621
 30
0.0
 11
651.45034979995432
 21
350.95164693288621
 31
0.0
  0
LINE
  5
1EE
  8
0
 10
659.74191177584271
 20
320.95164693288621
 30
0.0
 11
659.74191177584271
 21
350.95164693288621
 31
0.0
  0
POLYLINE
  5
1EF
  8
0
  6
DASHED
 66
     1
 10
0.0
 20
0.0
 30
0.0
  0
VERTEX
  5
85B
  8
0
  6
DASHED
 10
657.6419117758428
 20
322.94239466169751
 30
0.0
  0
VERTEX
  5
85C
  8
0
  6
DASHED
 10
658.49191177584271
 20
322.45164693288609
 30
0.0
  0
VERTEX
  5
85D
  8
0
  6
DASHED
 10
658.49191177584271
 20
320.95164693288621
 30
0.0
  0
SEQEND
  5
85E
  8
0
  6
DASHED
  0
POLYLINE
  5
1F0
  8
0
  6
DASHED
 66
     1
 10
0.0
 20
0.0
 30
0.0
  0
VERTEX
  5
85F
  8
0
  6
DASHED
 10
649.99191177584271
 20
320.95164693288621
 30
0.0
  0
VERTEX
  5
860
  8
0
  6
DASHED
 10
649.99191177584271
 20
322.45164693288609
 30
0.0
  0
VERTEX
  5
861
  8
0
  6
DASHED
 10
650.84191177584285
 20
322.94239466169751
 30
0.0
  0
SEQEND
  5
862
  8
0
  6
DASHED
  0
LINE
  5
1F1
  8
0
  6
CENTER
 10
654.24191177584271
 20
317.95164693288621
 30
0.0
 11
654.24191177584271
 21
339.91463784813078
 31
0.0
  0
LINE
  5
1F2
  8
0
 10
644.74191177584271
 20
320.95164693288621
 30
0.0
 11
663.74191177584271
 21
320.95164693288621
 31
0.0
  0
LINE
  5
1F3
  8
0
  6
DASHED
 10
658.2419117758426
 20
332.95164693288609
 30
0.0
 11
650.24191177584271
 21
332.95164693288609
 31
0.0
  0
LINE
  5
1F4
  8
0
  6
DASHED
 10
649.99191177584271
 20
322.45164693288609
 30
0.0
 11
658.49191177584271
 21
322.45164693288609
 31
0.0
  0
LINE
  5
1F5
  8
0
  6
DASHED
 10
650.24191177584271
 20
322.59598450018359
 30
0.0
 11
650.24191177584271
 21
332.95164693288609
 31
0.0
  0
LINE
  5
1F6
  8
0
  6
DASHED
 10
658.2419117758426
 20
322.59598450018359
 30
0.0
 11
658.2419117758426
 21
332.95164693288609
 31
0.0
  0
LINE
  5
1F7
  8
0
  6
DASHED
 10
650.84191177584285
 20
322.94239466169722
 30
0.0
 11
650.84191177584285
 21
334.95164693288609
 31
0.0
  0
LINE
  5
1F8
  8
0
  6
DASHED
 10
657.6419117758428
 20
334.95164693288609
 30
0.0
 11
657.6419117758428
 21
322.94239466169722
 31
0.0
  0
LINE
  5
1F9
  8
0
  6
DASHED
 10
650.84191177584285
 20
322.94239466169722
 30
0.0
 11
657.6419117758428
 21
322.94239466169722
 31
0.0
  0
LINE
  5
1FA
  8
0
  6
DASHED
 10
650.84191177584285
 20
334.95164693288609
 30
0.0
 11
654.24191177584271
 21
336.91463784813072
 31
0.0
  0
LINE
  5
1FB
  8
0
  6
DASHED
 10
654.24191177584271
 20
336.91463784813072
 30
0.0
 11
657.6419117758428
 21
334.95164693288609
 31
0.0
  0
LINE
  5
1FC
  8
0
  6
DASHED
 10
650.84191177584285
 20
334.95164693288609
 30
0.0
 11
657.6419117758428
 21
334.95164693288609
 31
0.0
  0
ARC
  5
1FD
  8
0
 10
638.74191177584271
 20
350.95164693288621
 30
0.0
 40
25.0
 50
0.0
 51
90.0
  0
ARC
  5
1FE
  8
0
 10
638.74191177584271
 20
350.95164693288621
 30
0.0
 40
21.0
 50
0.0
 51
90.0
  0
ARC
  5
1FF
  8
0
 10
638.74191177584271
 20
350.95164693288621
 30
0.0
 40
12.7084380241115
 50
0.0
 51
90.0
  0
ARC
  5
200
  8
0
 10
638.74191177584271
 20
350.95164693288621
 30
0.0
 40
6.0
 50
0.0
 51
90.0
  0
ARC
  5
201
  8
0
 10
870.74822657939615
 20
259.03668575239823
 30
0.0
 40
13.43440173063815
 50
291.49538425451101
 51
68.50461574548892
  0
LINE
  5
202
  8
0
  6
CENTER
 10
838.68262831003437
 20
259.03668575239811
 30
0.0
 11
1003.682628310034
 21
259.03668575239811
 31
0.0
  0
LINE
  5
203
  8
0
 10
997.64601023971545
 20
271.53668575239811
 30
0.0
 11
844.71924638035307
 21
271.53668575239811
 31
0.0
  0
LINE
  5
204
  8
0
 10
844.71924638035307
 20
246.53668575239811
 30
0.0
 11
997.64601023971545
 21
246.53668575239811
 31
0.0
  0
CIRCLE
  5
206
  8
0
 10
848.18262831003426
 20
259.03668575239811
 30
0.0
 40
3.399999999999999
  0
ARC
  5
207
  8
0
 10
865.18262831003437
 20
259.03668575239823
 30
0.0
 40
25.0
 50
152.837111577836
 51
207.16288842216321
  0
ARC
  5
208
  8
0
 10
844.71924638035307
 20
248.5366857523982
 30
0.0
 40
2.0
 50
207.16288842216321
 51
270.0
  0
LINE
  5
209
  8
0
 10
848.18262831003426
 20
253.786685752398
 30
0.0
 11
848.18262831003426
 21
264.286685752398
 31
0.0
  0
ARC
  5
20A
  8
0
 10
844.71924638035307
 20
269.53668575239823
 30
0.0
 40
2.0
 50
90.0
 51
152.837111577836
  0
CIRCLE
  5
20D
  8
0
 10
870.18262831003426
 20
259.03668575239811
 30
0.0
 40
3.399999999999999
  0
LINE
  5
20E
  8
0
 10
870.18262831003426
 20
253.786685752398
 30
0.0
 11
870.18262831003426
 21
264.286685752398
 31
0.0
  0
ARC
  5
211
  8
0
 10
977.18262831003426
 20
259.03668575239823
 30
0.0
 40
25.0
 50
332.83711157783603
 51
27.162888422163221
  0
ARC
  5
212
  8
0
 10
997.64601023971545
 20
248.5366857523982
 30
0.0
 40
2.0
 50
270.0
 51
332.83711157783603
  0
ARC
  5
213
  8
0
 10
997.64601023971545
 20
269.53668575239823
 30
0.0
 40
2.0
 50
27.162888422163221
 51
90.0
  0
ARC
  5
214
  8
0
 10
890.18262831003437
 20
346.95164693288632
 30
0.0
 40
12.0
 50
90.0
 51
180.0
  0
ARC
  5
215
  8
0
 10
890.18262831003437
 20
346.95164693288632
 30
0.0
 40
18.708438024111501
 50
90.0
 51
180.0
  0
LINE
  5
216
  8
0
 10
997.18262831003449
 20
373.95164693288621
 30
0.0
 11
875.67094431050498
 21
373.95164693288621
 31
0.0
  0
ARC
  5
217
  8
0
 10
930.92578521762505
 20
267.42980618494931
 30
0.0
 40
120.0
 50
112.9250280887068
 51
139.1297186814997
  0
LINE
  5
218
  8
0
  6
DASHED
 10
852.18262831003449
 20
336.95164693288609
 30
0.0
 11
844.18262831003449
 21
336.95164693288609
 31
0.0
  0
LINE
  5
219
  8
0
  6
DASHED
 10
844.78262831003417
 20
338.95164693288609
 30
0.0
 11
851.58262831003435
 21
338.95164693288609
 31
0.0
  0
LINE
  5
21A
  8
0
  6
DASHED
 10
848.18262831003437
 20
340.91463784813078
 30
0.0
 11
851.58262831003435
 21
338.95164693288632
 31
0.0
  0
LINE
  5
21B
  8
0
  6
DASHED
 10
843.93262831003437
 20
322.45164693288609
 30
0.0
 11
852.43262831003449
 21
322.45164693288609
 31
0.0
  0
LINE
  5
21C
  8
0
  6
DASHED
 10
844.78262831003417
 20
322.94239466169722
 30
0.0
 11
851.58262831003435
 21
322.94239466169722
 31
0.0
  0
LINE
  5
21D
  8
0
 10
840.18262831003437
 20
320.95164693288621
 30
0.0
 11
878.18262831003449
 21
320.95164693288621
 31
0.0
  0
LINE
  5
21E
  8
0
 10
843.5319932154232
 20
320.95164693288621
 30
0.0
 11
843.5319932154232
 21
349.6631638901768
 31
0.0
  0
LINE
  5
21F
  8
0
 10
840.18262831003437
 20
320.95164693288621
 30
0.0
 11
840.18262831003437
 21
345.95164693288621
 31
0.0
  0
LINE
  5
220
  8
0
  6
DASHED
 10
844.18262831003449
 20
322.59598450018359
 30
0.0
 11
844.18262831003449
 21
336.95164693288609
 31
0.0
  0
LINE
  5
221
  8
0
  6
CENTER
 10
848.18262831003437
 20
317.95164693288621
 30
0.0
 11
848.18262831003437
 21
343.91463784813072
 31
0.0
  0
LINE
  5
222
  8
0
  6
DASHED
 10
844.78262831003417
 20
322.94239466169728
 30
0.0
 11
844.78262831003417
 21
338.95164693288632
 31
0.0
  0
POLYLINE
  5
223
  8
0
  6
DASHED
 66
     1
 10
0.0
 20
0.0
 30
0.0
  0
VERTEX
  5
863
  8
0
  6
DASHED
 10
843.93262831003437
 20
320.95164693288632
 30
0.0
  0
VERTEX
  5
864
  8
0
  6
DASHED
 10
843.93262831003437
 20
322.45164693288632
 30
0.0
  0
VERTEX
  5
865
  8
0
  6
DASHED
 10
844.78262831003417
 20
322.94239466169751
 30
0.0
  0
SEQEND
  5
866
  8
0
  6
DASHED
  0
LINE
  5
224
  8
0
  6
DASHED
 10
844.78262831003417
 20
338.95164693288632
 30
0.0
 11
848.18262831003437
 21
340.91463784813078
 31
0.0
  0
LINE
  5
225
  8
0
 10
871.47419028592287
 20
346.95164693288621
 30
0.0
 11
871.4741902859231
 21
320.95164693288621
 31
0.0
  0
LINE
  5
226
  8
0
 10
878.18262831003449
 20
320.95164693288621
 30
0.0
 11
878.18262831003449
 21
346.95164693288621
 31
0.0
  0
LINE
  5
227
  8
0
  6
DASHED
 10
874.18262831003437
 20
322.59598450018359
 30
0.0
 11
874.18262831003437
 21
336.95164693288609
 31
0.0
  0
LINE
  5
228
  8
0
  6
DASHED
 10
873.58262831003435
 20
338.95164693288632
 30
0.0
 11
873.58262831003435
 21
322.94239466169728
 31
0.0
  0
LINE
  5
229
  8
0
  6
DASHED
 10
866.18262831003437
 20
322.59598450018359
 30
0.0
 11
866.18262831003437
 21
336.95164693288609
 31
0.0
  0
LINE
  5
22A
  8
0
  6
CENTER
 10
870.18262831003449
 20
317.95164693288621
 30
0.0
 11
870.18262831003449
 21
343.91463784813072
 31
0.0
  0
LINE
  5
22B
  8
0
  6
DASHED
 10
866.78262831003417
 20
322.94239466169728
 30
0.0
 11
866.78262831003417
 21
338.95164693288632
 31
0.0
  0
LINE
  5
22C
  8
0
  6
DASHED
 10
852.18262831003449
 20
322.59598450018359
 30
0.0
 11
852.18262831003449
 21
336.95164693288609
 31
0.0
  0
LINE
  5
22D
  8
0
  6
DASHED
 10
851.58262831003435
 20
338.95164693288632
 30
0.0
 11
851.58262831003435
 21
322.94239466169728
 31
0.0
  0
LINE
  5
22E
  8
0
  6
DASHED
 10
865.93262831003449
 20
322.45164693288609
 30
0.0
 11
874.43262831003449
 21
322.45164693288609
 31
0.0
  0
LINE
  5
22F
  8
0
  6
DASHED
 10
866.78262831003417
 20
322.94239466169722
 30
0.0
 11
873.58262831003435
 21
322.94239466169722
 31
0.0
  0
POLYLINE
  5
230
  8
0
  6
DASHED
 66
     1
 10
0.0
 20
0.0
 30
0.0
  0
VERTEX
  5
867
  8
0
  6
DASHED
 10
851.58262831003435
 20
322.94239466169751
 30
0.0
  0
VERTEX
  5
868
  8
0
  6
DASHED
 10
852.43262831003449
 20
322.45164693288632
 30
0.0
  0
VERTEX
  5
869
  8
0
  6
DASHED
 10
852.43262831003449
 20
320.95164693288632
 30
0.0
  0
SEQEND
  5
86A
  8
0
  6
DASHED
  0
POLYLINE
  5
231
  8
0
  6
DASHED
 66
     1
 10
0.0
 20
0.0
 30
0.0
  0
VERTEX
  5
86B
  8
0
  6
DASHED
 10
865.93262831003449
 20
320.95164693288632
 30
0.0
  0
VERTEX
  5
86C
  8
0
  6
DASHED
 10
865.93262831003449
 20
322.45164693288632
 30
0.0
  0
VERTEX
  5
86D
  8
0
  6
DASHED
 10
866.78262831003417
 20
322.94239466169751
 30
0.0
  0
SEQEND
  5
86E
  8
0
  6
DASHED
  0
POLYLINE
  5
232
  8
0
  6
DASHED
 66
     1
 10
0.0
 20
0.0
 30
0.0
  0
VERTEX
  5
86F
  8
0
  6
DASHED
 10
873.58262831003435
 20
322.94239466169751
 30
0.0
  0
VERTEX
  5
870
  8
0
  6
DASHED
 10
874.43262831003449
 20
322.45164693288632
 30
0.0
  0
VERTEX
  5
871
  8
0
  6
DASHED
 10
874.43262831003449
 20
320.95164693288632
 30
0.0
  0
SEQEND
  5
872
  8
0
  6
DASHED
  0
LINE
  5
233
  8
0
  6
DASHED
 10
866.78262831003417
 20
338.95164693288632
 30
0.0
 11
870.18262831003449
 21
340.91463784813078
 31
0.0
  0
LINE
  5
234
  8
0
  6
DASHED
 10
874.18262831003437
 20
336.95164693288609
 30
0.0
 11
866.18262831003437
 21
336.95164693288609
 31
0.0
  0
LINE
  5
235
  8
0
  6
DASHED
 10
866.78262831003417
 20
338.95164693288609
 30
0.0
 11
873.58262831003435
 21
338.95164693288609
 31
0.0
  0
LINE
  5
236
  8
0
  6
DASHED
 10
870.18262831003449
 20
340.91463784813078
 30
0.0
 11
873.58262831003435
 21
338.95164693288632
 31
0.0
  0
ARC
  5
237
  8
0
 10
975.21629745506505
 20
379.58786122003153
 30
0.0
 40
30.349359345143711
 50
282.8371989175306
 51
332.20796727467922
  0
LINE
  5
238
  8
0
 10
979.72290155358621
 20
351.10641040940459
 30
0.0
 11
977.79805346740943
 21
355.23426045113979
 31
0.0
  0
ARC
  5
239
  8
0
 10
981.53551712765932
 20
351.95164693288621
 30
0.0
 40
2.0
 50
205.00000000000381
 51
282.23513746727281
  0
LINE
  5
23A
  8
0
 10
976.63395310682131
 20
365.66008495699771
 30
0.0
 11
890.18262831003437
 21
365.66008495699771
 31
0.0
  0
LINE
  5
23B
  8
0
 10
890.18262831003437
 20
358.95164693288621
 30
0.0
 11
972.36020674518954
 21
358.95164693288621
 31
0.0
  0
LINE
  5
23C
  8
0
 10
1000.182628310034
 20
377.95164693288621
 30
0.0
 11
884.18262831003437
 21
377.95164693288621
 31
0.0
  0
LINE
  5
23D
  8
0
 10
984.62254483582365
 20
356.47260815575169
 30
0.0
 11
982.07179982904097
 21
362.19579452744171
 31
0.0
  0
ARC
  5
23E
  8
0
 10
976.63395310682131
 20
359.66008495699782
 30
0.0
 40
6.0
 50
24.999999999994191
 51
90.0
  0
ARC
  5
23F
  8
0
 10
972.08687223369816
 20
352.71583558915779
 30
0.0
 40
6.2417990090795161
 50
23.79574859100903
 51
87.490158916652703
  0
ARC
  5
240
  8
0
 10
1000.182628310034
 20
375.95164693288621
 30
0.0
 40
2.0
 50
0.0
 51
90.0
  0
LINE
  5
241
  8
0
 10
998.18262831003437
 20
372.95164693288621
 30
0.0
 11
998.18262831003437
 21
365.94629172837358
 31
0.0
  0
ARC
  5
242
  8
0
 10
974.93781986815611
 20
379.67548700448617
 30
0.0
 40
27.14038515387751
 50
297.14102309593301
 51
328.29634902948737
  0
ARC
  5
243
  8
0
 10
986.43516040989687
 20
357.3178446792333
 30
0.0
 40
2.0
 50
205.00000000000381
 51
296.21940141469628
  0
ARC
  5
244
  8
0
 10
997.18262831003449
 20
365.94629172837358
 30
0.0
 40
1.0
 50
327.73884875601522
 51
0.0
  0
ARC
  5
245
  8
0
 10
997.18262831003449
 20
372.95164693288621
 30
0.0
 40
1.0
 50
0.0
 51
90.0
  0
LINE
  5
246
  8
0
 10
1002.182628310034
 20
375.95164693288621
 30
0.0
 11
1002.182628310034
 21
365.90811526809739
 31
0.0
  0
ARC
  5
247
  8
0
 10
1001.182628310034
 20
365.9081152680975
 30
0.0
 40
1.0
 50
331.89710106618952
 51
0.0
  0
LINE
  5
249
  8
0
 10
799.01553744229682
 20
320.95164693288621
 30
0.0
 11
799.01553744229682
 21
373.41502886256637
 31
0.0
  0
LINE
  5
24A
  8
0
  6
CENTER
 10
786.51553744229682
 20
379.95164693288621
 30
0.0
 11
786.51553744229682
 21
318.95164693288621
 31
0.0
1001
GENIUS_GENODEF_13
1002
{
1000
HIER
1070
     0
1002
}
1002
{
1000
MANEDIT
1070
     0
1002
}
1002
{
1000
NOSEL
1070
     0
1002
}
1002
{
1000
BEHIND
1070
     0
1002
}
1002
{
1000
OTHER
1070
     0
1002
}
1002
{
1000
REACTOR
1002
}
1001
GENIUS_GENOBJ-N-CEN_13
1002
{
1000
OWNER
1000
GEN
1002
}
  0
LINE
  5
24B
  8
0
 10
774.01553744229682
 20
373.4150288625674
 30
0.0
 11
774.01553744229682
 21
320.95164693288621
 31
0.0
  0
LINE
  5
24C
  8
0
  6
DASHED
 10
782.51553744229682
 20
322.59598450018359
 30
0.0
 11
782.51553744229682
 21
336.95164693288609
 31
0.0
  0
LINE
  5
24D
  8
0
  6
DASHED
 10
783.11553744229673
 20
322.94239466169728
 30
0.0
 11
783.11553744229673
 21
338.95164693288632
 31
0.0
  0
LINE
  5
24E
  8
0
  6
DASHED
 10
790.51553744229682
 20
322.59598450018359
 30
0.0
 11
790.51553744229682
 21
336.95164693288609
 31
0.0
  0
LINE
  5
24F
  8
0
  6
DASHED
 10
789.91553744229691
 20
338.95164693288632
 30
0.0
 11
789.91553744229691
 21
322.94239466169728
 31
0.0
  0
LINE
  5
250
  8
0
  6
DASHED
 10
782.26553744229682
 20
322.45164693288609
 30
0.0
 11
790.76553744229682
 21
322.45164693288609
 31
0.0
  0
LINE
  5
251
  8
0
  6
DASHED
 10
783.11553744229673
 20
322.94239466169722
 30
0.0
 11
789.91553744229691
 21
322.94239466169722
 31
0.0
  0
LINE
  5
252
  8
0
 10
774.01553744229682
 20
320.95164693288621
 30
0.0
 11
799.01553744229682
 21
320.95164693288621
 31
0.0
  0
POLYLINE
  5
253
  8
0
  6
DASHED
 66
     1
 10
0.0
 20
0.0
 30
0.0
  0
VERTEX
  5
873
  8
0
  6
DASHED
 10
782.26553744229682
 20
320.95164693288632
 30
0.0
  0
VERTEX
  5
874
  8
0
  6
DASHED
 10
782.26553744229682
 20
322.45164693288632
 30
0.0
  0
VERTEX
  5
875
  8
0
  6
DASHED
 10
783.11553744229673
 20
322.94239466169751
 30
0.0
  0
SEQEND
  5
876
  8
0
  6
DASHED
  0
POLYLINE
  5
254
  8
0
  6
DASHED
 66
     1
 10
0.0
 20
0.0
 30
0.0
  0
VERTEX
  5
877
  8
0
  6
DASHED
 10
789.91553744229691
 20
322.94239466169751
 30
0.0
  0
VERTEX
  5
878
  8
0
  6
DASHED
 10
790.76553744229682
 20
322.45164693288632
 30
0.0
  0
VERTEX
  5
879
  8
0
  6
DASHED
 10
790.76553744229682
 20
320.95164693288632
 30
0.0
  0
SEQEND
  5
87A
  8
0
  6
DASHED
  0
LINE
  5
255
  8
0
  6
DASHED
 10
783.11553744229673
 20
338.95164693288632
 30
0.0
 11
786.51553744229682
 21
340.91463784813078
 31
0.0
  0
LINE
  5
256
  8
0
  6
DASHED
 10
790.51553744229682
 20
336.95164693288609
 30
0.0
 11
782.51553744229682
 21
336.95164693288609
 31
0.0
  0
LINE
  5
257
  8
0
  6
DASHED
 10
783.11553744229673
 20
338.95164693288609
 30
0.0
 11
789.91553744229691
 21
338.95164693288609
 31
0.0
  0
ARC
  5
258
  8
0
 10
786.51553744229705
 20
366.4007895967718
 30
0.0
 40
20.449142663885731
 50
234.93493055366221
 51
305.06506944633401
  0
LINE
  5
259
  8
0
  6
DASHED
 10
786.51553744229682
 20
340.91463784813078
 30
0.0
 11
789.91553744229691
 21
338.95164693288632
 31
0.0
  0
ARC
  5
25A
  8
0
 10
786.51553744229682
 20
352.95164693288632
 30
0.0
 40
25.0
 50
62.837111577852049
 51
117.1628884221479
1001
ACAD
1000
ASC_BOUNDS
1002
{
1070
    19
1002
}
  0
ARC
  5
25C
  8
0
 10
776.01553744229682
 20
373.41502886256762
 30
0.0
 40
2.0
 50
117.1628884221479
 51
180.0
1001
ACAD
1000
ASC_BOUNDS
1002
{
1070
    19
1002
}
  0
ARC
  5
25D
  8
0
 10
797.01553744229682
 20
373.41502886256762
 30
0.0
 40
2.0
 50
0.0
 51
62.837111577852049
1001
ACAD
1000
ASC_BOUNDS
1002
{
1070
    19
1002
}
  0
ARC
  5
4D5
  8
0
  6
DASHED
 10
514.24191177584282
 20
259.03668575239811
 30
0.0
 40
4.0
 50
90.0
 51
0.0
  0
ARC
  5
4D6
  8
0
  6
DASHED
 10
526.24191177584282
 20
259.03668575239811
 30
0.0
 40
4.0
 50
90.0
 51
0.0
  0
ARC
  5
4D7
  8
0
  6
DASHED
 10
654.24191177584282
 20
259.03668575239811
 30
0.0
 40
4.0
 50
90.0
 51
0.0
  0
ARC
  5
4D8
  8
0
  6
DASHED
 10
870.18262831003426
 20
259.03668575239811
 30
0.0
 40
4.0
 50
90.0
 51
0.0
  0
ARC
  5
4D9
  8
0
  6
DASHED
 10
848.18262831003426
 20
259.03668575239811
 30
0.0
 40
4.0
 50
90.0
 51
0.0
  0
LINE
  5
5F1
  8
0
 10
435.31124711815789
 20
373.4150288625674
 30
0.0
 11
435.31124711815789
 21
320.95164693288621
 31
0.0
  0
LINE
  5
5F2
  8
0
 10
460.31124711815789
 20
320.95164693288621
 30
0.0
 11
460.31124711815789
 21
373.41502886256637
 31
0.0
  0
LINE
  5
5F3
  8
0
  6
CENTER
 10
447.81124711815789
 20
379.95164693288621
 30
0.0
 11
447.81124711815789
 21
318.95164693288621
 31
0.0
1001
GENIUS_GENODEF_13
1002
{
1000
HIER
1070
     0
1002
}
1002
{
1000
MANEDIT
1070
     0
1002
}
1002
{
1000
NOSEL
1070
     0
1002
}
1002
{
1000
BEHIND
1070
     0
1002
}
1002
{
1000
OTHER
1070
     0
1002
}
1002
{
1000
REACTOR
1002
}
1001
GENIUS_GENOBJ-N-CEN_13
1002
{
1000
OWNER
1000
GEN
1002
}
  0
LINE
  5
5F4
  8
0
  6
DASHED
 10
451.21124711815798
 20
334.95164693288632
 30
0.0
 11
451.21124711815798
 21
322.94239466169728
 31
0.0
  0
LINE
  5
5F5
  8
0
  6
DASHED
 10
444.4112471181578
 20
322.94239466169728
 30
0.0
 11
444.4112471181578
 21
334.95164693288632
 31
0.0
  0
LINE
  5
5F6
  8
0
 10
435.31124711815789
 20
320.95164693288621
 30
0.0
 11
460.31124711815789
 21
320.95164693288621
 31
0.0
  0
LINE
  5
5F7
  8
0
  6
DASHED
 10
451.81124711815789
 20
322.59598450018359
 30
0.0
 11
451.81124711815789
 21
332.95164693288609
 31
0.0
  0
LINE
  5
5F8
  8
0
  6
DASHED
 10
443.81124711815789
 20
322.59598450018359
 30
0.0
 11
443.81124711815789
 21
332.95164693288609
 31
0.0
  0
LINE
  5
5F9
  8
0
  6
DASHED
 10
444.4112471181578
 20
322.94239466169722
 30
0.0
 11
451.21124711815798
 21
322.94239466169722
 31
0.0
  0
LINE
  5
5FA
  8
0
  6
DASHED
 10
443.56124711815789
 20
322.45164693288609
 30
0.0
 11
452.06124711815789
 21
322.45164693288609
 31
0.0
  0
POLYLINE
  5
5FB
  8
0
  6
DASHED
 66
     1
 10
0.0
 20
0.0
 30
0.0
  0
VERTEX
  5
87B
  8
0
  6
DASHED
 10
443.56124711815789
 20
320.95164693288632
 30
0.0
  0
VERTEX
  5
87C
  8
0
  6
DASHED
 10
443.56124711815789
 20
322.45164693288632
 30
0.0
  0
VERTEX
  5
87D
  8
0
  6
DASHED
 10
444.4112471181578
 20
322.94239466169751
 30
0.0
  0
SEQEND
  5
87E
  8
0
  6
DASHED
  0
POLYLINE
  5
5FC
  8
0
  6
DASHED
 66
     1
 10
0.0
 20
0.0
 30
0.0
  0
VERTEX
  5
87F
  8
0
  6
DASHED
 10
451.21124711815798
 20
322.94239466169751
 30
0.0
  0
VERTEX
  5
880
  8
0
  6
DASHED
 10
452.06124711815789
 20
322.45164693288632
 30
0.0
  0
VERTEX
  5
881
  8
0
  6
DASHED
 10
452.06124711815789
 20
320.95164693288632
 30
0.0
  0
SEQEND
  5
882
  8
0
  6
DASHED
  0
LINE
  5
5FD
  8
0
  6
DASHED
 10
451.81124711815789
 20
332.95164693288609
 30
0.0
 11
443.81124711815789
 21
332.95164693288609
 31
0.0
  0
ARC
  5
5FE
  8
0
 10
447.81124711815818
 20
366.4007895967718
 30
0.0
 40
20.449142663885731
 50
234.93493055366221
 51
305.06506944633401
  0
LINE
  5
5FF
  8
0
  6
DASHED
 10
444.4112471181578
 20
334.95164693288609
 30
0.0
 11
451.21124711815798
 21
334.95164693288609
 31
0.0
  0
LINE
  5
600
  8
0
  6
DASHED
 10
444.4112471181578
 20
334.95164693288632
 30
0.0
 11
447.81124711815789
 21
336.91463784813078
 31
0.0
  0
LINE
  5
601
  8
0
  6
DASHED
 10
447.81124711815789
 20
336.91463784813078
 30
0.0
 11
451.21124711815798
 21
334.95164693288632
 31
0.0
  0
ARC
  5
602
  8
0
 10
447.81124711815789
 20
352.95164693288632
 30
0.0
 40
25.0
 50
62.837111577852049
 51
117.1628884221479
1001
ACAD
1000
ASC_BOUNDS
1002
{
1070
    19
1002
}
  0
ARC
  5
603
  8
0
 10
437.31124711815789
 20
373.41502886256762
 30
0.0
 40
2.0
 50
117.1628884221479
 51
180.0
1001
ACAD
1000
ASC_BOUNDS
1002
{
1070
    19
1002
}
  0
ARC
  5
604
  8
0
 10
458.31124711815789
 20
373.41502886256762
 30
0.0
 40
2.0
 50
0.0
 51
62.837111577852049
1001
ACAD
1000
ASC_BOUNDS
1002
{
1070
    19
1002
}
  0
VIEWPORT
  5
8D
 67
     1
  8
0
 10
143.47825622558591
 20
99.980751991271987
 30
0.0
 40
339.12752973873143
 41
222.1965796813964
 68
     1
 69
     1
1001
ACAD
1000
MVIEW
1002
{
1070
    16
1010
0.0
1020
0.0
1030
0.0
1010
0.0
1020
0.0
1030
1.0
1040
0.0
1040
222.1965796813964
1040
143.47825622558591
1040
99.980751991271987
1040
50.0
1040
0.0
1040
0.0
1070
     0
1070
   100
1070
     1
1070
     1
1070
     0
1070
     0
1070
     0
1070
     0
1040
0.0
1040
0.0
1040
0.0
1040
10.0
1040
10.0
1040
10.0
1040
10.0
1070
     0
1002
{
1002
}
1002
}
  0
VIEWPORT
  5
8F
 67
     1
  8
0
 10
143.37242841720581
 20
99.874916553497314
 30
0.0
 40
229.3958854675293
 41
159.79986648559569
 68
     2
 69
     2
1001
ACAD
1000
MVIEW
1002
{
1070
    16
1010
0.0
1020
0.0
1030
0.0
1010
0.0
1020
0.0
1030
1.0
1040
0.0
1040
300.10452961672468
1040
210.0
1040
148.5
1040
50.0
1040
0.0
1040
0.0
1070
     0
1070
   100
1070
     1
1070
     2
1070
     0
1070
     0
1070
     0
1070
     0
1040
0.0
1040
0.0
1040
0.0
1040
10.0
1040
10.0
1040
10.0
1040
10.0
1070
     0
1002
{
1002
}
1002
}
  0
ENDSEC
  0
EOF
