  0
SECTION
  2
HEADER
  9
$ACADVER
  1
AC1009
  9
$INSBASE
 10
0.0
 20
0.0
 30
0.0
  9
$EXTMIN
 10
-89.492303
 20
-65.287454
 30
0.0
  9
$EXTMAX
 10
209.598998
 20
181.236577
 30
0.0
  9
$LIMMIN
 10
0.0
 20
0.0
  9
$LIMMAX
 10
12.0
 20
9.0
  9
$ORTHOMODE
 70
     1
  9
$REGENMODE
 70
     1
  9
$FILLMODE
 70
     1
  9
$QTEXTMODE
 70
     0
  9
$MIRRTEXT
 70
     1
  9
$DRAGMODE
 70
     2
  9
$LTSCALE
 40
7.0
  9
$OSMODE
 70
     0
  9
$ATTMODE
 70
     1
  9
$TEXTSIZE
 40
0.2
  9
$TRACEWID
 40
0.05
  9
$TEXTSTYLE
  7
STANDARD
  9
$CLAYER
  8
0
  9
$CELTYPE
  6
BYLAYER
  9
$CECOLOR
 62
   256
  9
$DIMSCALE
 40
1.0
  9
$DIMASZ
 40
2.5
  9
$DIMEXO
 40
0.0
  9
$DIMDLI
 40
5.0
  9
$DIMRND
 40
0.0
  9
$DIMDLE
 40
0.0
  9
$DIMEXE
 40
1.0
  9
$DIMTP
 40
0.0
  9
$DIMTM
 40
0.0
  9
$DIMTXT
 40
2.5
  9
$DIMCEN
 40
0.09
  9
$DIMTSZ
 40
0.0
  9
$DIMTOL
 70
     0
  9
$DIMLIM
 70
     0
  9
$DIMTIH
 70
     0
  9
$DIMTOH
 70
     0
  9
$DIMSE1
 70
     0
  9
$DIMSE2
 70
     0
  9
$DIMTAD
 70
     1
  9
$DIMZIN
 70
     0
  9
$DIMBLK
  1

  9
$DIMASO
 70
     0
  9
$DIMSHO
 70
     0
  9
$DIMPOST
  1

  9
$DIMAPOST
  1

  9
$DIMALT
 70
     0
  9
$DIMALTD
 70
     2
  9
$DIMALTF
 40
25.4
  9
$DIMLFAC
 40
1.0
  9
$DIMTOFL
 70
     1
  9
$DIMTVP
 40
0.0
  9
$DIMTIX
 70
     0
  9
$DIMSOXD
 70
     0
  9
$DIMSAH
 70
     0
  9
$DIMBLK1
  1

  9
$DIMBLK2
  1

  9
$DIMSTYLE
  2
*UNNAMED
  9
$DIMCLRD
 70
     0
  9
$DIMCLRE
 70
     0
  9
$DIMCLRT
 70
     0
  9
$DIMTFAC
 40
1.0
  9
$DIMGAP
 40
0.09
  9
$LUNITS
 70
     2
  9
$LUPREC
 70
     4
  9
$SKETCHINC
 40
0.1
  9
$FILLETRAD
 40
3.0
  9
$AUNITS
 70
     0
  9
$AUPREC
 70
     0
  9
$MENU
  1
wiberger
  9
$ELEVATION
 40
0.0
  9
$PELEVATION
 40
0.0
  9
$THICKNESS
 40
0.0
  9
$LIMCHECK
 70
     0
  9
$BLIPMODE
 70
     1
  9
$CHAMFERA
 40
0.0
  9
$CHAMFERB
 40
0.0
  9
$SKPOLY
 70
     0
  9
$TDCREATE
 40
2450189.358356365
  9
$TDUPDATE
 40
2450233.301907060
  9
$TDINDWG
 40
0.0386180556
  9
$TDUSRTIMER
 40
0.0386180556
  9
$USRTIMER
 70
     1
  9
$ANGBASE
 50
0.0
  9
$ANGDIR
 70
     0
  9
$PDMODE
 70
     0
  9
$PDSIZE
 40
0.0
  9
$PLINEWID
 40
0.0
  9
$COORDS
 70
     0
  9
$SPLFRAME
 70
     0
  9
$SPLINETYPE
 70
     6
  9
$SPLINESEGS
 70
     8
  9
$ATTDIA
 70
     0
  9
$ATTREQ
 70
     1
  9
$HANDLING
 70
     0
  9
$HANDSEED
  5
0
  9
$SURFTAB1
 70
     6
  9
$SURFTAB2
 70
     6
  9
$SURFTYPE
 70
     6
  9
$SURFU
 70
     6
  9
$SURFV
 70
     6
  9
$UCSNAME
  2

  9
$UCSORG
 10
0.0
 20
0.0
 30
0.0
  9
$UCSXDIR
 10
1.0
 20
0.0
 30
0.0
  9
$UCSYDIR
 10
0.0
 20
1.0
 30
0.0
  9
$PUCSNAME
  2

  9
$PUCSORG
 10
0.0
 20
0.0
 30
0.0
  9
$PUCSXDIR
 10
1.0
 20
0.0
 30
0.0
  9
$PUCSYDIR
 10
0.0
 20
1.0
 30
0.0
  9
$USERI1
 70
     0
  9
$USERI2
 70
     0
  9
$USERI3
 70
     0
  9
$USERI4
 70
     0
  9
$USERI5
 70
     0
  9
$USERR1
 40
0.0
  9
$USERR2
 40
0.0
  9
$USERR3
 40
0.0
  9
$USERR4
 40
0.0
  9
$USERR5
 40
0.0
  9
$WORLDVIEW
 70
     1
  9
$SHADEDGE
 70
     3
  9
$SHADEDIF
 70
    70
  9
$TILEMODE
 70
     1
  9
$MAXACTVP
 70
    16
  9
$PINSBASE
 10
0.0
 20
0.0
 30
0.0
  9
$PLIMCHECK
 70
     0
  9
$PEXTMIN
 10
1.000000E+20
 20
1.000000E+20
 30
1.000000E+20
  9
$PEXTMAX
 10
-1.000000E+20
 20
-1.000000E+20
 30
-1.000000E+20
  9
$PLIMMIN
 10
0.0
 20
0.0
  9
$PLIMMAX
 10
12.0
 20
9.0
  9
$UNITMODE
 70
     0
  9
$VISRETAIN
 70
     0
  9
$PLINEGEN
 70
     0
  9
$PSLTSCALE
 70
     0
  9
$TREEDEPTH
 70
  3020
  9
$DWGCODEPAGE
  3
undefined
  0
ENDSEC
  0
SECTION
  2
TABLES
  0
TABLE
  2
VPORT
 70
     2
  0
VPORT
  2
*ACTIVE
 70
     0
 10
0.0
 20
0.0
 11
1.0
 21
1.0
 12
131.217233
 22
57.974562
 13
0.0
 23
0.0
 14
1.0
 24
1.0
 15
0.0
 25
0.0
 16
0.0
 26
0.0
 36
1.0
 17
0.0
 27
0.0
 37
0.0
 40
273.91559
 41
1.767507
 42
50.0
 43
0.0
 44
0.0
 50
0.0
 51
0.0
 71
     0
 72
   100
 73
     1
 74
     0
 75
     0
 76
     0
 77
     0
 78
     0
  0
ENDTAB
  0
TABLE
  2
LTYPE
 70
     2
  0
LTYPE
  2
CONTINUOUS
 70
    64
  3
Solid line
 72
    65
 73
     0
 40
0.0
  0
LTYPE
  2
CENTER
 70
    64
  3
____ _ ____ _ ____ _ ____ _ ____ _ ____ _ ____
 72
    65
 73
     4
 40
2.0
 49
1.25
 49
-0.25
 49
0.25
 49
-0.25
  0
ENDTAB
  0
TABLE
  2
LAYER
 70
     1
  0
LAYER
  2
0
 70
    64
 62
     7
  6
CONTINUOUS
  0
ENDTAB
  0
TABLE
  2
STYLE
 70
     1
  0
STYLE
  2
STANDARD
 70
     0
 40
0.0
 41
1.0
 50
0.0
 71
     0
 42
0.2
  3
txt
  4

  0
ENDTAB
  0
TABLE
  2
VIEW
 70
     0
  0
ENDTAB
  0
TABLE
  2
UCS
 70
     0
  0
ENDTAB
  0
TABLE
  2
APPID
 70
     1
  0
APPID
  2
ACAD
 70
    64
  0
ENDTAB
  0
TABLE
  2
DIMSTYLE
 70
     0
  0
ENDTAB
  0
ENDSEC
  0
SECTION
  2
BLOCKS
  0
BLOCK
  8
0
  2
*X0
 70
    65
 10
0.0
 20
0.0
 30
0.0
  3
*X
  0
LINE
  8
0
 62
     0
 10
-77.835515
 20
48.13703
 30
0.0
 11
-78.726784
 21
49.028299
 31
0.0
  0
LINE
  8
0
 62
     0
 10
-79.701077
 20
47.881272
 30
0.0
 11
-80.534373
 21
48.714568
 31
0.0
  0
LINE
  8
0
 62
     0
 10
-81.090736
 20
47.149611
 30
0.0
 11
-81.80019
 21
47.859065
 31
0.0
  0
LINE
  8
0
 62
     0
 10
-81.559129
 20
45.496683
 30
0.0
 11
-82.492515
 21
46.43007
 31
0.0
  0
LINE
  8
0
 62
     0
 10
-81.637696
 20
43.45393
 30
0.0
 11
-82.601371
 21
44.417605
 31
0.0
  0
LINE
  8
0
 62
     0
 10
-81.716263
 20
41.411177
 30
0.0
 11
-82.679938
 21
42.374852
 31
0.0
  0
LINE
  8
0
 62
     0
 10
-81.794831
 20
39.368424
 30
0.0
 11
-82.758506
 21
40.332099
 31
0.0
  0
LINE
  8
0
 62
     0
 10
-81.873398
 20
37.325671
 30
0.0
 11
-82.837073
 21
38.289346
 31
0.0
  0
LINE
  8
0
 62
     0
 10
-75.939372
 20
48.362208
 30
0.0
 11
-76.843293
 21
49.266129
 31
0.0
  0
LINE
  8
0
 62
     0
 10
-74.011306
 20
48.555462
 30
0.0
 11
-74.928745
 21
49.472901
 31
0.0
  0
LINE
  8
0
 62
     0
 10
-72.049839
 20
48.715315
 30
0.0
 11
-72.981748
 21
49.647224
 31
0.0
  0
LINE
  8
0
 62
     0
 10
-70.053336
 20
48.840133
 30
0.0
 11
-71.000765
 21
49.787561
 31
0.0
  0
LINE
  8
0
 62
     0
 10
-68.019987
 20
48.928104
 30
0.0
 11
-68.984099
 21
49.892216
 31
0.0
  0
LINE
  8
0
 62
     0
 10
-65.947771
 20
48.977209
 30
0.0
 11
-66.929863
 21
49.9593
 31
0.0
  0
ENDBLK
  8
0
  0
BLOCK
  8
0
  2
*X1
 70
    65
 10
0.0
 20
0.0
 30
0.0
  3
*X
  0
LINE
  8
0
 62
     0
 10
25.421125
 20
50.946407
 30
0.0
 11
24.599248
 21
51.768285
 31
0.0
  0
LINE
  8
0
 62
     0
 10
23.984331
 20
50.261881
 30
0.0
 11
23.276645
 21
50.969567
 31
0.0
  0
LINE
  8
0
 62
     0
 10
23.180064
 20
48.944827
 30
0.0
 11
22.39774
 21
49.727151
 31
0.0
  0
LINE
  8
0
 62
     0
 10
23.034477
 20
46.969094
 30
0.0
 11
22.070802
 21
47.932769
 31
0.0
  0
LINE
  8
0
 62
     0
 10
22.95591
 20
44.926341
 30
0.0
 11
21.992235
 21
45.890016
 31
0.0
  0
LINE
  8
0
 62
     0
 10
22.877342
 20
42.883588
 30
0.0
 11
21.913667
 21
43.847263
 31
0.0
  0
LINE
  8
0
 62
     0
 10
22.798775
 20
40.840835
 30
0.0
 11
21.8351
 21
41.80451
 31
0.0
  0
LINE
  8
0
 62
     0
 10
22.720207
 20
38.798083
 30
0.0
 11
21.756532
 21
39.761757
 31
0.0
  0
LINE
  8
0
 62
     0
 10
22.294156
 20
37.102813
 30
0.0
 11
21.677965
 21
37.719005
 31
0.0
  0
LINE
  8
0
 62
     0
 10
27.281451
 20
51.207401
 30
0.0
 11
26.393083
 21
52.09577
 31
0.0
  0
LINE
  8
0
 62
     0
 10
29.165808
 20
51.444365
 30
0.0
 11
28.267549
 21
52.342624
 31
0.0
  0
LINE
  8
0
 62
     0
 10
31.075123
 20
51.65637
 30
0.0
 11
30.166443
 21
52.565051
 31
0.0
  0
LINE
  8
0
 62
     0
 10
33.010288
 20
51.842526
 30
0.0
 11
32.090614
 21
52.7622
 31
0.0
  0
LINE
  8
0
 62
     0
 10
34.972264
 20
52.00187
 30
0.0
 11
34.04098
 21
52.933154
 31
0.0
  0
LINE
  8
0
 62
     0
 10
36.962095
 20
52.13336
 30
0.0
 11
36.018533
 21
53.076922
 31
0.0
  0
LINE
  8
0
 62
     0
 10
38.980912
 20
52.235863
 30
0.0
 11
38.024347
 21
53.192427
 31
0.0
  0
LINE
  8
0
 62
     0
 10
41.029948
 20
52.308147
 30
0.0
 11
40.059593
 21
53.278502
 31
0.0
  0
LINE
  8
0
 62
     0
 10
43.110549
 20
52.348866
 30
0.0
 11
42.125543
 21
53.333873
 31
0.0
  0
ENDBLK
  8
0
  0
BLOCK
  8
0
  2
*X2
 70
    65
 10
0.0
 20
0.0
 30
0.0
  3
*X
  0
LINE
  8
0
 62
     0
 10
-15.521068
 20
-65.089105
 30
0.0
 11
-16.407895
 21
-64.202278
 31
0.0
  0
LINE
  8
0
 62
     0
 10
-17.378147
 20
-65.353347
 30
0.0
 11
-18.201494
 21
-64.53
 31
0.0
  0
LINE
  8
0
 62
     0
 10
-18.867998
 20
-65.984816
 30
0.0
 11
-19.581431
 21
-65.271382
 31
0.0
  0
LINE
  8
0
 62
     0
 10
-19.859407
 20
-67.114727
 30
0.0
 11
-20.588784
 21
-66.38535
 31
0.0
  0
LINE
  8
0
 62
     0
 10
-20.296599
 20
-68.798855
 30
0.0
 11
-21.201234
 21
-67.89422
 31
0.0
  0
LINE
  8
0
 62
     0
 10
-20.375167
 20
-70.841608
 30
0.0
 11
-21.338842
 21
-69.877933
 31
0.0
  0
LINE
  8
0
 62
     0
 10
-20.453734
 20
-72.884361
 30
0.0
 11
-21.417409
 21
-71.920686
 31
0.0
  0
LINE
  8
0
 62
     0
 10
-20.532302
 20
-74.927114
 30
0.0
 11
-21.495977
 21
-73.963439
 31
0.0
  0
LINE
  8
0
 62
     0
 10
-20.610869
 20
-76.969867
 30
0.0
 11
-21.574544
 21
-76.006192
 31
0.0
  0
LINE
  8
0
 62
     0
 10
-20.689436
 20
-79.01262
 30
0.0
 11
-21.653111
 21
-78.048945
 31
0.0
  0
LINE
  8
0
 62
     0
 10
-20.768004
 20
-81.055373
 30
0.0
 11
-21.731679
 21
-80.091698
 31
0.0
  0
LINE
  8
0
 62
     0
 10
-21.790519
 20
-82.154178
 30
0.0
 11
-21.810246
 21
-82.134451
 31
0.0
  0
LINE
  8
0
 62
     0
 10
-13.643513
 20
-64.84534
 30
0.0
 11
-14.538472
 21
-63.95038
 31
0.0
  0
LINE
  8
0
 62
     0
 10
-11.745441
 20
-64.622092
 30
0.0
 11
-12.648893
 21
-63.718639
 31
0.0
  0
LINE
  8
0
 62
     0
 10
-9.826256
 20
-64.419956
 30
0.0
 11
-10.738583
 21
-63.507629
 31
0.0
  0
LINE
  8
0
 62
     0
 10
-7.885323
 20
-64.239569
 30
0.0
 11
-8.806932
 21
-63.31796
 31
0.0
  0
LINE
  8
0
 62
     0
 10
-5.921963
 20
-64.081608
 30
0.0
 11
-6.853288
 21
-63.150284
 31
0.0
  0
LINE
  8
0
 62
     0
 10
-3.935453
 20
-63.946798
 30
0.0
 11
-4.876956
 21
-63.005295
 31
0.0
  0
LINE
  8
0
 62
     0
 10
-1.925016
 20
-63.835915
 30
0.0
 11
-2.877192
 21
-62.883739
 31
0.0
  0
LINE
  8
0
 62
     0
 10
0.110182
 20
-63.749793
 30
0.0
 11
-0.853199
 21
-62.786411
 31
0.0
  0
LINE
  8
0
 62
     0
 10
2.171036
 20
-63.689326
 30
0.0
 11
1.195878
 21
-62.714168
 31
0.0
  0
LINE
  8
0
 62
     0
 10
4.258509
 20
-63.655478
 30
0.0
 11
3.270961
 21
-62.66793
 31
0.0
  0
ENDBLK
  8
0
  0
BLOCK
  8
0
  2
*X3
 70
    65
 10
0.0
 20
0.0
 30
0.0
  3
*X
  0
LINE
  8
0
 62
     0
 10
-72.415947
 20
5.365799
 30
0.0
 11
-68.815947
 21
8.965799
 31
0.0
  0
LINE
  8
0
 62
     0
 10
-72.415947
 20
7.133566
 30
0.0
 11
-68.815947
 21
10.733566
 31
0.0
  0
LINE
  8
0
 62
     0
 10
-72.415947
 20
8.901333
 30
0.0
 11
-68.815947
 21
12.501333
 31
0.0
  0
LINE
  8
0
 62
     0
 10
-72.415947
 20
10.6691
 30
0.0
 11
-68.815947
 21
14.2691
 31
0.0
  0
LINE
  8
0
 62
     0
 10
-72.415947
 20
12.436867
 30
0.0
 11
-68.815947
 21
16.036867
 31
0.0
  0
LINE
  8
0
 62
     0
 10
-66.057803
 20
18.795011
 30
0.0
 11
-65.415947
 21
19.436867
 31
0.0
  0
LINE
  8
0
 62
     0
 10
-72.415947
 20
14.204634
 30
0.0
 11
-65.418042
 21
21.202539
 31
0.0
  0
LINE
  8
0
 62
     0
 10
-72.415947
 20
15.972401
 30
0.0
 11
-67.217025
 21
21.171323
 31
0.0
  0
LINE
  8
0
 62
     0
 10
-72.415947
 20
17.740168
 30
0.0
 11
-69.048227
 21
21.107887
 31
0.0
  0
LINE
  8
0
 62
     0
 10
-72.415947
 20
19.507935
 30
0.0
 11
-70.913509
 21
21.010372
 31
0.0
  0
LINE
  8
0
 62
     0
 10
-72.415947
 20
3.598032
 30
0.0
 11
-68.815947
 21
7.198032
 31
0.0
  0
LINE
  8
0
 62
     0
 10
-72.415947
 20
1.830265
 30
0.0
 11
-68.815947
 21
5.430265
 31
0.0
  0
LINE
  8
0
 62
     0
 10
-72.415947
 20
0.062498
 30
0.0
 11
-68.815947
 21
3.662498
 31
0.0
  0
LINE
  8
0
 62
     0
 10
-72.415947
 20
-1.705269
 30
0.0
 11
-68.815947
 21
1.894731
 31
0.0
  0
LINE
  8
0
 62
     0
 10
-71.740316
 20
-2.797404
 30
0.0
 11
-68.815947
 21
0.126964
 31
0.0
  0
LINE
  8
0
 62
     0
 10
-69.972549
 20
-2.797404
 30
0.0
 11
-68.815947
 21
-1.640803
 31
0.0
  0
ENDBLK
  8
0
  0
BLOCK
  8
0
  2
*X4
 70
    65
 10
0.0
 20
0.0
 30
0.0
  3
*X
  0
LINE
  8
0
 62
     0
 10
13.1297
 20
13.1297
 30
0.0
 11
17.8797
 21
17.8797
 31
0.0
  0
LINE
  8
0
 62
     0
 10
13.1297
 20
15.78135
 30
0.0
 11
17.8797
 21
20.53135
 31
0.0
  0
LINE
  8
0
 62
     0
 10
13.1297
 20
18.433001
 30
0.0
 11
17.8797
 21
23.183001
 31
0.0
  0
LINE
  8
0
 62
     0
 10
13.1297
 20
21.084651
 30
0.0
 11
17.8797
 21
25.834651
 31
0.0
  0
LINE
  8
0
 62
     0
 10
13.1297
 20
23.736302
 30
0.0
 11
22.1297
 21
32.736302
 31
0.0
  0
LINE
  8
0
 62
     0
 10
13.1297
 20
26.387952
 30
0.0
 11
20.866253
 21
34.124505
 31
0.0
  0
LINE
  8
0
 62
     0
 10
13.1297
 20
29.039603
 30
0.0
 11
18.136147
 21
34.046049
 31
0.0
  0
LINE
  8
0
 62
     0
 10
13.1297
 20
31.691253
 30
0.0
 11
15.345642
 21
33.907195
 31
0.0
  0
LINE
  8
0
 62
     0
 10
13.1297
 20
10.47805
 30
0.0
 11
17.8797
 21
15.22805
 31
0.0
  0
LINE
  8
0
 62
     0
 10
13.1297
 20
7.826399
 30
0.0
 11
17.8797
 21
12.576399
 31
0.0
  0
LINE
  8
0
 62
     0
 10
13.1297
 20
5.174749
 30
0.0
 11
17.8797
 21
9.924749
 31
0.0
  0
LINE
  8
0
 62
     0
 10
13.74827
 20
3.141668
 30
0.0
 11
17.8797
 21
7.273098
 31
0.0
  0
LINE
  8
0
 62
     0
 10
16.39992
 20
3.141668
 30
0.0
 11
17.8797
 21
4.621448
 31
0.0
  0
ENDBLK
  8
0
  0
BLOCK
  8
0
  2
*X5
 70
    65
 10
0.0
 20
0.0
 30
0.0
  3
*X
  0
LINE
  8
0
 62
     0
 10
120.11424
 20
24.654824
 30
0.0
 11
125.01424
 21
29.554824
 31
0.0
  0
LINE
  8
0
 62
     0
 10
120.11424
 20
27.306475
 30
0.0
 11
125.01424
 21
32.206475
 31
0.0
  0
LINE
  8
0
 62
     0
 10
120.11424
 20
29.958125
 30
0.0
 11
125.01424
 21
34.858125
 31
0.0
  0
LINE
  8
0
 62
     0
 10
120.11424
 20
32.609775
 30
0.0
 11
125.01424
 21
37.509775
 31
0.0
  0
LINE
  8
0
 62
     0
 10
129.914196
 20
42.409732
 30
0.0
 11
130.11424
 21
42.609775
 31
0.0
  0
LINE
  8
0
 62
     0
 10
120.11424
 20
35.261426
 30
0.0
 11
130.11424
 21
45.261426
 31
0.0
  0
LINE
  8
0
 62
     0
 10
120.11424
 20
37.913076
 30
0.0
 11
129.272263
 21
47.0711
 31
0.0
  0
LINE
  8
0
 62
     0
 10
120.11424
 20
40.564727
 30
0.0
 11
126.559158
 21
47.009645
 31
0.0
  0
LINE
  8
0
 62
     0
 10
120.11424
 20
43.216377
 30
0.0
 11
123.797055
 21
46.899192
 31
0.0
  0
LINE
  8
0
 62
     0
 10
120.11424
 20
45.868028
 30
0.0
 11
120.983087
 21
46.736875
 31
0.0
  0
LINE
  8
0
 62
     0
 10
120.11424
 20
22.003174
 30
0.0
 11
125.01424
 21
26.903174
 31
0.0
  0
LINE
  8
0
 62
     0
 10
120.11424
 20
19.351523
 30
0.0
 11
125.01424
 21
24.251523
 31
0.0
  0
LINE
  8
0
 62
     0
 10
120.11424
 20
16.699873
 30
0.0
 11
125.01424
 21
21.599873
 31
0.0
  0
LINE
  8
0
 62
     0
 10
120.11424
 20
14.048222
 30
0.0
 11
125.01424
 21
18.948222
 31
0.0
  0
LINE
  8
0
 62
     0
 10
120.11424
 20
11.396572
 30
0.0
 11
125.01424
 21
16.296572
 31
0.0
  0
LINE
  8
0
 62
     0
 10
120.11424
 20
8.744922
 30
0.0
 11
125.01424
 21
13.644922
 31
0.0
  0
LINE
  8
0
 62
     0
 10
122.601709
 20
8.580741
 30
0.0
 11
125.01424
 21
10.993271
 31
0.0
  0
ENDBLK
  8
0
  0
BLOCK
  8
0
  2
*X6
 70
    65
 10
0.0
 20
0.0
 30
0.0
  3
*X
  0
LINE
  8
0
 62
     0
 10
-75.830388
 20
51.448833
 30
0.0
 11
-72.830388
 21
54.448833
 31
0.0
  0
LINE
  8
0
 62
     0
 10
-75.830388
 20
53.2166
 30
0.0
 11
-72.830388
 21
56.2166
 31
0.0
  0
LINE
  8
0
 62
     0
 10
-75.830388
 20
54.984367
 30
0.0
 11
-72.830388
 21
57.984367
 31
0.0
  0
LINE
  8
0
 62
     0
 10
-72.162963
 20
58.651791
 30
0.0
 11
-68.830388
 21
61.984367
 31
0.0
  0
LINE
  8
0
 62
     0
 10
-75.830388
 20
56.752134
 30
0.0
 11
-68.830388
 21
63.752134
 31
0.0
  0
LINE
  8
0
 62
     0
 10
-75.830388
 20
58.519901
 30
0.0
 11
-68.830388
 21
65.519901
 31
0.0
  0
LINE
  8
0
 62
     0
 10
-75.830388
 20
60.287668
 30
0.0
 11
-68.85183
 21
67.266225
 31
0.0
  0
LINE
  8
0
 62
     0
 10
-75.830388
 20
62.055435
 30
0.0
 11
-70.651153
 21
67.234669
 31
0.0
  0
LINE
  8
0
 62
     0
 10
-75.830388
 20
63.823202
 30
0.0
 11
-72.482715
 21
67.170874
 31
0.0
  0
LINE
  8
0
 62
     0
 10
-75.830388
 20
65.590969
 30
0.0
 11
-74.348378
 21
67.072978
 31
0.0
  0
LINE
  8
0
 62
     0
 10
-75.830388
 20
49.681066
 30
0.0
 11
-72.830388
 21
52.681066
 31
0.0
  0
LINE
  8
0
 62
     0
 10
-75.830388
 20
47.913299
 30
0.0
 11
-72.830388
 21
50.913299
 31
0.0
  0
LINE
  8
0
 62
     0
 10
-75.830388
 20
46.145532
 30
0.0
 11
-72.830388
 21
49.145532
 31
0.0
  0
LINE
  8
0
 62
     0
 10
-75.830388
 20
44.377765
 30
0.0
 11
-72.830388
 21
47.377765
 31
0.0
  0
LINE
  8
0
 62
     0
 10
-75.173932
 20
43.266454
 30
0.0
 11
-72.830388
 21
45.609998
 31
0.0
  0
LINE
  8
0
 62
     0
 10
-73.406165
 20
43.266454
 30
0.0
 11
-72.830388
 21
43.842231
 31
0.0
  0
ENDBLK
  8
0
  0
BLOCK
  8
0
  2
*X7
 70
    65
 10
0.0
 20
0.0
 30
0.0
  3
*X
  0
LINE
  8
0
 62
     0
 10
13.1297
 20
66.162709
 30
0.0
 11
17.1297
 21
70.162709
 31
0.0
  0
LINE
  8
0
 62
     0
 10
13.1297
 20
68.814359
 30
0.0
 11
17.1297
 21
72.814359
 31
0.0
  0
LINE
  8
0
 62
     0
 10
13.1297
 20
71.466009
 30
0.0
 11
17.1297
 21
75.466009
 31
0.0
  0
LINE
  8
0
 62
     0
 10
17.768197
 20
76.104507
 30
0.0
 11
22.1297
 21
80.466009
 31
0.0
  0
LINE
  8
0
 62
     0
 10
13.1297
 20
74.11766
 30
0.0
 11
22.1297
 21
83.11766
 31
0.0
  0
LINE
  8
0
 62
     0
 10
13.1297
 20
76.76931
 30
0.0
 11
22.1297
 21
85.76931
 31
0.0
  0
LINE
  8
0
 62
     0
 10
13.1297
 20
79.420961
 30
0.0
 11
22.1297
 21
88.420961
 31
0.0
  0
LINE
  8
0
 62
     0
 10
13.1297
 20
82.072611
 30
0.0
 11
19.750585
 21
88.693496
 31
0.0
  0
LINE
  8
0
 62
     0
 10
13.1297
 20
84.724262
 30
0.0
 11
16.996137
 21
88.590699
 31
0.0
  0
LINE
  8
0
 62
     0
 10
13.1297
 20
87.375912
 30
0.0
 11
14.179549
 21
88.425761
 31
0.0
  0
LINE
  8
0
 62
     0
 10
13.1297
 20
63.511058
 30
0.0
 11
17.1297
 21
67.511058
 31
0.0
  0
LINE
  8
0
 62
     0
 10
13.1297
 20
60.859408
 30
0.0
 11
17.1297
 21
64.859408
 31
0.0
  0
LINE
  8
0
 62
     0
 10
13.1297
 20
58.207757
 30
0.0
 11
17.1297
 21
62.207757
 31
0.0
  0
LINE
  8
0
 62
     0
 10
15.309463
 20
57.73587
 30
0.0
 11
17.1297
 21
59.556107
 31
0.0
  0
ENDBLK
  8
0
  0
BLOCK
  8
0
  2
*X8
 70
    65
 10
0.0
 20
0.0
 30
0.0
  3
*X
  0
LINE
  8
0
 62
     0
 10
120.11424
 20
88.294435
 30
0.0
 11
124.11424
 21
92.294435
 31
0.0
  0
LINE
  8
0
 62
     0
 10
120.11424
 20
90.946085
 30
0.0
 11
130.11424
 21
100.946085
 31
0.0
  0
LINE
  8
0
 62
     0
 10
120.11424
 20
93.597735
 30
0.0
 11
130.11424
 21
103.597735
 31
0.0
  0
LINE
  8
0
 62
     0
 10
120.11424
 20
96.249386
 30
0.0
 11
130.11424
 21
106.249386
 31
0.0
  0
LINE
  8
0
 62
     0
 10
120.11424
 20
98.901036
 30
0.0
 11
130.11424
 21
108.901036
 31
0.0
  0
LINE
  8
0
 62
     0
 10
120.11424
 20
101.552687
 30
0.0
 11
129.902185
 21
111.340632
 31
0.0
  0
LINE
  8
0
 62
     0
 10
120.11424
 20
104.204337
 30
0.0
 11
127.200197
 21
111.290294
 31
0.0
  0
LINE
  8
0
 62
     0
 10
120.11424
 20
106.855988
 30
0.0
 11
124.449839
 21
111.191587
 31
0.0
  0
LINE
  8
0
 62
     0
 10
120.11424
 20
109.507638
 30
0.0
 11
121.648318
 21
111.041716
 31
0.0
  0
LINE
  8
0
 62
     0
 10
120.11424
 20
85.642784
 30
0.0
 11
124.11424
 21
89.642784
 31
0.0
  0
LINE
  8
0
 62
     0
 10
120.11424
 20
82.991134
 30
0.0
 11
124.11424
 21
86.991134
 31
0.0
  0
LINE
  8
0
 62
     0
 10
120.11424
 20
80.339483
 30
0.0
 11
124.11424
 21
84.339483
 31
0.0
  0
LINE
  8
0
 62
     0
 10
120.11424
 20
77.687833
 30
0.0
 11
124.11424
 21
81.687833
 31
0.0
  0
LINE
  8
0
 62
     0
 10
120.11424
 20
75.036182
 30
0.0
 11
124.11424
 21
79.036182
 31
0.0
  0
LINE
  8
0
 62
     0
 10
120.572374
 20
72.842666
 30
0.0
 11
124.11424
 21
76.384532
 31
0.0
  0
LINE
  8
0
 62
     0
 10
123.224025
 20
72.842666
 30
0.0
 11
124.11424
 21
73.732881
 31
0.0
  0
ENDBLK
  8
0
  0
ENDSEC
  0
SECTION
  2
ENTITIES
  0
ARC
  8
0
 10
-68.830388
 20
-15.553695
 30
0.0
 40
6.0
 50
27.75482
 51
152.24518
  0
ARC
  8
0
 10
-52.802044
 20
-7.492572
 30
0.0
 40
11.942809
 50
206.168824
 51
261.831176
  0
ARC
  8
0
 10
-42.895983
 20
-37.980294
 30
0.0
 40
11.942809
 50
134.168824
 51
189.831176
  0
ARC
  8
0
 10
-55.515596
 20
-25.227457
 30
0.0
 40
6.0
 50
315.75482
 51
80.24518
  0
ARC
  8
0
 10
-68.830388
 20
-56.822742
 30
0.0
 40
11.942809
 50
62.168824
 51
117.831176
  0
ARC
  8
0
 10
-60.601394
 20
-40.879932
 30
0.0
 40
6.0
 50
243.75482
 51
8.24518
  0
ARC
  8
0
 10
-94.764793
 20
-37.980294
 30
0.0
 40
11.942809
 50
350.168824
 51
45.831176
  0
ARC
  8
0
 10
-77.059381
 20
-40.879932
 30
0.0
 40
6.0
 50
171.75482
 51
296.24518
  0
ARC
  8
0
 10
-84.858731
 20
-7.492572
 30
0.0
 40
11.942809
 50
278.168824
 51
333.831176
  0
ARC
  8
0
 10
-82.145179
 20
-25.227457
 30
0.0
 40
6.0
 50
99.75482
 51
224.24518
  0
ARC
  8
0
 10
-55.515596
 20
-25.227457
 30
0.0
 40
5.5
 50
315.75482
 51
80.24518
  0
ARC
  8
0
 10
-52.802044
 20
-7.492572
 30
0.0
 40
12.442809
 50
206.168824
 51
261.831176
  0
ARC
  8
0
 10
-68.830388
 20
-15.553695
 30
0.0
 40
5.5
 50
27.75482
 51
152.24518
  0
ARC
  8
0
 10
-84.858731
 20
-7.492572
 30
0.0
 40
12.442809
 50
278.168824
 51
333.831176
  0
ARC
  8
0
 10
-82.145179
 20
-25.227457
 30
0.0
 40
5.5
 50
99.75482
 51
224.24518
  0
ARC
  8
0
 10
-94.764793
 20
-37.980294
 30
0.0
 40
12.442809
 50
350.168824
 51
45.831176
  0
ARC
  8
0
 10
-77.059381
 20
-40.879932
 30
0.0
 40
5.5
 50
171.75482
 51
296.24518
  0
ARC
  8
0
 10
-68.830388
 20
-56.822742
 30
0.0
 40
12.442809
 50
62.168824
 51
117.831176
  0
ARC
  8
0
 10
-60.601394
 20
-40.879932
 30
0.0
 40
5.5
 50
243.75482
 51
8.24518
  0
ARC
  8
0
 10
-42.895983
 20
-37.980294
 30
0.0
 40
12.442809
 50
134.168824
 51
189.831176
  0
LINE
  8
0
 10
-75.830388
 20
-2.797404
 30
0.0
 11
-61.830388
 21
-2.797404
 31
0.0
  0
LINE
  8
0
 10
-88.145179
 20
9.202596
 30
0.0
 11
-75.830388
 21
9.202596
 31
0.0
  0
LINE
  8
0
 10
-75.830388
 20
-2.797404
 30
0.0
 11
-75.830388
 21
20.907622
 31
0.0
  0
LINE
  8
0
 10
-61.830388
 20
-2.797404
 30
0.0
 11
-61.830388
 21
9.202596
 31
0.0
  0
LINE
  8
0
 10
-49.515596
 20
9.202596
 30
0.0
 11
-49.862336
 21
18.217818
 31
0.0
  0
ARC
  8
0
 10
-52.860119
 20
18.102519
 30
0.0
 40
3.0
 50
2.202598
 51
82.119063
  0
LINE
  8
0
 10
-86.301748
 20
9.202596
 30
0.0
 11
-85.955009
 21
18.217818
 31
0.0
  0
ARC
  8
0
 10
-82.957225
 20
18.102519
 30
0.0
 40
3.0
 50
97.880937
 51
177.797402
  0
ARC
  8
0
 10
-67.908672
 20
-83.890025
 30
0.0
 40
106.096624
 50
90.497764
 51
98.378701
  0
ARC
  8
0
 10
-67.908672
 20
-83.890025
 30
0.0
 40
106.096624
 50
81.621299
 51
90.497764
  0
LINE
  8
0
 10
-85.302487
 20
9.164163
 30
0.0
 11
-84.955748
 21
18.179385
 31
0.0
  0
ARC
  8
0
 10
-82.957225
 20
18.102519
 30
0.0
 40
2.0
 50
97.880937
 51
177.797402
  0
ARC
  8
0
 10
-67.908672
 20
-83.890025
 30
0.0
 40
105.096624
 50
90.497764
 51
98.378701
  0
LINE
  8
0
 10
-68.830388
 20
9.202596
 30
0.0
 11
-49.515596
 21
9.202596
 31
0.0
  0
LINE
  8
0
 10
-72.830388
 20
-2.797404
 30
0.0
 11
-72.830388
 21
15.202596
 31
0.0
  0
LINE
  8
0
 10
-72.230388
 20
-2.197404
 30
0.0
 11
-72.230388
 21
17.202596
 31
0.0
  0
LINE
  8
0
 10
-72.830388
 20
15.202596
 30
0.0
 11
-68.830388
 21
15.202596
 31
0.0
  0
LINE
  8
0
 10
-72.230388
 20
17.202596
 30
0.0
 11
-68.830388
 21
19.165587
 31
0.0
  0
LINE
  8
0
  6
CENTER
 10
-68.830388
 20
-4.08242
 30
0.0
 11
-68.830388
 21
24.29389
 31
0.0
  0
INSERT
  8
0
  2
*X0
 10
-3.414441
 20
-27.780661
 30
0.0
  0
LINE
  8
0
 10
-19.316675
 20
-28.088432
 30
0.0
 11
-28.092637
 21
-28.088432
 31
0.0
  0
LINE
  8
0
 10
-28.848716
 20
-29.553695
 30
0.0
 11
-28.848716
 21
-46.879932
 31
0.0
  0
ARC
  8
0
 10
-19.948793
 20
-43.53541
 30
0.0
 40
3.0
 50
272.202598
 51
352.119063
  0
LINE
  8
0
 10
-28.848716
 20
-46.879932
 30
0.0
 11
-19.833493
 21
-46.533193
 31
0.0
  0
LINE
  8
0
 10
-40.848716
 20
-36.553695
 30
0.0
 11
-28.848716
 21
-36.553695
 31
0.0
  0
LINE
  8
0
 10
-40.848716
 20
-36.553695
 30
0.0
 11
-40.848716
 21
-22.553695
 31
0.0
  0
LINE
  8
0
 10
-40.848716
 20
-22.553695
 30
0.0
 11
-28.848716
 21
-22.553695
 31
0.0
  0
LINE
  8
0
 10
-28.848716
 20
-9.553695
 30
0.0
 11
-19.833493
 21
-9.900434
 31
0.0
  0
ARC
  8
0
 10
-19.948793
 20
-12.898217
 30
0.0
 40
3.0
 50
7.880937
 51
87.797402
  0
LINE
  8
0
 10
-28.848716
 20
-29.553695
 30
0.0
 11
-28.848716
 21
-9.553695
 31
0.0
  0
ARC
  8
0
 10
-125.257907
 20
-28.216814
 30
0.0
 40
109.417358
 50
351.734466
 51
8.265534
  0
LINE
  8
0
 10
-19.316675
 20
-22.452029
 30
0.0
 11
-28.092637
 21
-22.452029
 31
0.0
  0
LINE
  8
0
 10
-19.316675
 20
-41.72066
 30
0.0
 11
-28.092637
 21
-41.72066
 31
0.0
  0
ARC
  8
0
 10
-35.905193
 20
-34.629091
 30
0.0
 40
18.556558
 50
341.811503
 51
18.188497
  0
ARC
  8
0
 10
-35.03428
 20
-16.69264
 30
0.0
 40
17.416679
 50
343.421261
 51
16.578739
  0
ARC
  8
0
 10
64.374835
 20
-13.477376
 30
0.0
 40
21.770849
 50
343.421261
 51
16.578739
  0
ARC
  8
0
 10
63.286193
 20
-35.89794
 30
0.0
 40
23.195698
 50
341.811503
 51
18.188497
  0
LINE
  8
0
 10
84.02184
 20
-44.762401
 30
0.0
 11
73.051889
 21
-44.762401
 31
0.0
  0
LINE
  8
0
 10
84.02184
 20
-20.676613
 30
0.0
 11
73.051889
 21
-20.676613
 31
0.0
  0
ARC
  8
0
 10
-48.404699
 20
-27.882593
 30
0.0
 40
136.771697
 50
351.734466
 51
8.265534
  0
LINE
  8
0
 10
72.106789
 20
-29.553695
 30
0.0
 11
72.106789
 21
-4.553695
 31
0.0
  0
ARC
  8
0
 10
83.231694
 20
-8.734348
 30
0.0
 40
3.75
 50
7.880937
 51
87.797402
  0
LINE
  8
0
 10
72.106789
 20
-4.553695
 30
0.0
 11
83.375818
 21
-4.987119
 31
0.0
  0
LINE
  8
0
 10
56.356789
 20
-20.553695
 30
0.0
 11
72.106789
 21
-20.553695
 31
0.0
  0
LINE
  8
0
 10
56.356789
 20
-38.553695
 30
0.0
 11
56.356789
 21
-20.553695
 31
0.0
  0
LINE
  8
0
 10
56.356789
 20
-38.553695
 30
0.0
 11
72.106789
 21
-38.553695
 31
0.0
  0
LINE
  8
0
 10
72.106789
 20
-51.211492
 30
0.0
 11
83.375818
 21
-50.778068
 31
0.0
  0
ARC
  8
0
 10
83.231694
 20
-47.030838
 30
0.0
 40
3.75
 50
272.202598
 51
352.119063
  0
LINE
  8
0
 10
72.106789
 20
-29.553695
 30
0.0
 11
72.106789
 21
-51.211492
 31
0.0
  0
LINE
  8
0
 10
84.02184
 20
-27.722116
 30
0.0
 11
73.051889
 21
-27.722116
 31
0.0
  0
LINE
  8
0
  6
CENTER
 10
22.1297
 20
1.535399
 30
0.0
 11
22.1297
 21
37.755786
 31
0.0
  0
LINE
  8
0
 10
17.8797
 20
27.641668
 30
0.0
 11
22.1297
 21
30.095407
 31
0.0
  0
LINE
  8
0
 10
17.1297
 20
25.141668
 30
0.0
 11
22.1297
 21
25.141668
 31
0.0
  0
LINE
  8
0
 10
17.8797
 20
3.891668
 30
0.0
 11
17.8797
 21
27.641668
 31
0.0
  0
LINE
  8
0
 10
17.1297
 20
3.141668
 30
0.0
 11
17.1297
 21
25.141668
 31
0.0
  0
LINE
  8
0
 10
22.1297
 20
18.891668
 30
0.0
 11
46.273189
 21
18.891668
 31
0.0
  0
ARC
  8
0
 10
23.281844
 20
-97.474108
 30
0.0
 40
132.620781
 50
81.621299
 51
90.497764
  0
ARC
  8
0
 10
23.281844
 20
-97.474108
 30
0.0
 40
132.620781
 50
90.497764
 51
98.378701
  0
ARC
  8
0
 10
4.471153
 20
30.016572
 30
0.0
 40
3.75
 50
97.880937
 51
177.797402
  0
LINE
  8
0
 10
0.290499
 20
18.891668
 30
0.0
 11
0.723924
 21
30.160697
 31
0.0
  0
ARC
  8
0
 10
42.092535
 20
30.016572
 30
0.0
 40
3.75
 50
2.202598
 51
82.119063
  0
LINE
  8
0
 10
46.273189
 20
18.891668
 30
0.0
 11
45.839765
 21
30.160697
 31
0.0
  0
LINE
  8
0
 10
31.1297
 20
3.141668
 30
0.0
 11
31.1297
 21
18.891668
 31
0.0
  0
LINE
  8
0
 10
13.1297
 20
3.141668
 30
0.0
 11
13.1297
 21
33.754562
 31
0.0
  0
LINE
  8
0
 10
-2.013789
 20
18.891668
 30
0.0
 11
13.1297
 21
18.891668
 31
0.0
  0
LINE
  8
0
 10
13.1297
 20
3.141668
 30
0.0
 11
31.1297
 21
3.141668
 31
0.0
  0
ARC
  8
0
 10
54.547706
 20
-40.086943
 30
0.0
 40
15.553511
 50
134.168824
 51
189.831176
  0
ARC
  8
0
 10
32.415942
 20
-43.711492
 30
0.0
 40
6.875
 50
243.75482
 51
8.24518
  0
ARC
  8
0
 10
22.1297
 20
-63.640003
 30
0.0
 40
15.553511
 50
62.168824
 51
117.831176
  0
ARC
  8
0
 10
11.843458
 20
-43.711492
 30
0.0
 40
6.875
 50
171.75482
 51
296.24518
  0
ARC
  8
0
 10
-10.288306
 20
-40.086943
 30
0.0
 40
15.553511
 50
350.168824
 51
45.831176
  0
ARC
  8
0
 10
5.486211
 20
-24.145897
 30
0.0
 40
6.875
 50
99.75482
 51
224.24518
  0
ARC
  8
0
 10
2.09427
 20
-1.977291
 30
0.0
 40
15.553511
 50
278.168824
 51
333.831176
  0
ARC
  8
0
 10
22.1297
 20
-12.053695
 30
0.0
 40
6.875
 50
27.75482
 51
152.24518
  0
ARC
  8
0
 10
42.16513
 20
-1.977291
 30
0.0
 40
15.553511
 50
206.168824
 51
261.831176
  0
ARC
  8
0
 10
38.773189
 20
-24.145897
 30
0.0
 40
6.875
 50
315.75482
 51
80.24518
  0
ARC
  8
0
 10
5.486211
 20
-24.145897
 30
0.0
 40
7.5
 50
99.75482
 51
224.24518
  0
ARC
  8
0
 10
2.09427
 20
-1.977291
 30
0.0
 40
14.928511
 50
278.168824
 51
333.831176
  0
ARC
  8
0
 10
11.843458
 20
-43.711492
 30
0.0
 40
7.5
 50
171.75482
 51
296.24518
  0
ARC
  8
0
 10
-10.288306
 20
-40.086943
 30
0.0
 40
14.928511
 50
350.168824
 51
45.831176
  0
ARC
  8
0
 10
32.415942
 20
-43.711492
 30
0.0
 40
7.5
 50
243.75482
 51
8.24518
  0
ARC
  8
0
 10
22.1297
 20
-63.640003
 30
0.0
 40
14.928511
 50
62.168824
 51
117.831176
  0
ARC
  8
0
 10
38.773189
 20
-24.145897
 30
0.0
 40
7.5
 50
315.75482
 51
80.24518
  0
ARC
  8
0
 10
54.547706
 20
-40.086943
 30
0.0
 40
14.928511
 50
134.168824
 51
189.831176
  0
ARC
  8
0
 10
42.16513
 20
-1.977291
 30
0.0
 40
14.928511
 50
206.168824
 51
261.831176
  0
ARC
  8
0
 10
22.1297
 20
-12.053695
 30
0.0
 40
7.5
 50
27.75482
 51
152.24518
  0
LINE
  8
0
 10
1.289761
 20
18.853235
 30
0.0
 11
1.723185
 21
30.122264
 31
0.0
  0
ARC
  8
0
 10
4.471153
 20
30.016572
 30
0.0
 40
2.75
 50
97.880937
 51
177.797402
  0
ARC
  8
0
 10
23.281844
 20
-97.474108
 30
0.0
 40
131.620781
 50
90.497764
 51
98.378701
  0
INSERT
  8
0
  2
*X1
 10
-21.363766
 20
-18.211145
 30
0.0
  0
ARC
  8
0
 10
180.808402
 20
-10.262113
 30
0.0
 40
26.125019
 50
343.421261
 51
16.578739
  0
ARC
  8
0
 10
179.502031
 20
-37.166789
 30
0.0
 40
27.834837
 50
341.811503
 51
18.188497
  0
LINE
  8
0
 10
204.384808
 20
-47.804143
 30
0.0
 11
191.220866
 21
-47.804143
 31
0.0
  0
LINE
  8
0
 10
204.384808
 20
-18.901197
 30
0.0
 11
191.220866
 21
-18.901197
 31
0.0
  0
ARC
  8
0
 10
45.472961
 20
-27.548373
 30
0.0
 40
164.126037
 50
351.734466
 51
8.265534
  0
LINE
  8
0
 10
190.086747
 20
-29.553695
 30
0.0
 11
190.086747
 21
0.446305
 31
0.0
  0
ARC
  8
0
 10
203.436632
 20
-4.570479
 30
0.0
 40
4.5
 50
7.880937
 51
87.797402
  0
LINE
  8
0
 10
190.086747
 20
0.446305
 30
0.0
 11
203.609581
 21
-0.073804
 31
0.0
  0
LINE
  8
0
 10
170.086747
 20
-19.553695
 30
0.0
 11
190.086747
 21
-19.553695
 31
0.0
  0
LINE
  8
0
 10
170.086747
 20
-39.553695
 30
0.0
 11
170.086747
 21
-19.553695
 31
0.0
  0
LINE
  8
0
 10
170.086747
 20
-39.553695
 30
0.0
 11
190.086747
 21
-39.553695
 31
0.0
  0
LINE
  8
0
 10
190.086747
 20
-55.543051
 30
0.0
 11
203.609581
 21
-55.022942
 31
0.0
  0
ARC
  8
0
 10
203.436632
 20
-50.526267
 30
0.0
 40
4.5
 50
272.202598
 51
352.119063
  0
LINE
  8
0
 10
190.086747
 20
-29.553695
 30
0.0
 11
190.086747
 21
-55.543051
 31
0.0
  0
LINE
  8
0
 10
204.384808
 20
-27.3558
 30
0.0
 11
191.220866
 21
-27.3558
 31
0.0
  0
LINE
  8
0
  6
CENTER
 10
130.11424
 20
6.653218
 30
0.0
 11
130.11424
 21
51.217683
 31
0.0
  0
LINE
  8
0
 10
125.01424
 20
39.580741
 30
0.0
 11
130.11424
 21
42.525227
 31
0.0
  0
LINE
  8
0
 10
124.11424
 20
36.580741
 30
0.0
 11
130.11424
 21
36.580741
 31
0.0
  0
LINE
  8
0
 10
125.01424
 20
9.480741
 30
0.0
 11
125.01424
 21
39.580741
 31
0.0
  0
LINE
  8
0
 10
124.11424
 20
8.580741
 30
0.0
 11
124.11424
 21
36.580741
 31
0.0
  0
LINE
  8
0
 10
130.11424
 20
28.580741
 30
0.0
 11
159.086427
 21
28.580741
 31
0.0
  0
ARC
  8
0
 10
131.496813
 20
-111.05819
 30
0.0
 40
159.144937
 50
81.621299
 51
90.497764
  0
ARC
  8
0
 10
131.496813
 20
-111.05819
 30
0.0
 40
159.144937
 50
90.497764
 51
98.378701
  0
ARC
  8
0
 10
108.923983
 20
41.930626
 30
0.0
 40
4.5
 50
97.880937
 51
177.797402
  0
LINE
  8
0
 10
103.907199
 20
28.580741
 30
0.0
 11
104.427308
 21
42.103575
 31
0.0
  0
ARC
  8
0
 10
154.069642
 20
41.930626
 30
0.0
 40
4.5
 50
2.202598
 51
82.119063
  0
LINE
  8
0
 10
159.086427
 20
28.580741
 30
0.0
 11
158.566317
 21
42.103575
 31
0.0
  0
LINE
  8
0
 10
140.11424
 20
8.580741
 30
0.0
 11
140.11424
 21
28.580741
 31
0.0
  0
LINE
  8
0
 10
120.11424
 20
8.580741
 30
0.0
 11
120.11424
 21
46.676581
 31
0.0
  0
LINE
  8
0
 10
101.142053
 20
28.580741
 30
0.0
 11
120.11424
 21
28.580741
 31
0.0
  0
LINE
  8
0
 10
120.11424
 20
8.580741
 30
0.0
 11
140.11424
 21
8.580741
 31
0.0
  0
ARC
  8
0
 10
169.015847
 20
-42.193593
 30
0.0
 40
18.664214
 50
134.168824
 51
189.831176
  0
ARC
  8
0
 10
142.45773
 20
-46.543051
 30
0.0
 40
8.25
 50
243.75482
 51
8.24518
  0
ARC
  8
0
 10
130.11424
 20
-70.457265
 30
0.0
 40
18.664214
 50
62.168824
 51
117.831176
  0
ARC
  8
0
 10
117.770749
 20
-46.543051
 30
0.0
 40
8.25
 50
171.75482
 51
296.24518
  0
ARC
  8
0
 10
91.212632
 20
-42.193593
 30
0.0
 40
18.664214
 50
350.168824
 51
45.831176
  0
ARC
  8
0
 10
110.142053
 20
-23.064338
 30
0.0
 40
8.25
 50
99.75482
 51
224.24518
  0
ARC
  8
0
 10
106.071724
 20
3.537989
 30
0.0
 40
18.664214
 50
278.168824
 51
333.831176
  0
ARC
  8
0
 10
130.11424
 20
-8.553695
 30
0.0
 40
8.25
 50
27.75482
 51
152.24518
  0
ARC
  8
0
 10
154.156755
 20
3.537989
 30
0.0
 40
18.664214
 50
206.168824
 51
261.831176
  0
ARC
  8
0
 10
150.086427
 20
-23.064338
 30
0.0
 40
8.25
 50
315.75482
 51
80.24518
  0
ARC
  8
0
 10
110.142053
 20
-23.064338
 30
0.0
 40
9.0
 50
99.75482
 51
224.24518
  0
ARC
  8
0
 10
106.071724
 20
3.537989
 30
0.0
 40
17.914214
 50
278.168824
 51
333.831176
  0
ARC
  8
0
 10
117.770749
 20
-46.543051
 30
0.0
 40
9.0
 50
171.75482
 51
296.24518
  0
ARC
  8
0
 10
91.212632
 20
-42.193593
 30
0.0
 40
17.914214
 50
350.168824
 51
45.831176
  0
ARC
  8
0
 10
142.45773
 20
-46.543051
 30
0.0
 40
9.0
 50
243.75482
 51
8.24518
  0
ARC
  8
0
 10
130.11424
 20
-70.457265
 30
0.0
 40
17.914214
 50
62.168824
 51
117.831176
  0
ARC
  8
0
 10
150.086427
 20
-23.064338
 30
0.0
 40
9.0
 50
315.75482
 51
80.24518
  0
ARC
  8
0
 10
169.015847
 20
-42.193593
 30
0.0
 40
17.914214
 50
134.168824
 51
189.831176
  0
ARC
  8
0
 10
154.156755
 20
3.537989
 30
0.0
 40
17.914214
 50
206.168824
 51
261.831176
  0
ARC
  8
0
 10
130.11424
 20
-8.553695
 30
0.0
 40
9.0
 50
27.75482
 51
152.24518
  0
LINE
  8
0
 10
104.90646
 20
28.542308
 30
0.0
 11
105.426569
 21
42.065142
 31
0.0
  0
ARC
  8
0
 10
108.923983
 20
41.930626
 30
0.0
 40
3.5
 50
97.880937
 51
177.797402
  0
ARC
  8
0
 10
131.496813
 20
-111.05819
 30
0.0
 40
158.144937
 50
90.497764
 51
98.378701
  0
INSERT
  8
0
  2
*X2
 10
125.718204
 20
110.734919
 30
0.0
  0
LINE
  8
0
 10
-68.830388
 20
-29.553695
 30
0.0
 11
-68.830388
 21
-55.775088
 31
0.0
  0
LINE
  8
0
 10
22.1297
 20
-29.553695
 30
0.0
 11
22.1297
 21
-60.165411
 31
0.0
  0
LINE
  8
0
 10
130.11424
 20
-29.553695
 30
0.0
 11
130.11424
 21
-65.287454
 31
0.0
  0
LINE
  8
0
 10
-72.230388
 20
17.202596
 30
0.0
 11
-68.830388
 21
17.202596
 31
0.0
  0
LINE
  8
0
 10
-72.830388
 20
-2.797404
 30
0.0
 11
-72.230388
 21
-2.197404
 31
0.0
  0
LINE
  8
0
 10
-72.230388
 20
-2.197404
 30
0.0
 11
-68.830388
 21
-2.197404
 31
0.0
  0
LINE
  8
0
 10
17.8797
 20
27.641668
 30
0.0
 11
22.1297
 21
27.641668
 31
0.0
  0
LINE
  8
0
 10
17.8797
 20
3.891668
 30
0.0
 11
22.1297
 21
3.891668
 31
0.0
  0
LINE
  8
0
 10
17.1297
 20
3.141668
 30
0.0
 11
17.8797
 21
3.891668
 31
0.0
  0
LINE
  8
0
 10
125.01424
 20
39.580741
 30
0.0
 11
130.11424
 21
39.580741
 31
0.0
  0
LINE
  8
0
 10
125.01424
 20
9.480741
 30
0.0
 11
130.11424
 21
9.480741
 31
0.0
  0
LINE
  8
0
 10
124.11424
 20
8.580741
 30
0.0
 11
125.01424
 21
9.480741
 31
0.0
  0
INSERT
  8
0
  2
*X3
 10
-3.414441
 20
0.0
 30
0.0
1001
ACAD
1000
HATCH
1002
{
1070
    16
1000
ANSI31
1040
10.0
1040
0.0
1002
}
  0
INSERT
  8
0
  2
*X4
 10
0.0
 20
0.0
 30
0.0
1001
ACAD
1000
HATCH
1002
{
1070
    16
1000
ANSI31
1040
15.0
1040
0.0
1002
}
  0
INSERT
  8
0
  2
*X5
 10
0.0
 20
0.0
 30
0.0
1001
ACAD
1000
HATCH
1002
{
1070
    16
1000
ANSI31
1040
15.0
1040
0.0
1002
}
  0
LINE
  8
0
 10
-62.223599
 20
9.202596
 30
0.0
 11
-62.223599
 21
18.900602
 31
0.0
  0
LINE
  8
0
 10
-55.694487
 20
9.202596
 30
0.0
 11
-55.694487
 21
18.783694
 31
0.0
  0
LINE
  8
0
 10
30.157764
 20
18.891668
 30
0.0
 11
30.157764
 21
31.959076
 31
0.0
  0
LINE
  8
0
 10
38.553191
 20
18.891668
 30
0.0
 11
38.553191
 21
31.959076
 31
0.0
  0
LINE
  8
0
 10
139.56837
 20
28.580741
 30
0.0
 11
139.56837
 21
43.82387
 31
0.0
  0
LINE
  8
0
 10
150.05603
 20
28.580741
 30
0.0
 11
150.05603
 21
43.605905
 31
0.0
  0
ARC
  8
0
 10
-68.830388
 20
7.656374
 30
0.0
 40
13.546165
 50
65.694094
 51
90.0
  0
ARC
  8
0
 10
-49.097501
 20
7.656374
 30
0.0
 40
13.546165
 50
101.66743
 51
114.305906
  0
ARC
  8
0
 10
22.1297
 20
16.402432
 30
0.0
 40
17.739198
 50
66.865243
 51
90.0
  0
ARC
  8
0
 10
46.80806
 20
16.402432
 30
0.0
 40
17.739198
 50
102.931962
 51
113.134757
  0
ARC
  8
0
 10
130.11424
 20
29.057423
 30
0.0
 40
18.023279
 50
62.351716
 51
90.0
  0
ARC
  8
0
 10
159.728272
 20
29.057423
 30
0.0
 40
18.023279
 50
106.039106
 51
117.648284
  0
ARC
  8
0
 10
-84.800656
 20
18.102519
 30
0.0
 40
3.0
 50
97.880937
 51
177.797402
  0
LINE
  8
0
 10
-88.145179
 20
9.202596
 30
0.0
 11
-87.79844
 21
18.217818
 31
0.0
  0
ARC
  8
0
 10
-69.752103
 20
-83.890025
 30
0.0
 40
106.096624
 50
89.502236
 51
98.378701
  0
ARC
  8
0
 10
2.166865
 20
30.016572
 30
0.0
 40
3.75
 50
97.880937
 51
177.797402
  0
LINE
  8
0
 10
-2.013789
 20
18.891668
 30
0.0
 11
-1.580365
 21
30.160697
 31
0.0
  0
ARC
  8
0
 10
20.977556
 20
-97.474108
 30
0.0
 40
132.620781
 50
89.502236
 51
98.378701
  0
LINE
  8
0
 10
101.142053
 20
28.580741
 30
0.0
 11
101.662162
 21
42.103575
 31
0.0
  0
ARC
  8
0
 10
106.158837
 20
41.930626
 30
0.0
 40
4.5
 50
97.880937
 51
177.797402
  0
ARC
  8
0
 10
128.731667
 20
-111.05819
 30
0.0
 40
159.144937
 50
89.502236
 51
98.378701
  0
ARC
  8
0
 10
-69.752103
 20
44.431317
 30
0.0
 40
106.096624
 50
89.502236
 51
98.378701
  0
ARC
  8
0
 10
-67.908672
 20
44.431317
 30
0.0
 40
106.096624
 50
90.497764
 51
98.378701
  0
LINE
  8
0
 10
-75.830388
 20
125.523938
 30
0.0
 11
-61.830388
 21
125.523938
 31
0.0
  0
ARC
  8
0
 10
-67.908672
 20
44.431317
 30
0.0
 40
105.096624
 50
90.497764
 51
98.378701
  0
INSERT
  8
0
  2
*X0
 10
-3.414441
 20
100.540681
 30
0.0
  0
LINE
  8
0
 10
-88.145179
 20
137.523938
 30
0.0
 11
-87.79844
 21
146.539161
 31
0.0
  0
LINE
  8
0
 10
-75.830388
 20
125.523938
 30
0.0
 11
-75.830388
 21
149.228965
 31
0.0
  0
LINE
  8
0
 10
-86.301748
 20
137.523938
 30
0.0
 11
-85.955009
 21
146.539161
 31
0.0
  0
LINE
  8
0
 10
-85.302487
 20
137.485505
 30
0.0
 11
-84.955748
 21
146.500728
 31
0.0
  0
LINE
  8
0
 10
-88.145179
 20
137.523938
 30
0.0
 11
-75.830388
 21
137.523938
 31
0.0
  0
ARC
  8
0
 10
-84.800656
 20
146.423862
 30
0.0
 40
3.0
 50
97.880937
 51
177.797402
  0
ARC
  8
0
 10
-82.957225
 20
146.423862
 30
0.0
 40
3.0
 50
97.880937
 51
177.797402
  0
ARC
  8
0
 10
-82.957225
 20
146.423862
 30
0.0
 40
2.0
 50
97.880937
 51
177.797402
  0
LINE
  8
0
 10
-55.694487
 20
137.523938
 30
0.0
 11
-55.694487
 21
147.105037
 31
0.0
  0
LINE
  8
0
 10
-62.223599
 20
137.523938
 30
0.0
 11
-62.223599
 21
147.221945
 31
0.0
  0
LINE
  8
0
 10
-49.515596
 20
137.523938
 30
0.0
 11
-49.862336
 21
146.539161
 31
0.0
  0
LINE
  8
0
 10
-72.830388
 20
125.523938
 30
0.0
 11
-72.830388
 21
140.523938
 31
0.0
  0
LINE
  8
0
  6
CENTER
 10
-68.830388
 20
124.238923
 30
0.0
 11
-68.830388
 21
152.615233
 31
0.0
  0
LINE
  8
0
 10
-68.830388
 20
137.523938
 30
0.0
 11
-49.515596
 21
137.523938
 31
0.0
  0
LINE
  8
0
 10
-61.830388
 20
125.523938
 30
0.0
 11
-61.830388
 21
137.523938
 31
0.0
  0
ARC
  8
0
 10
-49.097501
 20
135.977717
 30
0.0
 40
13.546165
 50
101.66743
 51
114.305906
  0
ARC
  8
0
 10
-52.860119
 20
146.423862
 30
0.0
 40
3.0
 50
2.202598
 51
82.119063
  0
ARC
  8
0
 10
-68.830388
 20
135.977717
 30
0.0
 40
13.546165
 50
65.694094
 51
90.0
  0
ARC
  8
0
 10
-67.908672
 20
44.431317
 30
0.0
 40
106.096624
 50
81.621299
 51
90.497764
  0
LINE
  8
0
 10
-2.013789
 20
146.994567
 30
0.0
 11
-1.580365
 21
158.263596
 31
0.0
  0
LINE
  8
0
 10
38.553191
 20
146.994567
 30
0.0
 11
38.553191
 21
160.061975
 31
0.0
  0
LINE
  8
0
 10
30.157764
 20
146.994567
 30
0.0
 11
30.157764
 21
160.061975
 31
0.0
  0
INSERT
  8
0
  2
*X1
 10
-21.363766
 20
109.891754
 30
0.0
  0
LINE
  8
0
 10
1.289761
 20
146.956134
 30
0.0
 11
1.723185
 21
158.225163
 31
0.0
  0
LINE
  8
0
 10
13.1297
 20
131.244567
 30
0.0
 11
13.1297
 21
161.857461
 31
0.0
  0
LINE
  8
0
 10
46.273189
 20
146.994567
 30
0.0
 11
45.839765
 21
158.263596
 31
0.0
  0
LINE
  8
0
 10
0.290499
 20
146.994567
 30
0.0
 11
0.723924
 21
158.263596
 31
0.0
  0
LINE
  8
0
  6
CENTER
 10
22.1297
 20
129.638298
 30
0.0
 11
22.1297
 21
165.858685
 31
0.0
  0
LINE
  8
0
 10
13.1297
 20
131.244567
 30
0.0
 11
31.1297
 21
131.244567
 31
0.0
  0
LINE
  8
0
 10
-2.013789
 20
146.994567
 30
0.0
 11
13.1297
 21
146.994567
 31
0.0
  0
LINE
  8
0
 10
31.1297
 20
131.244567
 30
0.0
 11
31.1297
 21
146.994567
 31
0.0
  0
LINE
  8
0
 10
17.1297
 20
131.244567
 30
0.0
 11
17.1297
 21
149.244567
 31
0.0
  0
LINE
  8
0
 10
22.1297
 20
146.994567
 30
0.0
 11
46.273189
 21
146.994567
 31
0.0
  0
ARC
  8
0
 10
20.977556
 20
30.628791
 30
0.0
 40
132.620781
 50
89.502236
 51
98.378701
  0
ARC
  8
0
 10
23.281844
 20
30.628791
 30
0.0
 40
131.620781
 50
90.497764
 51
98.378701
  0
ARC
  8
0
 10
23.281844
 20
30.628791
 30
0.0
 40
132.620781
 50
90.497764
 51
98.378701
  0
ARC
  8
0
 10
2.166865
 20
158.119471
 30
0.0
 40
3.75
 50
97.880937
 51
177.797402
  0
ARC
  8
0
 10
4.471153
 20
158.119471
 30
0.0
 40
3.75
 50
97.880937
 51
177.797402
  0
ARC
  8
0
 10
4.471153
 20
158.119471
 30
0.0
 40
2.75
 50
97.880937
 51
177.797402
  0
ARC
  8
0
 10
23.281844
 20
30.628791
 30
0.0
 40
132.620781
 50
81.621299
 51
90.497764
  0
ARC
  8
0
 10
22.1297
 20
144.505331
 30
0.0
 40
17.739198
 50
66.865243
 51
90.0
  0
ARC
  8
0
 10
42.092535
 20
158.119471
 30
0.0
 40
3.75
 50
2.202598
 51
82.119063
  0
ARC
  8
0
 10
46.80806
 20
144.505331
 30
0.0
 40
17.739198
 50
102.931962
 51
113.134757
  0
ARC
  8
0
 10
159.728272
 20
159.076318
 30
0.0
 40
18.023279
 50
106.039106
 51
117.648284
  0
ARC
  8
0
 10
131.496813
 20
18.960704
 30
0.0
 40
159.144937
 50
81.621299
 51
90.497764
  0
LINE
  8
0
 10
130.11424
 20
158.599635
 30
0.0
 11
159.086427
 21
158.599635
 31
0.0
  0
LINE
  8
0
 10
101.142053
 20
158.599635
 30
0.0
 11
101.662162
 21
172.12247
 31
0.0
  0
LINE
  8
0
 10
139.56837
 20
158.599635
 30
0.0
 11
139.56837
 21
173.842765
 31
0.0
  0
LINE
  8
0
 10
150.05603
 20
158.599635
 30
0.0
 11
150.05603
 21
173.6248
 31
0.0
  0
INSERT
  8
0
  2
*X2
 10
125.718204
 20
240.753814
 30
0.0
  0
LINE
  8
0
 10
104.90646
 20
158.561202
 30
0.0
 11
105.426569
 21
172.084036
 31
0.0
  0
LINE
  8
0
 10
120.11424
 20
138.599635
 30
0.0
 11
120.11424
 21
176.695475
 31
0.0
  0
LINE
  8
0
 10
103.907199
 20
158.599635
 30
0.0
 11
104.427308
 21
172.12247
 31
0.0
  0
LINE
  8
0
 10
124.11424
 20
138.599635
 30
0.0
 11
124.11424
 21
160.599635
 31
0.0
  0
LINE
  8
0
  6
CENTER
 10
130.11424
 20
136.672112
 30
0.0
 11
130.11424
 21
181.236577
 31
0.0
  0
LINE
  8
0
 10
101.142053
 20
158.599635
 30
0.0
 11
120.11424
 21
158.599635
 31
0.0
  0
LINE
  8
0
 10
140.11424
 20
138.599635
 30
0.0
 11
140.11424
 21
158.599635
 31
0.0
  0
LINE
  8
0
 10
120.11424
 20
138.599635
 30
0.0
 11
140.11424
 21
138.599635
 31
0.0
  0
ARC
  8
0
 10
128.731667
 20
18.960704
 30
0.0
 40
159.144937
 50
89.502236
 51
98.378701
  0
ARC
  8
0
 10
108.923983
 20
171.94952
 30
0.0
 40
3.5
 50
97.880937
 51
177.797402
  0
ARC
  8
0
 10
131.496813
 20
18.960704
 30
0.0
 40
159.144937
 50
90.497764
 51
98.378701
  0
ARC
  8
0
 10
106.158837
 20
171.94952
 30
0.0
 40
4.5
 50
97.880937
 51
177.797402
  0
ARC
  8
0
 10
108.923983
 20
171.94952
 30
0.0
 40
4.5
 50
97.880937
 51
177.797402
  0
ARC
  8
0
 10
130.11424
 20
159.076318
 30
0.0
 40
18.023279
 50
62.351716
 51
90.0
  0
ARC
  8
0
 10
131.496813
 20
18.960704
 30
0.0
 40
158.144937
 50
90.497764
 51
98.378701
  0
LINE
  8
0
 10
159.086427
 20
158.599635
 30
0.0
 11
158.566317
 21
172.12247
 31
0.0
  0
ARC
  8
0
 10
154.069642
 20
171.94952
 30
0.0
 40
4.5
 50
2.202598
 51
82.119063
  0
LINE
  8
0
 10
-72.830388
 20
140.523938
 30
0.0
 11
-68.830388
 21
140.523938
 31
0.0
  0
LINE
  8
0
 10
-72.830388
 20
140.523938
 30
0.0
 11
-68.830388
 21
142.833339
 31
0.0
  0
LINE
  8
0
 10
17.1297
 20
149.244567
 30
0.0
 11
22.1297
 21
149.244567
 31
0.0
  0
LINE
  8
0
 10
17.1297
 20
149.244567
 30
0.0
 11
22.1297
 21
152.131319
 31
0.0
  0
LINE
  8
0
 10
124.11424
 20
160.599635
 30
0.0
 11
130.11424
 21
160.599635
 31
0.0
  0
LINE
  8
0
 10
124.11424
 20
160.599635
 30
0.0
 11
130.11424
 21
164.063737
 31
0.0
  0
INSERT
  8
0
  2
*X6
 10
0.0
 20
82.257485
 30
0.0
1001
ACAD
1000
HATCH
1002
{
1070
    16
1000
ANSI31
1040
10.0
1040
0.0
1002
}
  0
INSERT
  8
0
  2
*X7
 10
0.0
 20
73.508697
 30
0.0
1001
ACAD
1000
HATCH
1002
{
1070
    16
1000
ANSI31
1040
15.0
1040
0.0
1002
}
  0
INSERT
  8
0
  2
*X8
 10
0.0
 20
65.756969
 30
0.0
1001
ACAD
1000
HATCH
1002
{
1070
    16
1000
ANSI31
1040
15.0
1040
0.0
1002
}
  0
ARC
  8
0
 10
169.015847
 20
83.43602
 30
0.0
 40
17.914214
 50
134.168824
 51
189.831176
  0
ARC
  8
0
 10
150.086427
 20
102.565276
 30
0.0
 40
9.0
 50
315.75482
 51
80.24518
  0
ARC
  8
0
 10
142.45773
 20
79.086562
 30
0.0
 40
9.0
 50
243.75482
 51
8.24518
  0
ARC
  8
0
 10
150.086427
 20
102.565276
 30
0.0
 40
8.25
 50
315.75482
 51
80.24518
  0
ARC
  8
0
 10
169.015847
 20
83.43602
 30
0.0
 40
18.664214
 50
134.168824
 51
189.831176
  0
ARC
  8
0
 10
142.45773
 20
79.086562
 30
0.0
 40
8.25
 50
243.75482
 51
8.24518
  0
ARC
  8
0
 10
154.156755
 20
129.167603
 30
0.0
 40
17.914214
 50
206.168824
 51
261.831176
  0
ARC
  8
0
 10
154.156755
 20
129.167603
 30
0.0
 40
18.664214
 50
206.168824
 51
261.831176
  0
LINE
  8
0
 10
190.086747
 20
96.075919
 30
0.0
 11
190.086747
 21
70.086562
 31
0.0
  0
LINE
  8
0
 10
170.086747
 20
86.075919
 30
0.0
 11
170.086747
 21
106.075919
 31
0.0
  0
ARC
  8
0
 10
45.472961
 20
98.08124
 30
0.0
 40
164.126037
 50
351.734466
 51
8.265534
  0
ARC
  8
0
 10
179.502031
 20
88.462824
 30
0.0
 40
27.834837
 50
341.811503
 51
18.188497
  0
LINE
  8
0
 10
190.086747
 20
70.086562
 30
0.0
 11
203.609581
 21
70.606671
 31
0.0
  0
LINE
  8
0
 10
204.384808
 20
77.825471
 30
0.0
 11
191.220866
 21
77.825471
 31
0.0
  0
LINE
  8
0
 10
170.086747
 20
86.075919
 30
0.0
 11
190.086747
 21
86.075919
 31
0.0
  0
ARC
  8
0
 10
203.436632
 20
75.103346
 30
0.0
 40
4.5
 50
272.202598
 51
352.119063
  0
LINE
  8
0
 10
204.384808
 20
98.273813
 30
0.0
 11
191.220866
 21
98.273813
 31
0.0
  0
LINE
  8
0
 10
190.086747
 20
126.075919
 30
0.0
 11
203.609581
 21
125.55581
 31
0.0
  0
LINE
  8
0
 10
204.384808
 20
106.728417
 30
0.0
 11
191.220866
 21
106.728417
 31
0.0
  0
LINE
  8
0
 10
190.086747
 20
96.075919
 30
0.0
 11
190.086747
 21
126.075919
 31
0.0
  0
LINE
  8
0
 10
170.086747
 20
106.075919
 30
0.0
 11
190.086747
 21
106.075919
 31
0.0
  0
ARC
  8
0
 10
203.436632
 20
121.059134
 30
0.0
 40
4.5
 50
7.880937
 51
87.797402
  0
ARC
  8
0
 10
180.808402
 20
115.367501
 30
0.0
 40
26.125019
 50
343.421261
 51
16.578739
  0
LINE
  8
0
 10
56.356789
 20
87.075919
 30
0.0
 11
72.106789
 21
87.075919
 31
0.0
  0
LINE
  8
0
 10
56.356789
 20
105.075919
 30
0.0
 11
72.106789
 21
105.075919
 31
0.0
  0
LINE
  8
0
 10
56.356789
 20
87.075919
 30
0.0
 11
56.356789
 21
105.075919
 31
0.0
  0
LINE
  8
0
 10
130.11424
 20
96.075919
 30
0.0
 11
130.11424
 21
60.34216
 31
0.0
  0
ARC
  8
0
 10
91.212632
 20
83.43602
 30
0.0
 40
17.914214
 50
350.168824
 51
45.831176
  0
ARC
  8
0
 10
91.212632
 20
83.43602
 30
0.0
 40
18.664214
 50
350.168824
 51
45.831176
  0
LINE
  8
0
 10
72.106789
 20
96.075919
 30
0.0
 11
72.106789
 21
74.418121
 31
0.0
  0
ARC
  8
0
 10
-48.404699
 20
97.74702
 30
0.0
 40
136.771697
 50
351.734466
 51
8.265534
  0
ARC
  8
0
 10
63.286193
 20
89.731673
 30
0.0
 40
23.195698
 50
341.811503
 51
18.188497
  0
ARC
  8
0
 10
117.770749
 20
79.086562
 30
0.0
 40
9.0
 50
171.75482
 51
296.24518
  0
ARC
  8
0
 10
117.770749
 20
79.086562
 30
0.0
 40
8.25
 50
171.75482
 51
296.24518
  0
ARC
  8
0
 10
83.231694
 20
78.598775
 30
0.0
 40
3.75
 50
272.202598
 51
352.119063
  0
LINE
  8
0
 10
84.02184
 20
80.867212
 30
0.0
 11
73.051889
 21
80.867212
 31
0.0
  0
LINE
  8
0
 10
72.106789
 20
74.418121
 30
0.0
 11
83.375818
 21
74.851546
 31
0.0
  0
ARC
  8
0
 10
130.11424
 20
55.172348
 30
0.0
 40
17.914214
 50
62.168824
 51
117.831176
  0
ARC
  8
0
 10
130.11424
 20
55.172348
 30
0.0
 40
18.664214
 50
62.168824
 51
117.831176
  0
ARC
  8
0
 10
110.142053
 20
102.565276
 30
0.0
 40
9.0
 50
99.75482
 51
224.24518
  0
ARC
  8
0
 10
110.142053
 20
102.565276
 30
0.0
 40
8.25
 50
99.75482
 51
224.24518
  0
LINE
  8
0
 10
84.02184
 20
97.907498
 30
0.0
 11
73.051889
 21
97.907498
 31
0.0
  0
ARC
  8
0
 10
83.231694
 20
116.895265
 30
0.0
 40
3.75
 50
7.880937
 51
87.797402
  0
LINE
  8
0
 10
84.02184
 20
104.953
 30
0.0
 11
73.051889
 21
104.953
 31
0.0
  0
LINE
  8
0
 10
72.106789
 20
96.075919
 30
0.0
 11
72.106789
 21
121.075919
 31
0.0
  0
LINE
  8
0
 10
72.106789
 20
121.075919
 30
0.0
 11
83.375818
 21
120.642495
 31
0.0
  0
ARC
  8
0
 10
64.374835
 20
112.152237
 30
0.0
 40
21.770849
 50
343.421261
 51
16.578739
  0
ARC
  8
0
 10
130.11424
 20
117.075919
 30
0.0
 40
9.0
 50
27.75482
 51
152.24518
  0
ARC
  8
0
 10
130.11424
 20
117.075919
 30
0.0
 40
8.25
 50
27.75482
 51
152.24518
  0
ARC
  8
0
 10
106.071724
 20
129.167603
 30
0.0
 40
17.914214
 50
278.168824
 51
333.831176
  0
ARC
  8
0
 10
106.071724
 20
129.167603
 30
0.0
 40
18.664214
 50
278.168824
 51
333.831176
  0
LINE
  8
0
 10
22.1297
 20
96.075919
 30
0.0
 11
22.1297
 21
65.464203
 31
0.0
  0
ARC
  8
0
 10
54.547706
 20
85.54267
 30
0.0
 40
14.928511
 50
134.168824
 51
189.831176
  0
ARC
  8
0
 10
-10.288306
 20
85.54267
 30
0.0
 40
14.928511
 50
350.168824
 51
45.831176
  0
ARC
  8
0
 10
-10.288306
 20
85.54267
 30
0.0
 40
15.553511
 50
350.168824
 51
45.831176
  0
ARC
  8
0
 10
54.547706
 20
85.54267
 30
0.0
 40
15.553511
 50
134.168824
 51
189.831176
  0
ARC
  8
0
 10
11.843458
 20
81.918121
 30
0.0
 40
7.5
 50
171.75482
 51
296.24518
  0
ARC
  8
0
 10
11.843458
 20
81.918121
 30
0.0
 40
6.875
 50
171.75482
 51
296.24518
  0
ARC
  8
0
 10
32.415942
 20
81.918121
 30
0.0
 40
7.5
 50
243.75482
 51
8.24518
  0
ARC
  8
0
 10
32.415942
 20
81.918121
 30
0.0
 40
6.875
 50
243.75482
 51
8.24518
  0
ARC
  8
0
 10
22.1297
 20
61.98961
 30
0.0
 40
14.928511
 50
62.168824
 51
117.831176
  0
ARC
  8
0
 10
22.1297
 20
61.98961
 30
0.0
 40
15.553511
 50
62.168824
 51
117.831176
  0
ARC
  8
0
 10
2.09427
 20
123.652322
 30
0.0
 40
14.928511
 50
278.168824
 51
333.831176
  0
ARC
  8
0
 10
2.09427
 20
123.652322
 30
0.0
 40
15.553511
 50
278.168824
 51
333.831176
  0
ARC
  8
0
 10
5.486211
 20
101.483716
 30
0.0
 40
7.5
 50
99.75482
 51
224.24518
  0
ARC
  8
0
 10
5.486211
 20
101.483716
 30
0.0
 40
6.875
 50
99.75482
 51
224.24518
  0
ARC
  8
0
 10
42.16513
 20
123.652322
 30
0.0
 40
14.928511
 50
206.168824
 51
261.831176
  0
ARC
  8
0
 10
42.16513
 20
123.652322
 30
0.0
 40
15.553511
 50
206.168824
 51
261.831176
  0
ARC
  8
0
 10
22.1297
 20
113.575919
 30
0.0
 40
7.5
 50
27.75482
 51
152.24518
  0
ARC
  8
0
 10
22.1297
 20
113.575919
 30
0.0
 40
6.875
 50
27.75482
 51
152.24518
  0
ARC
  8
0
 10
38.773189
 20
101.483716
 30
0.0
 40
7.5
 50
315.75482
 51
80.24518
  0
ARC
  8
0
 10
38.773189
 20
101.483716
 30
0.0
 40
6.875
 50
315.75482
 51
80.24518
  0
LINE
  8
0
 10
-40.848716
 20
103.075919
 30
0.0
 11
-28.848716
 21
103.075919
 31
0.0
  0
LINE
  8
0
 10
-40.848716
 20
89.075919
 30
0.0
 11
-28.848716
 21
89.075919
 31
0.0
  0
LINE
  8
0
 10
-68.830388
 20
96.075919
 30
0.0
 11
-68.830388
 21
69.854525
 31
0.0
  0
LINE
  8
0
 10
-40.848716
 20
89.075919
 30
0.0
 11
-40.848716
 21
103.075919
 31
0.0
  0
ARC
  8
0
 10
-42.895983
 20
87.64932
 30
0.0
 40
12.442809
 50
134.168824
 51
189.831176
  0
ARC
  8
0
 10
-94.764793
 20
87.64932
 30
0.0
 40
12.442809
 50
350.168824
 51
45.831176
  0
ARC
  8
0
 10
-94.764793
 20
87.64932
 30
0.0
 40
11.942809
 50
350.168824
 51
45.831176
  0
ARC
  8
0
 10
-42.895983
 20
87.64932
 30
0.0
 40
11.942809
 50
134.168824
 51
189.831176
  0
ARC
  8
0
 10
-77.059381
 20
84.749681
 30
0.0
 40
5.5
 50
171.75482
 51
296.24518
  0
ARC
  8
0
 10
-77.059381
 20
84.749681
 30
0.0
 40
6.0
 50
171.75482
 51
296.24518
  0
ARC
  8
0
 10
-60.601394
 20
84.749681
 30
0.0
 40
5.5
 50
243.75482
 51
8.24518
  0
ARC
  8
0
 10
-60.601394
 20
84.749681
 30
0.0
 40
6.0
 50
243.75482
 51
8.24518
  0
ARC
  8
0
 10
-68.830388
 20
68.806872
 30
0.0
 40
12.442809
 50
62.168824
 51
117.831176
  0
ARC
  8
0
 10
-68.830388
 20
68.806872
 30
0.0
 40
11.942809
 50
62.168824
 51
117.831176
  0
ARC
  8
0
 10
-84.858731
 20
118.137041
 30
0.0
 40
12.442809
 50
278.168824
 51
333.831176
  0
ARC
  8
0
 10
-84.858731
 20
118.137041
 30
0.0
 40
11.942809
 50
278.168824
 51
333.831176
  0
ARC
  8
0
 10
-82.145179
 20
100.402157
 30
0.0
 40
5.5
 50
99.75482
 51
224.24518
  0
ARC
  8
0
 10
-82.145179
 20
100.402157
 30
0.0
 40
6.0
 50
99.75482
 51
224.24518
  0
ARC
  8
0
 10
-52.802044
 20
118.137041
 30
0.0
 40
12.442809
 50
206.168824
 51
261.831176
  0
ARC
  8
0
 10
-52.802044
 20
118.137041
 30
0.0
 40
11.942809
 50
206.168824
 51
261.831176
  0
ARC
  8
0
 10
-68.830388
 20
110.075919
 30
0.0
 40
5.5
 50
27.75482
 51
152.24518
  0
ARC
  8
0
 10
-68.830388
 20
110.075919
 30
0.0
 40
6.0
 50
27.75482
 51
152.24518
  0
ARC
  8
0
 10
-55.515596
 20
100.402157
 30
0.0
 40
5.5
 50
315.75482
 51
80.24518
  0
ARC
  8
0
 10
-55.515596
 20
100.402157
 30
0.0
 40
6.0
 50
315.75482
 51
80.24518
  0
ARC
  8
0
 10
-35.905193
 20
91.000522
 30
0.0
 40
18.556558
 50
341.811503
 51
18.188497
  0
ARC
  8
0
 10
-125.257907
 20
97.4128
 30
0.0
 40
109.417358
 50
351.734466
 51
8.265534
  0
LINE
  8
0
 10
-28.848716
 20
96.075919
 30
0.0
 11
-28.848716
 21
78.749681
 31
0.0
  0
ARC
  8
0
 10
-19.948793
 20
82.094204
 30
0.0
 40
3.0
 50
272.202598
 51
352.119063
  0
LINE
  8
0
 10
-28.848716
 20
78.749681
 30
0.0
 11
-19.833493
 21
79.09642
 31
0.0
  0
LINE
  8
0
 10
-19.316675
 20
83.908953
 30
0.0
 11
-28.092637
 21
83.908953
 31
0.0
  0
ARC
  8
0
 10
-35.03428
 20
108.936973
 30
0.0
 40
17.416679
 50
343.421261
 51
16.578739
  0
LINE
  8
0
 10
-28.848716
 20
96.075919
 30
0.0
 11
-28.848716
 21
116.075919
 31
0.0
  0
LINE
  8
0
 10
-19.316675
 20
103.177584
 30
0.0
 11
-28.092637
 21
103.177584
 31
0.0
  0
LINE
  8
0
 10
-19.316675
 20
97.541182
 30
0.0
 11
-28.092637
 21
97.541182
 31
0.0
  0
LINE
  8
0
 10
-28.848716
 20
116.075919
 30
0.0
 11
-19.833493
 21
115.729179
 31
0.0
  0
ARC
  8
0
 10
-19.948793
 20
112.731396
 30
0.0
 40
3.0
 50
7.880937
 51
87.797402
  0
ENDSEC
  0
EOF
