  0
SECTION
  2
HEADER
  9
$ACADVER
  1
AC1009
  9
$INSBASE
 10
0.0
 20
0.0
 30
0.0
  9
$EXTMIN
 10
479.2302272174465
 20
-89.111123249713728
 30
-0.0015258207003583
  9
$EXTMAX
 10
885.64956525956575
 20
158.06291628547859
 30
0.0000000349246037
  9
$LIMMIN
 10
0.0
 20
0.0
  9
$LIMMAX
 10
420.0
 20
297.0
  9
$ORTHOMODE
 70
     1
  9
$REGENMODE
 70
     1
  9
$FILLMODE
 70
     1
  9
$QTEXTMODE
 70
     0
  9
$MIRRTEXT
 70
     1
  9
$DRAGMODE
 70
     2
  9
$LTSCALE
 40
1.0
  9
$OSMODE
 70
    40
  9
$ATTMODE
 70
     1
  9
$TEXTSIZE
 40
2.5
  9
$TRACEWID
 40
1.0
  9
$TEXTSTYLE
  7
STANDARD
  9
$CLAYER
  8
0
  9
$CELTYPE
  6
BYLAYER
  9
$CECOLOR
 62
   256
  9
$DIMSCALE
 40
1.0
  9
$DIMASZ
 40
2.5
  9
$DIMEXO
 40
0.625
  9
$DIMDLI
 40
3.75
  9
$DIMRND
 40
0.0
  9
$DIMDLE
 40
0.0
  9
$DIMEXE
 40
1.25
  9
$DIMTP
 40
0.0
  9
$DIMTM
 40
0.0
  9
$DIMTXT
 40
2.5
  9
$DIMCEN
 40
2.5
  9
$DIMTSZ
 40
0.0
  9
$DIMTOL
 70
     0
  9
$DIMLIM
 70
     0
  9
$DIMTIH
 70
     0
  9
$DIMTOH
 70
     0
  9
$DIMSE1
 70
     0
  9
$DIMSE2
 70
     0
  9
$DIMTAD
 70
     1
  9
$DIMZIN
 70
     8
  9
$DIMBLK
  1

  9
$DIMASO
 70
     1
  9
$DIMSHO
 70
     1
  9
$DIMPOST
  1

  9
$DIMAPOST
  1

  9
$DIMALT
 70
     0
  9
$DIMALTD
 70
     3
  9
$DIMALTF
 40
0.03937007874016
  9
$DIMLFAC
 40
1.0
  9
$DIMTOFL
 70
     1
  9
$DIMTVP
 40
0.0
  9
$DIMTIX
 70
     0
  9
$DIMSOXD
 70
     0
  9
$DIMSAH
 70
     0
  9
$DIMBLK1
  1

  9
$DIMBLK2
  1

  9
$DIMSTYLE
  2
ISO-25
  9
$DIMCLRD
 70
     0
  9
$DIMCLRE
 70
     0
  9
$DIMCLRT
 70
     0
  9
$DIMTFAC
 40
1.0
  9
$DIMGAP
 40
0.625
  9
$LUNITS
 70
     2
  9
$LUPREC
 70
     4
  9
$SKETCHINC
 40
1.0
  9
$FILLETRAD
 40
10.0
  9
$AUNITS
 70
     0
  9
$AUPREC
 70
     0
  9
$MENU
  1
.
  9
$ELEVATION
 40
0.0
  9
$PELEVATION
 40
0.0
  9
$THICKNESS
 40
0.0
  9
$LIMCHECK
 70
     0
  9
$BLIPMODE
 70
     0
  9
$CHAMFERA
 40
2.5
  9
$CHAMFERB
 40
2.5
  9
$SKPOLY
 70
     0
  9
$TDCREATE
 40
2452212.4280601609
  9
$TDUPDATE
 40
2452212.6049450692
  9
$TDINDWG
 40
0.1554789005
  9
$TDUSRTIMER
 40
0.1554789005
  9
$USRTIMER
 70
     1
  9
$ANGBASE
 50
0.0
  9
$ANGDIR
 70
     0
  9
$PDMODE
 70
     0
  9
$PDSIZE
 40
0.0
  9
$PLINEWID
 40
0.0
  9
$COORDS
 70
     0
  9
$SPLFRAME
 70
     0
  9
$SPLINETYPE
 70
     6
  9
$SPLINESEGS
 70
     8
  9
$ATTDIA
 70
     0
  9
$ATTREQ
 70
     1
  9
$HANDLING
 70
-16383
  9
$HANDSEED
  5
1A55
  9
$SURFTAB1
 70
     6
  9
$SURFTAB2
 70
     6
  9
$SURFTYPE
 70
     6
  9
$SURFU
 70
     6
  9
$SURFV
 70
     6
  9
$UCSNAME
  2

  9
$UCSORG
 10
0.0
 20
0.0
 30
0.0
  9
$UCSXDIR
 10
1.0
 20
0.0
 30
0.0
  9
$UCSYDIR
 10
0.0
 20
1.0
 30
0.0
  9
$PUCSNAME
  2

  9
$PUCSORG
 10
0.0
 20
0.0
 30
0.0
  9
$PUCSXDIR
 10
1.0
 20
0.0
 30
0.0
  9
$PUCSYDIR
 10
0.0
 20
1.0
 30
0.0
  9
$USERI1
 70
     0
  9
$USERI2
 70
     0
  9
$USERI3
 70
     0
  9
$USERI4
 70
     0
  9
$USERI5
 70
     0
  9
$USERR1
 40
0.0
  9
$USERR2
 40
0.0
  9
$USERR3
 40
0.0
  9
$USERR4
 40
0.0
  9
$USERR5
 40
0.0
  9
$WORLDVIEW
 70
     1
  9
$SHADEDGE
 70
     3
  9
$SHADEDIF
 70
    70
  9
$TILEMODE
 70
     1
  9
$MAXACTVP
 70
    48
  9
$PLIMCHECK
 70
     0
  9
$PEXTMIN
 10
0.0
 20
0.0
 30
0.0
  9
$PEXTMAX
 10
0.0
 20
0.0
 30
0.0
  9
$PLIMMIN
 10
0.0
 20
0.0
  9
$PLIMMAX
 10
12.0
 20
9.0
  9
$UNITMODE
 70
     0
  9
$VISRETAIN
 70
     1
  9
$PLINEGEN
 70
     0
  9
$PSLTSCALE
 70
     1
  0
ENDSEC
  0
SECTION
  2
TABLES
  0
TABLE
  2
VPORT
 70
     4
  0
VPORT
  2
*ACTIVE
 70
     0
 10
0.0
 20
0.0
 11
1.0
 21
1.0
 12
682.43989623850609
 22
34.475896517882461
 13
0.0
 23
0.0
 14
10.0
 24
10.0
 15
10.0
 25
10.0
 16
0.0
 26
0.0
 36
1.0
 17
0.0
 27
0.0
 37
0.0
 40
524.48243960028333
 41
1.5573979591836731
 42
50.0
 43
0.0
 44
0.0
 50
0.0
 51
0.0
 71
     0
 72
   100
 73
     1
 74
     3
 75
     0
 76
     0
 77
     0
 78
     0
  0
ENDTAB
  0
TABLE
  2
LTYPE
 70
     3
  0
LTYPE
  2
CONTINUOUS
 70
     0
  3
Solid line
 72
    65
 73
     0
 40
0.0
  0
LTYPE
  2
CENTER
 70
     0
  3
Center (.5x) ___ _ ___ _ ___ _ ___ _ ___ _ ___
 72
    65
 73
     4
 40
28.574999999999989
 49
19.050000000000001
 49
-3.1749999999999989
 49
3.1749999999999989
 49
-3.1749999999999989
  0
LTYPE
  2
DASHED
 70
     0
  3
Dashed (.5x) _ _ _ _ _ _ _ _ _ _ _ _ _ _ _ _ _
 72
    65
 73
     2
 40
9.5249999999999986
 49
6.3499999999999988
 49
-3.1749999999999989
  0
ENDTAB
  0
TABLE
  2
LAYER
 70
     2
  0
LAYER
  2
0
 70
     0
 62
     7
  6
CONTINUOUS
  0
LAYER
  2
H
 70
     0
 62
     6
  6
CONTINUOUS
  0
ENDTAB
  0
TABLE
  2
STYLE
 70
     1
  0
STYLE
  2
STANDARD
 70
     0
 40
0.0
 41
1.0
 50
0.0
 71
     0
 42
2.5
  3
txt
  4

  0
ENDTAB
  0
TABLE
  2
VIEW
 70
     0
  0
ENDTAB
  0
TABLE
  2
UCS
 70
     0
  0
ENDTAB
  0
TABLE
  2
APPID
 70
     1
  0
APPID
  2
ACAD
 70
     0
  0
ENDTAB
  0
TABLE
  2
DIMSTYLE
 70
     2
  0
DIMSTYLE
  2
ISO-25
 70
     0
  3

  4

  5

  6

  7

 40
1.0
 41
2.5
 42
0.625
 43
3.75
 44
1.25
 45
0.0
 46
0.0
 47
0.0
 48
0.0
140
2.5
141
2.5
142
0.0
143
0.03937007874016
144
1.0
145
0.0
146
1.0
147
0.625
 71
     0
 72
     0
 73
     0
 74
     0
 75
     0
 76
     0
 77
     1
 78
     8
170
     0
171
     3
172
     1
173
     0
174
     0
175
     0
176
     0
177
     0
178
     0
  0
DIMSTYLE
  2
STANDARD
 70
     0
  3

  4

  5

  6

  7

 40
1.0
 41
0.18
 42
0.0625
 43
0.38
 44
0.18
 45
0.0
 46
0.0
 47
0.0
 48
0.0
140
0.18
141
0.09
142
0.0
143
25.399999999999999
144
1.0
145
0.0
146
1.0
147
0.09
 71
     0
 72
     0
 73
     1
 74
     1
 75
     0
 76
     0
 77
     0
 78
     0
170
     0
171
     2
172
     0
173
     0
174
     0
175
     0
176
     0
177
     0
178
     0
  0
ENDTAB
  0
ENDSEC
  0
SECTION
  2
BLOCKS
  0
BLOCK
  8
0
  2
$MODEL_SPACE
 70
     0
 10
0.0
 20
0.0
 30
0.0
  3
$MODEL_SPACE
  1

  0
ENDBLK
  5
21
  8
0
  0
BLOCK
 67
     1
  8
0
  2
$PAPER_SPACE
 70
     0
 10
0.0
 20
0.0
 30
0.0
  3
$PAPER_SPACE
  1

  0
ENDBLK
  5
53
 67
     1
  8
0
  0
BLOCK
  8
0
  2
*X1
 70
     1
 10
0.0
 20
0.0
 30
0.0
  3
*X1
  1

  0
LINE
  5
193D
  8
0
 62
     0
 10
520.41377272707689
 20
142.81875157346039
 30
0.0
 11
520.91377272707678
 21
143.3187515734603
 31
0.0
  0
LINE
  5
193E
  8
0
 62
     0
 10
519.64738431698845
 20
142.05236316337201
 30
0.0
 11
520.41377272707689
 21
142.81875157346039
 31
0.0
  0
LINE
  5
193F
  8
0
 62
     0
 10
520.41377272707678
 20
144.2329651358335
 30
0.0
 11
520.91377272707678
 21
144.73296513583341
 31
0.0
  0
LINE
  5
1940
  8
0
 62
     0
 10
518.37347174084596
 20
142.19266414960279
 30
0.0
 11
520.41377272707678
 21
144.2329651358335
 31
0.0
  0
LINE
  5
1941
  8
0
 62
     0
 10
520.41377272707678
 20
145.6471786982066
 30
0.0
 11
520.91377272707655
 21
146.14717869820649
 31
0.0
  0
LINE
  5
1942
  8
0
 62
     0
 10
517.66636495965952
 20
142.89977093078929
 30
0.0
 11
520.41377272707678
 21
145.6471786982066
 31
0.0
  0
LINE
  5
1943
  8
0
 62
     0
 10
520.41377272707678
 20
147.06139226057971
 30
0.0
 11
520.91377272707655
 21
147.56139226057959
 31
0.0
  0
LINE
  5
1944
  8
0
 62
     0
 10
516.95925817847285
 20
143.6068777119759
 30
0.0
 11
520.41377272707678
 21
147.06139226057971
 31
0.0
  0
LINE
  5
1945
  8
0
 62
     0
 10
520.41377272707678
 20
148.47560582295279
 30
0.0
 11
520.91377272707678
 21
148.9756058229527
 31
0.0
  0
LINE
  5
1946
  8
0
 62
     0
 10
516.91377272707655
 20
144.97560582295259
 30
0.0
 11
520.41377272707678
 21
148.47560582295279
 31
0.0
  0
LINE
  5
1947
  8
0
 62
     0
 10
519.41377272707666
 20
148.88981938532581
 30
0.0
 11
520.41377272707678
 21
149.88981938532581
 31
0.0
  0
LINE
  5
1948
  8
0
 62
     0
 10
520.41377272707678
 20
149.88981938532589
 30
0.0
 11
520.91377272707678
 21
150.38981938532581
 31
0.0
  0
LINE
  5
1949
  8
0
 62
     0
 10
516.91377272707678
 20
146.38981938532581
 30
0.0
 11
518.57631650512303
 21
148.05236316337201
 31
0.0
  0
LINE
  5
194A
  8
0
 62
     0
 10
519.41377272707666
 20
150.30403294769889
 30
0.0
 11
520.41377272707678
 21
151.30403294769889
 31
0.0
  0
LINE
  5
194B
  8
0
 62
     0
 10
520.41377272707678
 20
151.304032947699
 30
0.0
 11
520.91377272707678
 21
151.80403294769889
 31
0.0
  0
LINE
  5
194C
  8
0
 62
     0
 10
516.91377272707678
 20
147.80403294769889
 30
0.0
 11
517.16210294274993
 21
148.05236316337201
 31
0.0
  0
LINE
  5
194D
  8
0
 62
     0
 10
519.41377272707666
 20
151.71824651007199
 30
0.0
 11
519.74788938037682
 21
152.05236316337209
 31
0.0
  0
ENDBLK
  5
194F
  8
0
  0
BLOCK
  8
0
  2
*X2
 70
     1
 10
0.0
 20
0.0
 30
0.0
  3
*X2
  1

  0
LINE
  5
1951
  8
0
 62
     0
 10
614.57231372405045
 20
142.15492422091219
 30
0.0
 11
615.17231372405047
 21
142.75492422091219
 31
0.0
  0
LINE
  5
1952
  8
0
 62
     0
 10
614.46975266651032
 20
142.05236316337201
 30
0.0
 11
614.57231372405045
 21
142.15492422091219
 31
0.0
  0
LINE
  5
1953
  8
0
 62
     0
 10
614.57231372405045
 20
144.27624456447191
 30
0.0
 11
615.17231372405047
 21
144.8762445644719
 31
0.0
  0
LINE
  5
1954
  8
0
 62
     0
 10
612.51037302350051
 20
142.21430386392191
 30
0.0
 11
614.57231372405045
 21
144.27624456447191
 31
0.0
  0
LINE
  5
1955
  8
0
 62
     0
 10
614.57231372405045
 20
146.39756490803151
 30
0.0
 11
615.17231372405047
 21
146.99756490803151
 31
0.0
  0
LINE
  5
1956
  8
0
 62
     0
 10
611.44971285172073
 20
143.2749640357018
 30
0.0
 11
614.57231372405045
 21
146.39756490803151
 31
0.0
  0
LINE
  5
1957
  8
0
 62
     0
 10
614.57231372405045
 20
148.5188852515912
 30
0.0
 11
615.17231372405035
 21
149.11888525159111
 31
0.0
  0
LINE
  5
1958
  8
0
 62
     0
 10
611.07231372405045
 20
145.018885251591
 30
0.0
 11
614.57231372405045
 21
148.51888525159109
 31
0.0
  0
LINE
  5
1959
  8
0
 62
     0
 10
613.57231372405045
 20
149.6402055951508
 30
0.0
 11
614.57231372405045
 21
150.64020559515069
 31
0.0
  0
LINE
  5
195A
  8
0
 62
     0
 10
614.57231372405045
 20
150.6402055951508
 30
0.0
 11
615.17231372405035
 21
151.24020559515071
 31
0.0
  0
LINE
  5
195B
  8
0
 62
     0
 10
611.07231372405045
 20
147.14020559515069
 30
0.0
 11
611.98447129227168
 21
148.05236316337209
 31
0.0
  0
LINE
  5
195C
  8
0
 62
     0
 10
614.57231372405045
 20
152.76152593871049
 30
0.0
 11
615.17231372405035
 21
153.3615259387104
 31
0.0
  0
LINE
  5
195D
  8
0
 62
     0
 10
613.57231372405045
 20
151.76152593871041
 30
0.0
 11
614.57231372405045
 21
152.76152593871041
 31
0.0
  0
LINE
  5
195E
  8
0
 62
     0
 10
613.57231372405045
 20
153.88284628227009
 30
0.0
 11
613.74183060515236
 21
154.05236316337201
 31
0.0
  0
ENDBLK
  5
1960
  8
0
  0
BLOCK
  8
0
  2
*X3
 70
     1
 10
0.0
 20
0.0
 30
0.0
  3
*X3
  1

  0
LINE
  5
1962
  8
0
 62
     0
 10
728.65809832939306
 20
141.05236316337209
 30
0.0
 11
728.98528253361519
 21
141.3795473675942
 31
0.0
  0
LINE
  5
1963
  8
0
 62
     0
 10
728.23528253361542
 20
142.75086771115389
 30
0.0
 11
728.98528253361542
 21
143.50086771115389
 31
0.0
  0
LINE
  5
1964
  8
0
 62
     0
 10
726.63603025972452
 20
141.1516154372631
 30
0.0
 11
728.23528253361508
 21
142.7508677111538
 31
0.0
  0
LINE
  5
1965
  8
0
 62
     0
 10
728.23528253361542
 20
144.8721880547136
 30
0.0
 11
728.98528253361519
 21
145.62218805471349
 31
0.0
  0
LINE
  5
1966
  8
0
 62
     0
 10
725.57537008794475
 20
142.21227560904279
 30
0.0
 11
728.23528253361508
 21
144.8721880547134
 31
0.0
  0
LINE
  5
1967
  8
0
 62
     0
 10
728.2352825336153
 20
146.99350839827321
 30
0.0
 11
728.98528253361542
 21
147.74350839827321
 31
0.0
  0
LINE
  5
1968
  8
0
 62
     0
 10
724.51470991616475
 20
143.27293578082271
 30
0.0
 11
728.23528253361508
 21
146.99350839827309
 31
0.0
  0
LINE
  5
1969
  8
0
 62
     0
 10
727.23528253361542
 20
148.11482874183289
 30
0.0
 11
728.23528253361508
 21
149.1148287418327
 31
0.0
  0
LINE
  5
196A
  8
0
 62
     0
 10
728.2352825336153
 20
149.11482874183281
 30
0.0
 11
728.98528253361542
 21
149.86482874183289
 31
0.0
  0
LINE
  5
196B
  8
0
 62
     0
 10
724.23528253361542
 20
145.11482874183289
 30
0.0
 11
727.17281695515464
 21
148.05236316337209
 31
0.0
  0
LINE
  5
196C
  8
0
 62
     0
 10
727.23528253361542
 20
150.2361490853925
 30
0.0
 11
728.23528253361508
 21
151.2361490853923
 31
0.0
  0
LINE
  5
196D
  8
0
 62
     0
 10
728.23528253361542
 20
151.23614908539241
 30
0.0
 11
728.98528253361542
 21
151.98614908539241
 31
0.0
  0
LINE
  5
196E
  8
0
 62
     0
 10
724.23528253361542
 20
147.2361490853925
 30
0.0
 11
725.05149661159487
 21
148.05236316337209
 31
0.0
  0
LINE
  5
196F
  8
0
 62
     0
 10
728.23528253361542
 20
153.3574694289521
 30
0.0
 11
728.98528253361542
 21
154.1074694289521
 31
0.0
  0
LINE
  5
1970
  8
0
 62
     0
 10
727.23528253361542
 20
152.3574694289521
 30
0.0
 11
728.23528253361508
 21
153.35746942895199
 31
0.0
  0
LINE
  5
1971
  8
0
 62
     0
 10
727.23528253361542
 20
154.47878977251179
 30
0.0
 11
727.80885592447555
 21
155.05236316337201
 31
0.0
  0
ENDBLK
  5
1973
  8
0
  0
BLOCK
  8
0
  2
*X4
 70
     1
 10
0.0
 20
0.0
 30
0.0
  3
*X4
  1

  0
LINE
  5
1975
  8
0
 62
     0
 10
854.93731894297196
 20
140.05236316337209
 30
0.0
 11
855.16085436302296
 21
140.27589858342341
 31
0.0
  0
LINE
  5
1976
  8
0
 62
     0
 10
854.2608543630231
 20
141.49721892698309
 30
0.0
 11
855.16085436302296
 21
142.39721892698299
 31
0.0
  0
LINE
  5
1977
  8
0
 62
     0
 10
852.81599859941196
 20
140.05236316337201
 30
0.0
 11
854.26085436302276
 21
141.4972189269829
 31
0.0
  0
LINE
  5
1978
  8
0
 62
     0
 10
854.2608543630231
 20
143.6185392705427
 30
0.0
 11
855.16085436302296
 21
144.51853927054259
 31
0.0
  0
LINE
  5
1979
  8
0
 62
     0
 10
851.22776630943781
 20
140.58545121695741
 30
0.0
 11
854.26085436302276
 21
143.61853927054261
 31
0.0
  0
LINE
  5
197A
  8
0
 62
     0
 10
854.26085436302299
 20
145.7398596141023
 30
0.0
 11
855.16085436302296
 21
146.63985961410231
 31
0.0
  0
LINE
  5
197B
  8
0
 62
     0
 10
850.16710613765804
 20
141.64611138873721
 30
0.0
 11
854.26085436302276
 21
145.73985961410219
 31
0.0
  0
LINE
  5
197C
  8
0
 62
     0
 10
854.26085436302299
 20
147.8611799576619
 30
0.0
 11
855.16085436302296
 21
148.76117995766191
 31
0.0
  0
LINE
  5
197D
  8
0
 62
     0
 10
849.26085436302321
 20
142.86117995766199
 30
0.0
 11
854.26085436302276
 21
147.86117995766179
 31
0.0
  0
LINE
  5
197E
  8
0
 62
     0
 10
853.26085436302299
 20
148.98250030122159
 30
0.0
 11
854.26085436302299
 21
149.98250030122151
 31
0.0
  0
LINE
  5
197F
  8
0
 62
     0
 10
854.26085436302299
 20
149.98250030122151
 30
0.0
 11
855.16085436302296
 21
150.8825003012216
 31
0.0
  0
LINE
  5
1980
  8
0
 62
     0
 10
849.2608543630231
 20
144.98250030122171
 30
0.0
 11
852.33071722517354
 21
148.05236316337201
 31
0.0
  0
LINE
  5
1981
  8
0
 62
     0
 10
853.26085436302299
 20
151.10382064478131
 30
0.0
 11
854.2608543630231
 21
152.10382064478119
 31
0.0
  0
LINE
  5
1982
  8
0
 62
     0
 10
854.2608543630231
 20
152.10382064478119
 30
0.0
 11
855.16085436302296
 21
153.0038206447812
 31
0.0
  0
LINE
  5
1983
  8
0
 62
     0
 10
849.2608543630231
 20
147.10382064478119
 30
0.0
 11
850.20939688161377
 21
148.05236316337209
 31
0.0
  0
LINE
  5
1984
  8
0
 62
     0
 10
854.2608543630231
 20
154.22514098834091
 30
0.0
 11
855.16085436302319
 21
155.125140988341
 31
0.0
  0
LINE
  5
1985
  8
0
 62
     0
 10
853.26085436302299
 20
153.22514098834091
 30
0.0
 11
854.2608543630231
 21
154.2251409883408
 31
0.0
  0
LINE
  5
1986
  8
0
 62
     0
 10
853.26085436302299
 20
155.3464613319006
 30
0.0
 11
853.96675619449445
 21
156.05236316337209
 31
0.0
  0
ENDBLK
  5
1988
  8
0
  0
BLOCK
  8
0
  2
*X5
 70
     1
 10
0.0
 20
0.0
 30
0.0
  3
*X5
  1

  0
LINE
  5
198A
  8
0
 62
     0
 10
544.38052292083614
 20
-10.858429305145529
 30
0.0
 11
544.63529337402679
 21
-10.60365885195483
 31
0.0
  0
LINE
  5
198B
  8
0
 62
     0
 10
543.63529337402667
 20
-8.7752317272087321
 30
0.0
 11
544.63529337402679
 21
-7.7752317272086771
 31
0.0
  0
LINE
  5
198C
  8
0
 62
     0
 10
541.55209579608993
 20
-10.85842930514559
 30
0.0
 11
543.63529337402667
 21
-8.7752317272087321
 31
0.0
  0
LINE
  5
198D
  8
0
 62
     0
 10
543.63529337402667
 20
-5.9468046024625201
 30
0.0
 11
544.63529337402679
 21
-4.9468046024625201
 31
0.0
  0
LINE
  5
198E
  8
0
 62
     0
 10
539.67948102268508
 20
-9.9026169538041131
 30
0.0
 11
543.63529337402667
 21
-5.9468046024625201
 31
0.0
  0
LINE
  5
198F
  8
0
 62
     0
 10
543.63529337402667
 20
-3.118377477716308
 30
0.0
 11
544.63529337402679
 21
-2.118377477716308
 31
0.0
  0
LINE
  5
1990
  8
0
 62
     0
 10
538.26526746031209
 20
-8.4884033914310066
 30
0.0
 11
543.63529337402667
 21
-3.118377477716308
 31
0.0
  0
LINE
  5
1991
  8
0
 62
     0
 10
542.63529337402667
 20
-1.2899503529700951
 30
0.0
 11
543.63529337402667
 21
-0.2899503529700951
 31
0.0
  0
LINE
  5
1992
  8
0
 62
     0
 10
543.63529337402667
 20
-0.2899503529700951
 30
0.0
 11
544.63529337402679
 21
0.710049647029905
 31
0.0
  0
LINE
  5
1993
  8
0
 62
     0
 10
538.13529337402667
 20
-5.7899503529700951
 30
0.0
 11
542.06681442185118
 21
-1.8584293051455909
 31
0.0
  0
LINE
  5
1994
  8
0
 62
     0
 10
542.63529337402667
 20
1.538476771776061
 30
0.0
 11
543.63529337402667
 21
2.538476771776117
 31
0.0
  0
LINE
  5
1995
  8
0
 62
     0
 10
543.63529337402667
 20
2.538476771776117
 30
0.0
 11
544.63529337402679
 21
3.538476771776117
 31
0.0
  0
LINE
  5
1996
  8
0
 62
     0
 10
538.13529337402667
 20
-2.9615232282238821
 30
0.0
 11
539.23838729710508
 21
-1.8584293051455909
 31
0.0
  0
LINE
  5
1997
  8
0
 62
     0
 10
543.63529337402667
 20
5.3669038965222171
 30
0.0
 11
544.63529337402679
 21
6.3669038965222731
 31
0.0
  0
LINE
  5
1998
  8
0
 62
     0
 10
542.63529337402667
 20
4.3669038965222171
 30
0.0
 11
543.63529337402667
 21
5.3669038965222171
 31
0.0
  0
ENDBLK
  5
199A
  8
0
  0
BLOCK
  8
0
  2
*X6
 70
     1
 10
0.0
 20
0.0
 30
0.0
  3
*X6
  1

  0
LINE
  5
199C
  8
0
 62
     0
 10
686.76307050716332
 20
-11.85842930514559
 30
0.0
 11
687.39467895937025
 21
-11.226820852938481
 31
0.0
  0
LINE
  5
199D
  8
0
 62
     0
 10
686.39467895937059
 20
-9.3983937281921612
 30
0.0
 11
687.39467895937025
 21
-8.3983937281922731
 31
0.0
  0
LINE
  5
199E
  8
0
 62
     0
 10
683.93464338241711
 20
-11.858429305145529
 30
0.0
 11
686.39467895937025
 21
-9.3983937281922731
 31
0.0
  0
LINE
  5
199F
  8
0
 62
     0
 10
686.39467895937059
 20
-6.5699666034459483
 30
0.0
 11
687.39467895937025
 21
-5.5699666034460611
 31
0.0
  0
LINE
  5
19A0
  8
0
 62
     0
 10
682.00044760852074
 20
-10.964197954295789
 30
0.0
 11
686.39467895937025
 21
-6.5699666034460611
 31
0.0
  0
LINE
  5
19A1
  8
0
 62
     0
 10
686.39467895937059
 20
-3.7415394786997349
 30
0.0
 11
687.39467895937025
 21
-2.741539478699849
 31
0.0
  0
LINE
  5
19A2
  8
0
 62
     0
 10
680.58623404614764
 20
-9.5499843919226919
 30
0.0
 11
686.39467895937025
 21
-3.741539478699849
 31
0.0
  0
LINE
  5
19A3
  8
0
 62
     0
 10
686.39467895937037
 20
-0.913112353953693
 30
0.0
 11
687.39467895937048
 21
0.0868876460463071
 31
0.0
  0
LINE
  5
19A4
  8
0
 62
     0
 10
680.39467895937037
 20
-6.9131123539536921
 30
0.0
 11
686.39467895937025
 21
-0.9131123539537497
 31
0.0
  0
LINE
  5
19A5
  8
0
 62
     0
 10
685.39467895937059
 20
0.9153147707925768
 30
0.0
 11
686.39467895937025
 21
1.9153147707924629
 31
0.0
  0
LINE
  5
19A6
  8
0
 62
     0
 10
686.39467895937025
 20
1.9153147707924629
 30
0.0
 11
687.39467895937025
 21
2.9153147707924632
 31
0.0
  0
LINE
  5
19A7
  8
0
 62
     0
 10
680.39467895937048
 20
-4.0846852292074232
 30
0.0
 11
682.62093488343226
 21
-1.8584293051455909
 31
0.0
  0
LINE
  5
19A8
  8
0
 62
     0
 10
686.39467895937025
 20
4.7437418955386761
 30
0.0
 11
687.39467895937025
 21
5.7437418955386761
 31
0.0
  0
LINE
  5
19A9
  8
0
 62
     0
 10
685.39467895937037
 20
3.743741895538732
 30
0.0
 11
686.39467895937025
 21
4.7437418955386761
 31
0.0
  0
LINE
  5
19AA
  8
0
 62
     0
 10
686.39467895937025
 20
7.572169020284889
 30
0.0
 11
686.96408063393994
 21
8.1415706948544653
 31
0.0
  0
LINE
  5
19AB
  8
0
 62
     0
 10
685.39467895937037
 20
6.572169020284945
 30
0.0
 11
686.39467895937025
 21
7.572169020284889
 31
0.0
  0
ENDBLK
  5
19AD
  8
0
  0
BLOCK
  8
0
  2
*X7
 70
     1
 10
0.0
 20
0.0
 30
0.0
  3
*X7
  1

  0
LINE
  5
19AF
  8
0
 62
     0
 10
858.12555224142704
 20
-15.85842930514559
 30
0.0
 11
859.37253614259737
 21
-14.61144540397526
 31
0.0
  0
LINE
  5
19B0
  8
0
 62
     0
 10
858.12253614259748
 20
-13.033018279228941
 30
0.0
 11
859.37253614259737
 21
-11.783018279229051
 31
0.0
  0
LINE
  5
19B1
  8
0
 62
     0
 10
855.29712511668095
 20
-15.85842930514559
 30
0.0
 11
858.12253614259726
 21
-13.033018279229109
 31
0.0
  0
LINE
  5
19B2
  8
0
 62
     0
 10
858.12253614259748
 20
-10.204591154482779
 30
0.0
 11
859.37253614259737
 21
-8.9545911544828982
 31
0.0
  0
LINE
  5
19B3
  8
0
 62
     0
 10
852.79561706726633
 20
-15.53151022981416
 30
0.0
 11
858.12253614259726
 21
-10.20459115448295
 31
0.0
  0
LINE
  5
19B4
  8
0
 62
     0
 10
858.12253614259748
 20
-7.3761640297365707
 30
0.0
 11
859.37253614259737
 21
-6.1261640297366853
 31
0.0
  0
LINE
  5
19B5
  8
0
 62
     0
 10
851.381403504893
 20
-14.11729666744105
 30
0.0
 11
858.12253614259726
 21
-7.3761640297367421
 31
0.0
  0
LINE
  5
19B6
  8
0
 62
     0
 10
858.12253614259748
 20
-4.5477369049903578
 30
0.0
 11
859.37253614259737
 21
-3.2977369049904719
 31
0.0
  0
LINE
  5
19B7
  8
0
 62
     0
 10
850.62253614259737
 20
-12.04773690499036
 30
0.0
 11
858.12253614259726
 21
-4.5477369049905292
 31
0.0
  0
LINE
  5
19B8
  8
0
 62
     0
 10
858.12253614259748
 20
-1.7193097802442019
 30
0.0
 11
859.37253614259737
 21
-0.4693097802443163
 31
0.0
  0
LINE
  5
19B9
  8
0
 62
     0
 10
850.62253614259737
 20
-9.2193097802441457
 30
0.0
 11
858.12253614259748
 21
-1.719309780244259
 31
0.0
  0
LINE
  5
19BA
  8
0
 62
     0
 10
857.12253614259748
 20
0.1091173445020104
 30
0.0
 11
858.12253614259748
 21
1.1091173445019531
 31
0.0
  0
LINE
  5
19BB
  8
0
 62
     0
 10
858.12253614259748
 20
1.1091173445020099
 30
0.0
 11
859.37253614259737
 21
2.3591173445018958
 31
0.0
  0
LINE
  5
19BC
  8
0
 62
     0
 10
850.62253614259737
 20
-6.3908826554979319
 30
0.0
 11
855.15498949294988
 21
-1.8584293051455909
 31
0.0
  0
LINE
  5
19BD
  8
0
 62
     0
 10
857.12253614259748
 20
2.937544469248166
 30
0.0
 11
858.12253614259748
 21
3.9375444692481092
 31
0.0
  0
LINE
  5
19BE
  8
0
 62
     0
 10
858.12253614259748
 20
3.937544469248166
 30
0.0
 11
859.37253614259737
 21
5.1875444692481087
 31
0.0
  0
LINE
  5
19BF
  8
0
 62
     0
 10
850.62253614259737
 20
-3.5624555307519472
 30
0.0
 11
852.32656236820355
 21
-1.858429305145648
 31
0.0
  0
LINE
  5
19C0
  8
0
 62
     0
 10
858.12253614259748
 20
6.7659715939943794
 30
0.0
 11
859.3725361425976
 21
8.0159715939944363
 31
0.0
  0
LINE
  5
19C1
  8
0
 62
     0
 10
857.12253614259748
 20
5.7659715939943794
 30
0.0
 11
858.12253614259748
 21
6.7659715939943794
 31
0.0
  0
LINE
  5
19C2
  8
0
 62
     0
 10
858.12253614259748
 20
9.5943987187405924
 30
0.0
 11
859.3725361425976
 21
10.844398718740591
 31
0.0
  0
LINE
  5
19C3
  8
0
 62
     0
 10
857.12253614259748
 20
8.5943987187405355
 30
0.0
 11
858.12253614259748
 21
9.5943987187405924
 31
0.0
  0
LINE
  5
19C4
  8
0
 62
     0
 10
857.12253614259748
 20
11.42282584348674
 30
0.0
 11
857.84128099396514
 21
12.1415706948544
 31
0.0
  0
ENDBLK
  5
19C6
  8
0
  0
ENDSEC
  0
SECTION
  2
ENTITIES
  0
LINE
  5
7E1
  8
0
 10
739.2352825336153
 20
155.05236316337201
 30
0.0
 11
727.23528253361542
 21
155.05236316337201
 31
0.0
1001
ACAD
1000
ASC_BOUNDS
1002
{
1070
    19
1005
D0E
1005
D0E
1002
}
  0
LINE
  5
7E2
  8
0
 10
726.7352825336153
 20
141.05236316337201
 30
0.0
 11
739.73528253361542
 21
141.05236316337201
 31
0.0
1001
ACAD
1000
ASC_BOUNDS
1002
{
1070
    19
1005
D0E
1005
D0E
1002
}
  0
LINE
  5
7E3
  8
0
  6
CENTER
 10
733.2352825336153
 20
157.05236316337201
 30
0.0
 11
733.23528253361542
 21
139.05236316337209
 31
0.0
  0
LINE
  5
7E4
  8
0
 10
727.23528253361542
 20
155.05236316337201
 30
0.0
 11
727.23528253361542
 21
148.05236316337201
 31
0.0
1001
ACAD
1000
ASC_BOUNDS
1002
{
1070
    19
1005
D0E
1002
}
  0
LINE
  5
7E5
  8
0
 10
724.23528253361542
 20
143.55236316337209
 30
0.0
 11
726.7352825336153
 21
141.05236316337201
 31
0.0
1001
ACAD
1000
ASC_BOUNDS
1002
{
1070
    19
1005
D0E
1002
}
  0
LINE
  5
7E6
  8
0
 10
727.23528253361542
 20
148.05236316337201
 30
0.0
 11
724.23528253361542
 21
148.05236316337201
 31
0.0
1001
ACAD
1000
ASC_BOUNDS
1002
{
1070
    19
1005
D0E
1002
}
  0
LINE
  5
7E7
  8
0
 10
724.23528253361542
 20
148.05236316337201
 30
0.0
 11
724.23528253361542
 21
143.55236316337209
 31
0.0
1001
ACAD
1000
ASC_BOUNDS
1002
{
1070
    19
1005
D0E
1002
}
  0
LINE
  5
7E8
  8
0
 10
739.2352825336153
 20
148.05236316337201
 30
0.0
 11
739.2352825336153
 21
155.05236316337201
 31
0.0
  0
LINE
  5
7E9
  8
0
 10
742.23528253361542
 20
148.05236316337201
 30
0.0
 11
736.99240178958712
 21
148.05236316337201
 31
0.0
  0
LINE
  5
7EA
  8
0
 10
739.73528253361542
 20
141.05236316337201
 30
0.0
 11
742.23528253361542
 21
143.55236316337209
 31
0.0
  0
LINE
  5
7EB
  8
0
 10
742.23528253361542
 20
143.55236316337209
 30
0.0
 11
742.23528253361542
 21
148.05236316337201
 31
0.0
  0
LINE
  5
7EE
  8
0
 10
728.98528253361542
 20
141.05236316337201
 30
0.0
 11
728.98528253361542
 21
155.05236316337201
 31
0.0
1001
ACAD
1000
ASC_BOUNDS
1002
{
1070
    19
1005
D0E
1002
}
  0
LINE
  5
7EF
  8
0
 10
728.23528253361542
 20
141.05236316337201
 30
0.0
 11
728.23528253361542
 21
155.05236316337201
 31
0.0
1001
ACAD
1000
ASC_BOUNDS
1002
{
1070
    19
1005
D0E
1005
D0E
1002
}
  0
LINE
  5
7F0
  8
0
  6
DASHED
 10
704.02322985958142
 20
141.05236316337201
 30
0.0
 11
704.02322985958142
 21
155.05236316337201
 31
0.0
  0
LINE
  5
7F1
  8
0
  6
DASHED
 10
703.27322985958142
 20
141.05236316337201
 30
0.0
 11
703.27322985958142
 21
155.05236316337201
 31
0.0
  0
LINE
  5
7F2
  8
0
  6
DASHED
 10
694.77322985958142
 20
141.05236316337201
 30
0.0
 11
694.77322985958142
 21
155.05236316337201
 31
0.0
  0
LINE
  5
7F3
  8
0
 10
687.49733685958142
 20
155.05236316337201
 30
0.0
 11
687.49733685958142
 21
148.05236316337201
 31
0.0
  0
LINE
  5
7F4
  8
0
 10
687.49733685958142
 20
148.05236316337201
 30
0.0
 11
685.39671485958127
 21
148.05236316337201
 31
0.0
  0
LINE
  5
7F5
  8
0
 10
685.39671485958127
 20
148.05236316337201
 30
0.0
 11
685.39671485958127
 21
143.55236316337209
 31
0.0
  0
LINE
  5
7F6
  8
0
 10
685.39671485958127
 20
143.55236316337209
 30
0.0
 11
687.14723285958144
 21
141.05236316337201
 31
0.0
  0
LINE
  5
7F7
  8
0
 10
687.14723285958144
 20
141.05236316337201
 30
0.0
 11
710.89922685958129
 21
141.05236316337201
 31
0.0
  0
LINE
  5
7F8
  8
0
 10
710.89922685958129
 20
141.05236316337201
 30
0.0
 11
712.64974485958135
 21
143.55236316337209
 31
0.0
  0
LINE
  5
7F9
  8
0
 10
712.64974485958135
 20
143.55236316337209
 30
0.0
 11
712.64974485958135
 21
148.05236316337201
 31
0.0
  0
LINE
  5
7FA
  8
0
 10
712.64974485958135
 20
148.05236316337201
 30
0.0
 11
710.89922685958129
 21
148.05236316337201
 31
0.0
  0
LINE
  5
7FB
  8
0
 10
710.89922685958129
 20
148.05236316337201
 30
0.0
 11
710.89922685958129
 21
155.05236316337201
 31
0.0
  0
LINE
  5
7FC
  8
0
 10
710.89922685958129
 20
155.05236316337201
 30
0.0
 11
687.49733685958142
 21
155.05236316337201
 31
0.0
  0
LINE
  5
7FD
  8
0
 10
695.89982785958136
 20
155.05236316337201
 30
0.0
 11
695.89982785958136
 21
148.05236316337201
 31
0.0
  0
LINE
  5
7FE
  8
0
 10
695.89982785958136
 20
148.05236316337201
 30
0.0
 11
710.89922685958129
 21
148.05236316337201
 31
0.0
  0
LINE
  5
7FF
  8
0
 10
698.00044985958141
 20
148.05236316337201
 30
0.0
 11
698.00044985958141
 21
143.55236316337209
 31
0.0
  0
LINE
  5
800
  8
0
 10
698.00044985958141
 20
143.55236316337209
 30
0.0
 11
696.24993085958135
 21
141.05236316337201
 31
0.0
  0
LINE
  5
801
  8
0
 10
698.00044985958141
 20
143.55236316337209
 30
0.0
 11
712.64974485958135
 21
143.55236316337209
 31
0.0
  0
LINE
  5
802
  8
0
  6
CENTER
 10
699.02322985958142
 20
157.05236316337201
 30
0.0
 11
699.02322985958142
 21
139.05236316337209
 31
0.0
  0
LINE
  5
803
  8
0
  6
DASHED
 10
694.02322985958142
 20
141.05236316337201
 30
0.0
 11
694.02322985958142
 21
155.05236316337201
 31
0.0
  0
LINE
  5
804
  8
0
 10
739.2352825336153
 20
125.0128850890784
 30
0.0
 11
739.2352825336153
 21
113.1016422281692
 31
0.0
  0
LINE
  5
805
  8
0
 10
727.23528253361542
 20
113.8723429499876
 30
0.0
 11
727.23528253361542
 21
101.9611000890784
 31
0.0
  0
LINE
  5
806
  8
0
 10
724.23528253361542
 20
99.860477089078429
 30
0.0
 11
724.23528253361542
 21
114.5097720890784
 31
0.0
  0
LINE
  5
807
  8
0
 10
742.23528253361542
 20
112.4642130890783
 30
0.0
 11
724.23528253361542
 21
99.860477089078429
 31
0.0
  0
LINE
  5
808
  8
0
 10
742.23528253361542
 20
127.11350808907839
 30
0.0
 11
742.23528253361542
 21
112.4642130890783
 31
0.0
  0
LINE
  5
809
  8
0
 10
724.23528253361542
 20
114.5097720890784
 30
0.0
 11
742.23528253361542
 21
127.11350808907839
 31
0.0
  0
LINE
  5
80A
  8
0
  6
CENTER
 10
733.23528253361542
 20
118.9869930890784
 30
0.0
 11
733.23528253361542
 21
107.9869930890784
 31
0.0
  0
LINE
  5
80D
  8
0
  6
CENTER
 10
727.73528253361542
 20
113.4869930890784
 30
0.0
 11
738.73528253361542
 21
113.4869930890784
 31
0.0
  0
ARC
  5
80E
  8
0
 10
733.23528253361542
 20
113.4869930890784
 30
0.0
 40
5.0
 50
90.0
 51
0.0
  0
LINE
  5
85C
  8
0
 10
611.07231372405045
 20
148.05236316337201
 30
0.0
 11
611.07231372405045
 21
143.65236316337209
 31
0.0
1001
ACAD
1000
ASC_BOUNDS
1002
{
1070
    19
1005
BC9
1002
}
  0
LINE
  5
85D
  8
0
 10
611.07231372405045
 20
143.65236316337209
 30
0.0
 11
612.67231372405058
 21
142.05236316337201
 31
0.0
1001
ACAD
1000
ASC_BOUNDS
1002
{
1070
    19
1005
BC9
1002
}
  0
LINE
  5
85E
  8
0
 10
612.67231372405058
 20
142.05236316337201
 30
0.0
 11
624.47231372405054
 21
142.05236316337201
 31
0.0
1001
ACAD
1000
ASC_BOUNDS
1002
{
1070
    19
1005
BC9
1005
BC9
1002
}
  0
LINE
  5
85F
  8
0
 10
624.47231372405054
 20
142.05236316337201
 30
0.0
 11
626.07231372405045
 21
143.65236316337209
 31
0.0
  0
LINE
  5
860
  8
0
 10
626.07231372405045
 20
143.65236316337209
 30
0.0
 11
626.07231372405045
 21
148.05236316337201
 31
0.0
  0
LINE
  5
861
  8
0
 10
626.07231372405045
 20
148.05236316337201
 30
0.0
 11
621.73281333542855
 21
148.05236316337201
 31
0.0
  0
LINE
  5
862
  8
0
 10
623.57231372405045
 20
148.05236316337201
 30
0.0
 11
623.57231372405045
 21
154.05236316337201
 31
0.0
  0
LINE
  5
863
  8
0
 10
613.57231372405045
 20
154.05236316337201
 30
0.0
 11
613.57231372405045
 21
148.05236316337201
 31
0.0
1001
ACAD
1000
ASC_BOUNDS
1002
{
1070
    19
1005
BC9
1002
}
  0
LINE
  5
864
  8
0
 10
613.57231372405045
 20
148.05236316337201
 30
0.0
 11
611.07231372405045
 21
148.05236316337201
 31
0.0
1001
ACAD
1000
ASC_BOUNDS
1002
{
1070
    19
1005
BC9
1002
}
  0
LINE
  5
865
  8
0
 10
623.57231372405045
 20
154.05236316337201
 30
0.0
 11
613.57231372405045
 21
154.05236316337201
 31
0.0
1001
ACAD
1000
ASC_BOUNDS
1002
{
1070
    19
1005
BC9
1005
BC9
1002
}
  0
LINE
  5
866
  8
0
  6
CENTER
 10
618.57231372405045
 20
140.05236316337201
 30
0.0
 11
618.57231372405045
 21
156.05236316337209
 31
0.0
  0
LINE
  5
869
  8
0
 10
615.17231372405047
 20
142.05236316337201
 30
0.0
 11
615.17231372405047
 21
154.05236316337201
 31
0.0
1001
ACAD
1000
ASC_BOUNDS
1002
{
1070
    19
1005
BC9
1002
}
  0
LINE
  5
86A
  8
0
 10
614.57231372405045
 20
142.05236316337201
 30
0.0
 11
614.57231372405045
 21
154.05236316337201
 31
0.0
1001
ACAD
1000
ASC_BOUNDS
1002
{
1070
    19
1005
BC9
1005
BC9
1002
}
  0
LINE
  5
86B
  8
0
  6
DASHED
 10
592.51658000070506
 20
142.05236316337201
 30
0.0
 11
592.51658000070506
 21
154.05236316337201
 31
0.0
  0
LINE
  5
86C
  8
0
  6
DASHED
 10
591.91658000070515
 20
142.05236316337201
 30
0.0
 11
591.91658000070515
 21
154.05236316337201
 31
0.0
  0
LINE
  5
86D
  8
0
  6
DASHED
 10
585.11658000070508
 20
142.05236316337201
 30
0.0
 11
585.11658000070508
 21
154.05236316337201
 31
0.0
  0
LINE
  5
86E
  8
0
  6
DASHED
 10
584.51658000070506
 20
142.05236316337201
 30
0.0
 11
584.51658000070506
 21
154.05236316337201
 31
0.0
  0
LINE
  5
86F
  8
0
 10
578.28148300070507
 20
142.05236316337201
 30
0.0
 11
577.16115100070522
 21
143.65236316337209
 31
0.0
  0
LINE
  5
870
  8
0
 10
577.16115100070522
 20
143.65236316337209
 30
0.0
 11
577.16115100070522
 21
148.05236316337201
 31
0.0
  0
LINE
  5
871
  8
0
 10
577.16115100070522
 20
148.05236316337201
 30
0.0
 11
578.91166900070505
 21
148.05236316337201
 31
0.0
  0
LINE
  5
872
  8
0
 10
578.91166900070505
 20
148.05236316337201
 30
0.0
 11
578.91166900070505
 21
154.05236316337201
 31
0.0
  0
LINE
  5
873
  8
0
 10
578.91166900070505
 20
154.05236316337201
 30
0.0
 11
598.12149100070519
 21
154.05236316337201
 31
0.0
  0
LINE
  5
874
  8
0
 10
598.12149100070519
 20
154.05236316337201
 30
0.0
 11
598.12149100070519
 21
148.05236316337201
 31
0.0
  0
LINE
  5
875
  8
0
 10
598.12149100070519
 20
148.05236316337201
 30
0.0
 11
599.87200900070513
 21
148.05236316337201
 31
0.0
  0
LINE
  5
876
  8
0
 10
599.87200900070513
 20
148.05236316337201
 30
0.0
 11
599.87200900070513
 21
143.65236316337209
 31
0.0
  0
LINE
  5
877
  8
0
 10
599.87200900070513
 20
143.65236316337209
 30
0.0
 11
598.75167700070517
 21
142.05236316337201
 31
0.0
  0
LINE
  5
878
  8
0
 10
598.75167700070517
 20
142.05236316337201
 30
0.0
 11
578.28148300070507
 21
142.05236316337201
 31
0.0
  0
LINE
  5
879
  8
0
 10
585.91374500070515
 20
154.05236316337201
 30
0.0
 11
585.91374500070515
 21
148.05236316337201
 31
0.0
  0
LINE
  5
87A
  8
0
 10
585.91374500070515
 20
148.05236316337201
 30
0.0
 11
598.12149100070519
 21
148.05236316337201
 31
0.0
  0
LINE
  5
87B
  8
0
 10
587.6642640007052
 20
148.05236316337201
 30
0.0
 11
587.6642640007052
 21
143.65236316337209
 31
0.0
  0
LINE
  5
87C
  8
0
 10
587.6642640007052
 20
143.65236316337209
 30
0.0
 11
586.54393200070513
 21
142.05236316337201
 31
0.0
  0
LINE
  5
87D
  8
0
 10
587.6642640007052
 20
143.65236316337209
 30
0.0
 11
599.87200900070513
 21
143.65236316337209
 31
0.0
  0
LINE
  5
87E
  8
0
  6
CENTER
 10
588.51658000070506
 20
140.05236316337201
 30
0.0
 11
588.51658000070506
 21
156.05236316337209
 31
0.0
  0
LINE
  5
87F
  8
0
  6
CENTER
 10
618.57231372405045
 20
118.1869930890784
 30
0.0
 11
618.57231372405045
 21
108.78699308907829
 31
0.0
  0
LINE
  5
882
  8
0
  6
CENTER
 10
613.87231372405063
 20
113.4869930890784
 30
0.0
 11
623.27231372405049
 21
113.4869930890784
 31
0.0
  0
LINE
  5
883
  8
0
 10
623.57231372405045
 20
123.0919030890784
 30
0.0
 11
623.57231372405045
 21
113.1297726068648
 31
0.0
  0
LINE
  5
884
  8
0
 10
613.57231372405045
 20
113.84421257129181
 30
0.0
 11
613.57231372405045
 21
103.8820820890783
 31
0.0
  0
LINE
  5
885
  8
0
 10
626.07231372405045
 20
112.6346760890784
 30
0.0
 11
626.07231372405045
 21
124.8424220890783
 31
0.0
  0
LINE
  5
886
  8
0
 10
611.07231372405045
 20
102.1315630890784
 30
0.0
 11
626.07231372405045
 21
112.6346760890784
 31
0.0
  0
LINE
  5
887
  8
0
 10
611.07231372405045
 20
114.3393090890783
 30
0.0
 11
611.07231372405045
 21
102.1315630890784
 31
0.0
  0
LINE
  5
888
  8
0
 10
611.07231372405045
 20
114.3393090890783
 30
0.0
 11
626.07231372405045
 21
124.8424220890783
 31
0.0
  0
ARC
  5
88A
  8
0
 10
618.57231372405045
 20
113.4869930890784
 30
0.0
 40
4.0
 50
90.0
 51
0.0
  0
LINE
  5
8C6
  8
0
 10
867.26085436302299
 20
156.05236316337209
 30
0.0
 11
853.26085436302299
 21
156.05236316337209
 31
0.0
1001
ACAD
1000
ASC_BOUNDS
1002
{
1070
    19
1005
E32
1005
E32
1002
}
  0
LINE
  5
8C7
  8
0
 10
851.7608543630231
 20
140.05236316337201
 30
0.0
 11
868.7608543630231
 21
140.05236316337201
 31
0.0
1001
ACAD
1000
ASC_BOUNDS
1002
{
1070
    19
1005
E32
1005
E32
1002
}
  0
LINE
  5
8C8
  8
0
  6
CENTER
 10
860.26085436302321
 20
158.05236316337201
 30
0.0
 11
860.26085436302299
 21
138.05236316337209
 31
0.0
  0
LINE
  5
8C9
  8
0
 10
853.26085436302299
 20
156.05236316337209
 30
0.0
 11
853.26085436302299
 21
148.05236316337201
 31
0.0
1001
ACAD
1000
ASC_BOUNDS
1002
{
1070
    19
1005
E32
1002
}
  0
LINE
  5
8CA
  8
0
 10
849.2608543630231
 20
142.55236316337201
 30
0.0
 11
851.7608543630231
 21
140.05236316337201
 31
0.0
1001
ACAD
1000
ASC_BOUNDS
1002
{
1070
    19
1005
E32
1002
}
  0
LINE
  5
8CB
  8
0
 10
853.26085436302299
 20
148.05236316337201
 30
0.0
 11
849.2608543630231
 21
148.05236316337201
 31
0.0
1001
ACAD
1000
ASC_BOUNDS
1002
{
1070
    19
1005
E32
1002
}
  0
LINE
  5
8CC
  8
0
 10
849.2608543630231
 20
148.05236316337201
 30
0.0
 11
849.2608543630231
 21
142.55236316337201
 31
0.0
1001
ACAD
1000
ASC_BOUNDS
1002
{
1070
    19
1005
E32
1002
}
  0
LINE
  5
8CD
  8
0
 10
867.26085436302299
 20
148.05236316337201
 30
0.0
 11
867.26085436302299
 21
156.05236316337209
 31
0.0
  0
LINE
  5
8CE
  8
0
 10
871.2608543630231
 20
148.05236316337201
 30
0.0
 11
865.23550073147101
 21
148.05236316337201
 31
0.0
  0
LINE
  5
8CF
  8
0
 10
868.7608543630231
 20
140.05236316337201
 30
0.0
 11
871.2608543630231
 21
142.55236316337201
 31
0.0
  0
LINE
  5
8D0
  8
0
 10
871.2608543630231
 20
142.55236316337201
 30
0.0
 11
871.2608543630231
 21
148.05236316337201
 31
0.0
  0
LINE
  5
8D3
  8
0
 10
855.16085436302296
 20
140.05236316337201
 30
0.0
 11
855.16085436302296
 21
156.05236316337209
 31
0.0
1001
ACAD
1000
ASC_BOUNDS
1002
{
1070
    19
1005
E32
1002
}
  0
LINE
  5
8D4
  8
0
 10
854.2608543630231
 20
140.05236316337201
 30
0.0
 11
854.2608543630231
 21
156.05236316337209
 31
0.0
1001
ACAD
1000
ASC_BOUNDS
1002
{
1070
    19
1005
E32
1005
E32
1002
}
  0
LINE
  5
8D5
  8
0
  6
DASHED
 10
823.57913309300568
 20
140.05236316337201
 30
0.0
 11
823.57913309300568
 21
156.05236316337209
 31
0.0
  0
LINE
  5
8D6
  8
0
  6
DASHED
 10
822.67913309300582
 20
140.05236316337201
 30
0.0
 11
822.67913309300582
 21
156.05236316337209
 31
0.0
  0
LINE
  5
8D7
  8
0
 10
803.08194709300562
 20
140.05236316337201
 30
0.0
 11
801.33142809300568
 21
142.55236316337201
 31
0.0
  0
LINE
  5
8D8
  8
0
 10
801.33142809300568
 20
142.55236316337201
 30
0.0
 11
801.33142809300568
 21
148.05236316337201
 31
0.0
  0
LINE
  5
8D9
  8
0
 10
801.33142809300568
 20
148.05236316337201
 30
0.0
 11
804.13225809300582
 21
148.05236316337201
 31
0.0
  0
LINE
  5
8DA
  8
0
 10
804.13225809300582
 20
148.05236316337201
 30
0.0
 11
804.13225809300582
 21
156.05236316337209
 31
0.0
  0
LINE
  5
8DB
  8
0
 10
804.13225809300582
 20
156.05236316337209
 30
0.0
 11
831.02600809300577
 21
156.05236316337209
 31
0.0
  0
LINE
  5
8DC
  8
0
 10
831.02600809300577
 20
156.05236316337209
 30
0.0
 11
831.02600809300577
 21
148.05236316337201
 31
0.0
  0
LINE
  5
8DD
  8
0
 10
831.02600809300577
 20
148.05236316337201
 30
0.0
 11
833.82683809300579
 21
148.05236316337201
 31
0.0
  0
LINE
  5
8DE
  8
0
 10
833.82683809300579
 20
148.05236316337201
 30
0.0
 11
833.82683809300579
 21
142.55236316337201
 31
0.0
  0
LINE
  5
8DF
  8
0
 10
833.82683809300579
 20
142.55236316337201
 30
0.0
 11
832.07631909300585
 21
140.05236316337201
 31
0.0
  0
LINE
  5
8E0
  8
0
 10
832.07631909300585
 20
140.05236316337201
 30
0.0
 11
803.08194709300562
 21
140.05236316337201
 31
0.0
  0
LINE
  5
8E1
  8
0
 10
813.93516409300582
 20
156.05236316337209
 30
0.0
 11
813.93516409300582
 21
148.05236316337201
 31
0.0
  0
LINE
  5
8E2
  8
0
 10
813.93516409300582
 20
148.05236316337201
 30
0.0
 11
816.73599409300562
 21
148.05236316337201
 31
0.0
  0
LINE
  5
8E3
  8
0
 10
816.73599409300562
 20
148.05236316337201
 30
0.0
 11
816.73599409300562
 21
142.55236316337201
 31
0.0
  0
LINE
  5
8E4
  8
0
 10
816.73599409300562
 20
142.55236316337201
 30
0.0
 11
814.98547509300568
 21
140.05236316337201
 31
0.0
  0
LINE
  5
8E5
  8
0
 10
816.73599409300562
 20
142.55236316337201
 30
0.0
 11
833.82683809300579
 21
142.55236316337201
 31
0.0
  0
LINE
  5
8E6
  8
0
  6
CENTER
 10
817.57913309300579
 20
158.05236316337201
 30
0.0
 11
817.57913309300579
 21
138.05236316337201
 31
0.0
  0
LINE
  5
8E7
  8
0
  6
DASHED
 10
812.47913309300577
 20
140.05236316337201
 30
0.0
 11
812.47913309300577
 21
156.05236316337209
 31
0.0
  0
LINE
  5
8E8
  8
0
  6
DASHED
 10
811.57913309300579
 20
140.05236316337201
 30
0.0
 11
811.57913309300579
 21
156.05236316337209
 31
0.0
  0
LINE
  5
8E9
  8
0
  6
CENTER
 10
860.26085436302299
 20
119.9869930890784
 30
0.0
 11
860.26085436302299
 21
106.9869930890783
 31
0.0
  0
LINE
  5
8EC
  8
0
  6
CENTER
 10
853.7608543630231
 20
113.4869930890783
 30
0.0
 11
866.7608543630231
 21
113.4869930890783
 31
0.0
  0
LINE
  5
8ED
  8
0
 10
867.26085436302299
 20
126.9338680890783
 30
0.0
 11
867.26085436302299
 21
112.31552411880941
 31
0.0
  0
LINE
  5
8EE
  8
0
 10
853.26085436302299
 20
114.6584620593473
 30
0.0
 11
853.26085436302299
 21
100.0401180890784
 31
0.0
  0
LINE
  5
8EF
  8
0
 10
849.2608543630231
 20
97.239288089078414
 30
0.0
 11
849.2608543630231
 21
114.3301320890784
 31
0.0
  0
LINE
  5
8F0
  8
0
 10
871.2608543630231
 20
112.6438540890783
 30
0.0
 11
849.2608543630231
 21
97.239288089078414
 31
0.0
  0
LINE
  5
8F1
  8
0
 10
871.2608543630231
 20
129.73469808907839
 30
0.0
 11
871.2608543630231
 21
112.6438540890783
 31
0.0
  0
LINE
  5
8F2
  8
0
 10
849.2608543630231
 20
114.3301320890784
 30
0.0
 11
871.2608543630231
 21
129.73469808907839
 31
0.0
  0
ARC
  5
8F3
  8
0
 10
860.26085436302299
 20
113.4869930890783
 30
0.0
 40
6.0
 50
90.0
 51
0.0
  0
LINE
  5
930
  8
0
 10
558.63529337402667
 20
7.1415706948544084
 30
0.0
 11
542.63529337402667
 21
7.1415706948544084
 31
0.0
  0
LINE
  5
931
  8
0
 10
540.63529337402679
 20
-10.85842930514559
 30
0.0
 11
560.63529337402667
 21
-10.85842930514559
 31
0.0
  0
LINE
  5
932
  8
0
 10
542.63529337402667
 20
7.1415706948544084
 30
0.0
 11
542.63529337402667
 21
-1.8584293051455909
 31
0.0
  0
LINE
  5
933
  8
0
  6
CENTER
 10
550.63529337402667
 20
9.1415706948544084
 30
0.0
 11
550.63529337402667
 21
-12.85842930514559
 31
0.0
  0
LINE
  5
934
  8
0
 10
542.63529337402667
 20
-1.8584293051455909
 30
0.0
 11
538.13529337402667
 21
-1.8584293051455909
 31
0.0
  0
LINE
  5
935
  8
0
 10
538.13529337402667
 20
-8.3584293051455916
 30
0.0
 11
540.63529337402679
 21
-10.85842930514559
 31
0.0
  0
LINE
  5
936
  8
0
 10
538.13529337402667
 20
-1.8584293051455909
 30
0.0
 11
538.13529337402667
 21
-8.3584293051455916
 31
0.0
  0
LINE
  5
937
  8
0
 10
558.63529337402667
 20
-1.8584293051455909
 30
0.0
 11
558.63529337402667
 21
7.1415706948544084
 31
0.0
  0
LINE
  5
938
  8
0
 10
563.13529337402667
 20
-1.8584293051455909
 30
0.0
 11
556.65006474948893
 21
-1.8584293051455909
 31
0.0
  0
LINE
  5
939
  8
0
 10
560.63529337402667
 20
-10.85842930514559
 30
0.0
 11
563.13529337402667
 21
-8.3584293051455916
 31
0.0
  0
LINE
  5
93A
  8
0
 10
563.13529337402667
 20
-8.3584293051455916
 30
0.0
 11
563.13529337402667
 21
-1.8584293051455909
 31
0.0
  0
LINE
  5
93D
  8
0
 10
544.63529337402679
 20
-10.85842930514559
 30
0.0
 11
544.63529337402679
 21
7.1415706948544084
 31
0.0
  0
LINE
  5
93E
  8
0
 10
543.63529337402667
 20
-10.85842930514559
 30
0.0
 11
543.63529337402667
 21
7.1415706948544084
 31
0.0
  0
LINE
  5
93F
  8
0
  6
DASHED
 10
504.79636541816598
 20
-10.85842930514559
 30
0.0
 11
504.79636541816598
 21
7.1415706948544084
 31
0.0
  0
LINE
  5
940
  8
0
  6
DASHED
 10
503.79636541816592
 20
-10.85842930514559
 30
0.0
 11
503.79636541816592
 21
7.1415706948544084
 31
0.0
  0
LINE
  5
941
  8
0
 10
482.4285084181659
 20
7.1415706948544084
 30
0.0
 11
482.4285084181659
 21
-1.8584293051455909
 31
0.0
  0
LINE
  5
942
  8
0
 10
482.4285084181659
 20
-1.8584293051455909
 30
0.0
 11
479.27757441816601
 21
-1.8584293051455909
 31
0.0
  0
LINE
  5
943
  8
0
 10
479.27757441816601
 20
-1.8584293051455909
 30
0.0
 11
479.27757441816601
 21
-8.3584293051455916
 31
0.0
  0
LINE
  5
944
  8
0
 10
479.27757441816601
 20
-8.3584293051455916
 30
0.0
 11
481.02809341816589
 21
-10.85842930514559
 31
0.0
  0
LINE
  5
945
  8
0
 10
481.02809341816589
 20
-10.85842930514559
 30
0.0
 11
514.56463741816594
 21
-10.85842930514559
 31
0.0
  0
LINE
  5
946
  8
0
 10
514.56463741816594
 20
-10.85842930514559
 30
0.0
 11
516.31515641816588
 21
-8.3584293051455916
 31
0.0
  0
LINE
  5
947
  8
0
 10
516.31515641816588
 20
-8.3584293051455916
 30
0.0
 11
516.31515641816588
 21
-1.8584293051455909
 31
0.0
  0
LINE
  5
948
  8
0
 10
516.31515641816588
 20
-1.8584293051455909
 30
0.0
 11
513.16422241816599
 21
-1.8584293051455909
 31
0.0
  0
LINE
  5
949
  8
0
 10
513.16422241816599
 20
-1.8584293051455909
 30
0.0
 11
513.16422241816599
 21
7.1415706948544084
 31
0.0
  0
LINE
  5
94A
  8
0
 10
513.16422241816599
 20
7.1415706948544084
 30
0.0
 11
482.4285084181659
 21
7.1415706948544084
 31
0.0
  0
LINE
  5
94B
  8
0
 10
493.63182941816592
 20
7.1415706948544084
 30
0.0
 11
493.63182941816592
 21
-1.8584293051455909
 31
0.0
  0
LINE
  5
94C
  8
0
 10
493.63182941816592
 20
-1.8584293051455909
 30
0.0
 11
513.16422241816599
 21
-1.8584293051455909
 31
0.0
  0
LINE
  5
94D
  8
0
 10
496.78276341816593
 20
-1.8584293051455909
 30
0.0
 11
496.78276341816593
 21
-8.3584293051455916
 31
0.0
  0
LINE
  5
94E
  8
0
 10
496.78276341816593
 20
-8.3584293051455916
 30
0.0
 11
495.03224441816599
 21
-10.85842930514559
 31
0.0
  0
LINE
  5
94F
  8
0
 10
496.78276341816593
 20
-8.3584293051455916
 30
0.0
 11
516.31515641816588
 21
-8.3584293051455916
 31
0.0
  0
LINE
  5
950
  8
0
  6
CENTER
 10
497.79636541816581
 20
9.1415706948544084
 30
0.0
 11
497.79636541816592
 21
-12.85842930514559
 31
0.0
  0
LINE
  5
951
  8
0
  6
DASHED
 10
491.79636541816598
 20
-10.85842930514559
 30
0.0
 11
491.79636541816598
 21
7.1415706948544084
 31
0.0
  0
LINE
  5
952
  8
0
  6
DASHED
 10
490.79636541816592
 20
-10.85842930514559
 30
0.0
 11
490.79636541816592
 21
7.1415706948544084
 31
0.0
  0
LINE
  5
953
  8
0
  6
CENTER
 10
550.63529337402667
 20
-41.378494484041987
 30
0.0
 11
550.63529337402667
 21
-56.378494484042001
 31
0.0
  0
LINE
  5
956
  8
0
  6
CENTER
 10
543.13529337402667
 20
-48.878494484042001
 30
0.0
 11
558.13529337402679
 21
-48.878494484042001
 31
0.0
  0
LINE
  5
957
  8
0
 10
558.63529337402667
 20
-33.510637484042029
 30
0.0
 11
558.63529337402667
 21
-50.619513876125268
 31
0.0
  0
LINE
  5
958
  8
0
 10
542.63529337402667
 20
-47.137474911958599
 30
0.0
 11
542.63529337402667
 21
-64.246351484042066
 31
0.0
  0
LINE
  5
959
  8
0
 10
538.13529337402667
 20
-67.397285484042015
 30
0.0
 11
538.13529337402667
 21
-47.864891484041998
 31
0.0
  0
LINE
  5
95A
  8
0
 10
563.13529337402667
 20
-49.892096484042042
 30
0.0
 11
538.13529337402667
 21
-67.397285484042015
 31
0.0
  0
LINE
  5
95B
  8
0
 10
563.13529337402667
 20
-30.359703484042029
 30
0.0
 11
563.13529337402667
 21
-49.892096484042042
 31
0.0
  0
LINE
  5
95C
  8
0
 10
538.13529337402667
 20
-47.864891484041998
 30
0.0
 11
563.13529337402667
 21
-30.359703484042029
 31
0.0
  0
ARC
  5
95D
  8
0
 10
550.63529337402667
 20
-48.878494484042001
 30
0.0
 40
7.0
 50
90.0
 51
0.0
  0
CIRCLE
  5
95E
  8
0
 10
550.63529337402667
 20
-48.878494484042001
 30
0.0
 40
6.0
  0
LINE
  5
99A
  8
0
 10
703.39467895937048
 20
8.1415706948544084
 30
0.0
 11
685.39467895937037
 21
8.1415706948544084
 31
0.0
1001
ACAD
1000
ASC_BOUNDS
1002
{
1070
    19
1005
10B7
1005
10B7
1002
}
  0
LINE
  5
99B
  8
0
 10
682.89467895937048
 20
-11.85842930514559
 30
0.0
 11
705.89467895937037
 21
-11.85842930514559
 31
0.0
1001
ACAD
1000
ASC_BOUNDS
1002
{
1070
    19
1005
10B7
1005
10B7
1002
}
  0
LINE
  5
99C
  8
0
  6
CENTER
 10
694.39467895937037
 20
10.1415706948544
 30
0.0
 11
694.39467895937037
 21
-13.85842930514559
 31
0.0
  0
LINE
  5
99D
  8
0
 10
685.39467895937037
 20
8.1415706948544084
 30
0.0
 11
685.39467895937037
 21
-1.8584293051455909
 31
0.0
1001
ACAD
1000
ASC_BOUNDS
1002
{
1070
    19
1005
10B7
1002
}
  0
LINE
  5
99E
  8
0
 10
680.39467895937037
 20
-1.8584293051455909
 30
0.0
 11
680.39467895937037
 21
-9.3584293051455916
 31
0.0
1001
ACAD
1000
ASC_BOUNDS
1002
{
1070
    19
1005
10B7
1002
}
  0
LINE
  5
99F
  8
0
 10
680.39467895937037
 20
-9.3584293051455916
 30
0.0
 11
682.89467895937048
 21
-11.85842930514559
 31
0.0
1001
ACAD
1000
ASC_BOUNDS
1002
{
1070
    19
1005
10B7
1002
}
  0
LINE
  5
9A0
  8
0
 10
685.39467895937037
 20
-1.8584293051455909
 30
0.0
 11
680.39467895937037
 21
-1.8584293051455909
 31
0.0
1001
ACAD
1000
ASC_BOUNDS
1002
{
1070
    19
1005
10B7
1002
}
  0
LINE
  5
9A1
  8
0
 10
703.39467895937048
 20
-1.8584293051455909
 30
0.0
 11
703.39467895937048
 21
8.1415706948544084
 31
0.0
  0
LINE
  5
9A2
  8
0
 10
708.39467895937048
 20
-9.3584293051455916
 30
0.0
 11
708.39467895937048
 21
-1.8584293051455909
 31
0.0
  0
LINE
  5
9A3
  8
0
 10
705.89467895937037
 20
-11.85842930514559
 30
0.0
 11
708.39467895937048
 21
-9.3584293051455916
 31
0.0
  0
LINE
  5
9A4
  8
0
 10
708.39467895937048
 20
-1.8584293051455909
 30
0.0
 11
700.91736838203133
 21
-1.8584293051455909
 31
0.0
  0
LINE
  5
9A7
  8
0
 10
687.39467895937048
 20
-11.85842930514559
 30
0.0
 11
687.39467895937048
 21
8.1415706948544084
 31
0.0
1001
ACAD
1000
ASC_BOUNDS
1002
{
1070
    19
1005
10B7
1002
}
  0
LINE
  5
9A8
  8
0
 10
686.39467895937037
 20
-11.85842930514559
 30
0.0
 11
686.39467895937037
 21
8.1415706948544084
 31
0.0
1001
ACAD
1000
ASC_BOUNDS
1002
{
1070
    19
1005
10B7
1005
10B7
1002
}
  0
LINE
  5
9A9
  8
0
  6
DASHED
 10
647.75308735051397
 20
-11.85842930514559
 30
0.0
 11
647.75308735051397
 21
8.1415706948544084
 31
0.0
  0
LINE
  5
9AA
  8
0
  6
DASHED
 10
646.75308735051408
 20
-11.85842930514559
 30
0.0
 11
646.75308735051408
 21
8.1415706948544084
 31
0.0
  0
LINE
  5
9AB
  8
0
 10
622.46424835051403
 20
8.1415706948544084
 30
0.0
 11
622.46424835051403
 21
-1.8584293051455909
 31
0.0
  0
LINE
  5
9AC
  8
0
 10
622.46424835051403
 20
-1.8584293051455909
 30
0.0
 11
618.96321035051403
 21
-1.8584293051455909
 31
0.0
  0
LINE
  5
9AD
  8
0
 10
618.96321035051403
 20
-1.8584293051455909
 30
0.0
 11
618.96321035051403
 21
-9.3584293051455916
 31
0.0
  0
LINE
  5
9AE
  8
0
 10
618.96321035051403
 20
-9.3584293051455916
 30
0.0
 11
620.71372935051409
 21
-11.85842930514559
 31
0.0
  0
LINE
  5
9AF
  8
0
 10
620.71372935051409
 20
-11.85842930514559
 30
0.0
 11
658.79244535051407
 21
-11.85842930514559
 31
0.0
  0
LINE
  5
9B0
  8
0
 10
658.79244535051407
 20
-11.85842930514559
 30
0.0
 11
660.54296435051413
 21
-9.3584293051455916
 31
0.0
  0
LINE
  5
9B1
  8
0
 10
660.54296435051413
 20
-9.3584293051455916
 30
0.0
 11
660.54296435051413
 21
-1.8584293051455909
 31
0.0
  0
LINE
  5
9B2
  8
0
 10
660.54296435051413
 20
-1.8584293051455909
 30
0.0
 11
657.04192635051413
 21
-1.8584293051455909
 31
0.0
  0
LINE
  5
9B3
  8
0
 10
657.04192635051413
 20
-1.8584293051455909
 30
0.0
 11
657.04192635051413
 21
8.1415706948544084
 31
0.0
  0
LINE
  5
9B4
  8
0
 10
657.04192635051413
 20
8.1415706948544084
 30
0.0
 11
622.46424835051403
 21
8.1415706948544084
 31
0.0
  0
LINE
  5
9B5
  8
0
 10
635.06798435051405
 20
8.1415706948544084
 30
0.0
 11
635.06798435051405
 21
-1.8584293051455909
 31
0.0
  0
LINE
  5
9B6
  8
0
 10
635.06798435051405
 20
-1.8584293051455909
 30
0.0
 11
657.04192635051413
 21
-1.8584293051455909
 31
0.0
  0
LINE
  5
9B7
  8
0
 10
638.56902135051405
 20
-1.8584293051455909
 30
0.0
 11
638.56902135051405
 21
-9.3584293051455916
 31
0.0
  0
LINE
  5
9B8
  8
0
 10
638.56902135051405
 20
-9.3584293051455916
 30
0.0
 11
636.81850235051411
 21
-11.85842930514559
 31
0.0
  0
LINE
  5
9B9
  8
0
 10
638.56902135051405
 20
-9.3584293051455916
 30
0.0
 11
660.54296435051413
 21
-9.3584293051455916
 31
0.0
  0
LINE
  5
9BA
  8
0
  6
CENTER
 10
639.75308735051397
 20
10.1415706948544
 30
0.0
 11
639.75308735051397
 21
-13.85842930514559
 31
0.0
  0
LINE
  5
9BB
  8
0
  6
DASHED
 10
632.75308735051397
 20
-11.85842930514559
 30
0.0
 11
632.75308735051397
 21
8.1415706948544084
 31
0.0
  0
LINE
  5
9BC
  8
0
  6
DASHED
 10
631.75308735051397
 20
-11.85842930514559
 30
0.0
 11
631.75308735051397
 21
8.1415706948544084
 31
0.0
  0
LINE
  5
9BD
  8
0
  6
CENTER
 10
694.39467895937037
 20
-41.919718920402829
 30
0.0
 11
694.39467895937037
 21
-60.919718920402829
 31
0.0
  0
LINE
  5
9C0
  8
0
  6
CENTER
 10
684.89467895937025
 20
-51.419718920402829
 30
0.0
 11
703.89467895937048
 21
-51.419718920402829
 31
0.0
  0
LINE
  5
9C1
  8
0
 10
685.39467895937059
 20
-49.758853098484011
 30
0.0
 11
685.39467895937037
 21
-68.708557920402825
 31
0.0
  0
LINE
  5
9C2
  8
0
 10
703.39467895937048
 20
-34.130879920402833
 30
0.0
 11
703.39467895937048
 21
-53.08058474232152
 31
0.0
  0
LINE
  5
9C3
  8
0
 10
708.39467895937048
 20
-52.603784920402859
 30
0.0
 11
708.39467895937048
 21
-30.629841920402839
 31
0.0
  0
LINE
  5
9C4
  8
0
 10
680.39467895937037
 20
-72.209595920402819
 30
0.0
 11
708.39467895937048
 21
-52.603784920402859
 31
0.0
  0
LINE
  5
9C5
  8
0
 10
680.39467895937037
 20
-50.235652920402799
 30
0.0
 11
680.39467895937037
 21
-72.209595920402819
 31
0.0
  0
LINE
  5
9C6
  8
0
 10
708.39467895937048
 20
-30.629841920402839
 30
0.0
 11
680.39467895937037
 21
-50.235652920402799
 31
0.0
  0
ARC
  5
9C7
  8
0
 10
694.39467895937037
 20
-51.419718920402829
 30
0.0
 40
8.0
 50
90.0
 51
0.0
  0
LINE
  5
A05
  8
0
 10
879.12253614259737
 20
12.1415706948544
 30
0.0
 11
857.12253614259748
 21
12.1415706948544
 31
0.0
1001
ACAD
1000
ASC_BOUNDS
1002
{
1070
    19
1005
10C4
1005
10C4
1002
}
  0
LINE
  5
A06
  8
0
 10
853.12253614259737
 20
-15.85842930514559
 30
0.0
 11
883.12253614259748
 21
-15.85842930514559
 31
0.0
1001
ACAD
1000
ASC_BOUNDS
1002
{
1070
    19
1005
10C4
1005
10C4
1002
}
  0
LINE
  5
A07
  8
0
  6
CENTER
 10
868.12253614259726
 20
14.1415706948544
 30
0.0
 11
868.12253614259737
 21
-17.858429305145592
 31
0.0
  0
LINE
  5
A08
  8
0
 10
857.12253614259748
 20
12.1415706948544
 30
0.0
 11
857.12253614259748
 21
-1.8584293051455909
 31
0.0
1001
ACAD
1000
ASC_BOUNDS
1002
{
1070
    19
1005
10C4
1002
}
  0
LINE
  5
A09
  8
0
 10
850.62253614259737
 20
-1.8584293051455909
 30
0.0
 11
850.62253614259737
 21
-13.35842930514559
 31
0.0
1001
ACAD
1000
ASC_BOUNDS
1002
{
1070
    19
1005
10C4
1002
}
  0
LINE
  5
A0A
  8
0
 10
850.62253614259737
 20
-13.35842930514559
 30
0.0
 11
853.12253614259737
 21
-15.85842930514559
 31
0.0
1001
ACAD
1000
ASC_BOUNDS
1002
{
1070
    19
1005
10C4
1002
}
  0
LINE
  5
A0B
  8
0
 10
857.12253614259748
 20
-1.8584293051455909
 30
0.0
 11
850.62253614259737
 21
-1.8584293051455909
 31
0.0
1001
ACAD
1000
ASC_BOUNDS
1002
{
1070
    19
1005
10C4
1002
}
  0
LINE
  5
A0C
  8
0
 10
879.12253614259737
 20
-1.8584293051455909
 30
0.0
 11
879.12253614259737
 21
12.1415706948544
 31
0.0
  0
LINE
  5
A0D
  8
0
 10
885.62253614259748
 20
-13.35842930514559
 30
0.0
 11
885.62253614259748
 21
-1.8584293051455909
 31
0.0
  0
LINE
  5
A0E
  8
0
 10
883.12253614259748
 20
-15.85842930514559
 30
0.0
 11
885.62253614259748
 21
-13.35842930514559
 31
0.0
  0
LINE
  5
A0F
  8
0
 10
885.62253614259748
 20
-1.8584293051455909
 30
0.0
 11
876.63677426413904
 21
-1.8584293051455909
 31
0.0
  0
LINE
  5
A12
  8
0
 10
859.37253614259737
 20
-15.85842930514559
 30
0.0
 11
859.37253614259737
 21
12.1415706948544
 31
0.0
1001
ACAD
1000
ASC_BOUNDS
1002
{
1070
    19
1005
10C4
1002
}
  0
LINE
  5
A13
  8
0
 10
858.12253614259748
 20
-15.85842930514559
 30
0.0
 11
858.12253614259748
 21
12.1415706948544
 31
0.0
1001
ACAD
1000
ASC_BOUNDS
1002
{
1070
    19
1005
10C4
1005
10C4
1002
}
  0
LINE
  5
A14
  8
0
  6
DASHED
 10
812.06840214576505
 20
-15.85842930514559
 30
0.0
 11
812.06840214576505
 21
12.1415706948544
 31
0.0
  0
LINE
  5
A15
  8
0
  6
DASHED
 10
810.81840214576505
 20
-15.85842930514559
 30
0.0
 11
810.81840214576505
 21
12.1415706948544
 31
0.0
  0
LINE
  5
A16
  8
0
 10
778.13676814576502
 20
-15.85842930514559
 30
0.0
 11
776.38625014576496
 21
-13.35842930514559
 31
0.0
  0
LINE
  5
A17
  8
0
 10
776.38625014576496
 20
-13.35842930514559
 30
0.0
 11
776.38625014576496
 21
-1.8584293051455909
 31
0.0
  0
LINE
  5
A18
  8
0
 10
776.38625014576496
 20
-1.8584293051455909
 30
0.0
 11
780.93759914576503
 21
-1.8584293051455909
 31
0.0
  0
LINE
  5
A19
  8
0
 10
780.93759914576503
 20
-1.8584293051455909
 30
0.0
 11
780.93759914576503
 21
12.1415706948544
 31
0.0
  0
LINE
  5
A1A
  8
0
 10
780.93759914576503
 20
12.1415706948544
 30
0.0
 11
823.19920514576495
 21
12.1415706948544
 31
0.0
  0
LINE
  5
A1B
  8
0
 10
823.19920514576495
 20
12.1415706948544
 30
0.0
 11
823.19920514576495
 21
-1.8584293051455909
 31
0.0
  0
LINE
  5
A1C
  8
0
 10
823.19920514576495
 20
-1.8584293051455909
 30
0.0
 11
827.75055414576491
 21
-1.8584293051455909
 31
0.0
  0
LINE
  5
A1D
  8
0
 10
827.75055414576491
 20
-1.8584293051455909
 30
0.0
 11
827.75055414576491
 21
-13.35842930514559
 31
0.0
  0
LINE
  5
A1E
  8
0
 10
827.75055414576491
 20
-13.35842930514559
 30
0.0
 11
826.00003614576508
 21
-15.85842930514559
 31
0.0
  0
LINE
  5
A1F
  8
0
 10
826.00003614576508
 20
-15.85842930514559
 30
0.0
 11
778.13676814576502
 21
-15.85842930514559
 31
0.0
  0
LINE
  5
A20
  8
0
 10
796.34216414576497
 20
12.1415706948544
 30
0.0
 11
796.34216414576497
 21
-1.8584293051455909
 31
0.0
  0
LINE
  5
A21
  8
0
 10
796.34216414576497
 20
-1.8584293051455909
 30
0.0
 11
800.89351314576516
 21
-1.8584293051455909
 31
0.0
  0
LINE
  5
A22
  8
0
 10
800.89351314576516
 20
-1.8584293051455909
 30
0.0
 11
800.89351314576516
 21
-13.35842930514559
 31
0.0
  0
LINE
  5
A23
  8
0
 10
800.89351314576516
 20
-13.35842930514559
 30
0.0
 11
799.1429951457651
 21
-15.85842930514559
 31
0.0
  0
LINE
  5
A24
  8
0
 10
800.89351314576516
 20
-1.8584293051455909
 30
0.0
 11
823.19920514576495
 21
-1.8584293051455909
 31
0.0
  0
LINE
  5
A25
  8
0
 10
800.89351314576516
 20
-13.35842930514559
 30
0.0
 11
827.75055414576491
 21
-13.35842930514559
 31
0.0
  0
LINE
  5
A26
  8
0
  6
CENTER
 10
802.06840214576505
 20
14.1415706948544
 30
0.0
 11
802.06840214576505
 21
-17.858429305145592
 31
0.0
  0
LINE
  5
A27
  8
0
  6
DASHED
 10
793.31840214576505
 20
-15.85842930514559
 30
0.0
 11
793.31840214576505
 21
12.1415706948544
 31
0.0
  0
LINE
  5
A28
  8
0
  6
DASHED
 10
792.06840214576505
 20
-15.85842930514559
 30
0.0
 11
792.06840214576505
 21
12.1415706948544
 31
0.0
  0
LINE
  5
A29
  8
0
  6
CENTER
 10
868.12253614259737
 20
-51.917189331844376
 30
0.0
 11
868.12253614259737
 21
-74.917189331844384
 31
0.0
  0
LINE
  5
A2C
  8
0
  6
CENTER
 10
856.62253614259737
 20
-63.417189331844376
 30
0.0
 11
879.62253614259748
 21
-63.417189331844376
 31
0.0
  0
LINE
  5
A2D
  8
0
 10
879.12253614259737
 20
-42.286386331844369
 30
0.0
 11
879.12253614259737
 21
-66.108872234429086
 31
0.0
  0
LINE
  5
A2E
  8
0
 10
857.12253614259748
 20
-60.725506429259759
 30
0.0
 11
857.12253614259748
 21
-84.547992331844398
 31
0.0
  0
LINE
  5
A2F
  8
0
 10
850.62253614259737
 20
-89.099341331844343
 30
0.0
 11
850.62253614259737
 21
-62.242300331844369
 31
0.0
  0
LINE
  5
A30
  8
0
 10
885.62253614259748
 20
-64.592078331844391
 30
0.0
 11
850.62253614259737
 21
-89.099341331844343
 31
0.0
  0
LINE
  5
A31
  8
0
 10
885.62253614259748
 20
-37.735037331844403
 30
0.0
 11
885.62253614259748
 21
-64.592078331844391
 31
0.0
  0
LINE
  5
A32
  8
0
 10
850.62253614259737
 20
-62.242300331844369
 30
0.0
 11
885.62253614259748
 21
-37.735037331844403
 31
0.0
  0
ARC
  5
A33
  8
0
 10
868.12253614259737
 20
-63.417189331844376
 30
0.0
 40
10.0
 50
90.0
 51
0.0
  0
LINE
  5
A71
  8
0
  6
CENTER
 10
518.5137727270768
 20
142.05236316337201
 30
0.0
 11
528.31377272707675
 21
142.05236316337201
 31
0.0
1001
ACAD
1000
ASC_BOUNDS
1002
{
1070
    19
1005
BBD
1005
BBD
1002
}
  0
LINE
  5
A72
  8
0
 10
527.41377272707666
 20
152.05236316337201
 30
0.0
 11
519.41377272707666
 21
152.05236316337201
 31
0.0
1001
ACAD
1000
ASC_BOUNDS
1002
{
1070
    19
1005
BBD
1005
BBD
1002
}
  0
LINE
  5
A73
  8
0
 10
519.41377272707666
 20
152.05236316337201
 30
0.0
 11
519.41377272707666
 21
148.05236316337201
 31
0.0
1001
ACAD
1000
ASC_BOUNDS
1002
{
1070
    19
1005
BBD
1002
}
  0
LINE
  5
A74
  8
0
  6
CENTER
 10
523.41377272707666
 20
154.05236316337201
 30
0.0
 11
523.41377272707666
 21
140.05236316337201
 31
0.0
  0
LINE
  5
A75
  8
0
 10
516.91377272707678
 20
143.65236316337209
 30
0.0
 11
518.5137727270768
 21
142.05236316337201
 31
0.0
1001
ACAD
1000
ASC_BOUNDS
1002
{
1070
    19
1005
BBD
1002
}
  0
LINE
  5
A76
  8
0
 10
519.41377272707666
 20
148.05236316337201
 30
0.0
 11
516.91377272707678
 21
148.05236316337201
 31
0.0
1001
ACAD
1000
ASC_BOUNDS
1002
{
1070
    19
1005
BBD
1002
}
  0
LINE
  5
A77
  8
0
 10
516.91377272707678
 20
148.05236316337201
 30
0.0
 11
516.91377272707678
 21
143.65236316337209
 31
0.0
1001
ACAD
1000
ASC_BOUNDS
1002
{
1070
    19
1005
BBD
1002
}
  0
LINE
  5
A78
  8
0
 10
527.41377272707666
 20
148.05236316337201
 30
0.0
 11
527.41377272707666
 21
152.05236316337201
 31
0.0
  0
LINE
  5
A79
  8
0
 10
528.31377272707675
 20
142.05236316337201
 30
0.0
 11
529.91377272707678
 21
143.65236316337209
 31
0.0
  0
LINE
  5
A7A
  8
0
 10
529.91377272707678
 20
148.05236316337201
 30
0.0
 11
525.80025095879625
 21
148.05236316337201
 31
0.0
  0
LINE
  5
A7B
  8
0
 10
529.91377272707678
 20
143.65236316337209
 30
0.0
 11
529.91377272707678
 21
148.05236316337201
 31
0.0
  0
LINE
  5
A7E
  8
0
 10
520.91377272707678
 20
142.05236316337201
 30
0.0
 11
520.91377272707678
 21
152.05236316337201
 31
0.0
1001
ACAD
1000
ASC_BOUNDS
1002
{
1070
    19
1005
BBD
1002
}
  0
LINE
  5
A7F
  8
0
 10
520.41377272707678
 20
142.05236316337201
 30
0.0
 11
520.41377272707678
 21
152.05236316337201
 31
0.0
1001
ACAD
1000
ASC_BOUNDS
1002
{
1070
    19
1005
BBD
1005
BBD
1002
}
  0
LINE
  5
A80
  8
0
  6
DASHED
 10
501.24148943100067
 20
142.05236316337201
 30
0.0
 11
501.24148943100067
 21
152.05236316337201
 31
0.0
  0
LINE
  5
A81
  8
0
  6
DASHED
 10
500.74148943100067
 20
142.05236316337201
 30
0.0
 11
500.74148943100067
 21
152.05236316337201
 31
0.0
  0
LINE
  5
A82
  8
0
  6
DASHED
 10
495.74148943100062
 20
142.05236316337201
 30
0.0
 11
495.74148943100062
 21
152.05236316337201
 31
0.0
  0
LINE
  5
A83
  8
0
 10
490.5575604310007
 20
152.05236316337201
 30
0.0
 11
505.92541843100059
 21
152.05236316337201
 31
0.0
  0
LINE
  5
A84
  8
0
 10
507.67593643100059
 20
148.05236316337201
 30
0.0
 11
507.67593643100059
 21
143.65236316337209
 31
0.0
  0
LINE
  5
A85
  8
0
 10
506.55560443100069
 20
142.05236316337201
 30
0.0
 11
489.9273744310006
 21
142.05236316337201
 31
0.0
  0
LINE
  5
A86
  8
0
 10
488.8070424310007
 20
143.65236316337209
 30
0.0
 11
488.8070424310007
 21
148.05236316337201
 31
0.0
  0
LINE
  5
A87
  8
0
 10
490.5575604310007
 20
152.05236316337201
 30
0.0
 11
490.5575604310007
 21
148.05236316337201
 31
0.0
  0
LINE
  5
A88
  8
0
 10
490.5575604310007
 20
148.05236316337201
 30
0.0
 11
488.8070424310007
 21
148.05236316337201
 31
0.0
  0
LINE
  5
A89
  8
0
 10
496.15922143100062
 20
152.05236316337201
 30
0.0
 11
496.15922143100062
 21
148.05236316337201
 31
0.0
  0
LINE
  5
A8A
  8
0
 10
505.92541843100059
 20
152.05236316337201
 30
0.0
 11
505.92541843100059
 21
148.05236316337201
 31
0.0
  0
LINE
  5
A8B
  8
0
 10
505.92541843100059
 20
148.05236316337201
 30
0.0
 11
507.67593643100059
 21
148.05236316337201
 31
0.0
  0
LINE
  5
A8C
  8
0
 10
497.90974043100073
 20
143.65236316337209
 30
0.0
 11
497.90974043100073
 21
148.05236316337201
 31
0.0
  0
LINE
  5
A8D
  8
0
 10
497.90974043100073
 20
148.05236316337201
 30
0.0
 11
505.92541843100059
 21
148.05236316337201
 31
0.0
  0
LINE
  5
A8E
  8
0
 10
496.15922143100062
 20
148.05236316337201
 30
0.0
 11
497.90974043100073
 21
148.05236316337201
 31
0.0
  0
LINE
  5
A8F
  8
0
 10
507.67593643100059
 20
143.65236316337209
 30
0.0
 11
497.90974043100073
 21
143.65236316337209
 31
0.0
  0
LINE
  5
A90
  8
0
 10
488.8070424310007
 20
143.65236316337209
 30
0.0
 11
489.9273744310006
 21
142.05236316337201
 31
0.0
  0
LINE
  5
A91
  8
0
 10
497.90974043100073
 20
143.65236316337209
 30
0.0
 11
496.7894084310006
 21
142.05236316337201
 31
0.0
  0
LINE
  5
A92
  8
0
 10
507.67593643100059
 20
143.65236316337209
 30
0.0
 11
506.55560443100069
 21
142.05236316337201
 31
0.0
  0
LINE
  5
A93
  8
0
  6
CENTER
 10
498.24148943100062
 20
154.05236316337201
 30
0.0
 11
498.24148943100062
 21
140.05236316337209
 31
0.0
  0
LINE
  5
A94
  8
0
  6
DASHED
 10
495.24148943100062
 20
142.05236316337201
 30
0.0
 11
495.24148943100062
 21
152.05236316337201
 31
0.0
  0
LINE
  5
A95
  8
0
  6
CENTER
 10
523.41377272707689
 20
117.3869930890784
 30
0.0
 11
523.41377272707666
 21
109.5869930890784
 31
0.0
  0
LINE
  5
A98
  8
0
  6
CENTER
 10
519.51377272707668
 20
113.4869930890784
 30
0.0
 11
527.31377272707675
 21
113.4869930890784
 31
0.0
  0
LINE
  5
A99
  8
0
 10
529.91377272707678
 20
122.9214400890783
 30
0.0
 11
529.91377272707678
 21
113.15524408907839
 31
0.0
  0
LINE
  5
A9A
  8
0
 10
527.41377272707666
 20
121.1709220890784
 30
0.0
 11
527.41377272707666
 21
113.3744714728363
 31
0.0
  0
LINE
  5
A9B
  8
0
 10
516.91377272707678
 20
104.0525460890784
 30
0.0
 11
516.91377272707678
 21
113.8187420890784
 31
0.0
  0
LINE
  5
A9C
  8
0
 10
519.41377272707666
 20
113.5995147053208
 30
0.0
 11
519.41377272707666
 21
105.8030640890783
 31
0.0
  0
ARC
  5
A9E
  8
0
 10
523.41377272707666
 20
113.4869930890784
 30
0.0
 40
3.0
 50
90.0
 51
0.0
  0
LINE
  5
A9F
  8
0
 10
516.91377272707678
 20
113.8187420890784
 30
0.0
 11
529.91377272707678
 21
122.9214400890783
 31
0.0
  0
LINE
  5
AA0
  8
0
 10
529.91377272707678
 20
113.15524408907839
 30
0.0
 11
516.91377272707678
 21
104.0525460890784
 31
0.0
  0
CIRCLE
  5
B6D
  8
0
 10
523.41377272707666
 20
113.4869930890784
 30
0.0
 40
2.5
  0
CIRCLE
  5
B6E
  8
0
 10
618.57231372405045
 20
113.4869930890784
 30
0.0
 40
3.3999999999999999
  0
INSERT
  5
BBD
  8
0
  6
CONTINUOUS
  2
*X1
 10
0.0
 20
0.0
 30
0.0
1001
ACAD
1000
HATCH
1002
{
1070
    19
1000
_USER
1040
1.0
1040
0.7853981633974483
1000
ASC_BOUNDS
1070
     2
1070
     1
1070
     7
1005
A7F
1005
A71
1005
A75
1005
A77
1005
A76
1005
A73
1005
A72
1070
     1
1070
     4
1005
A7E
1005
A71
1005
A7F
1005
A72
1000
ASC_SEEDPOINT
1011
520.69873603597318
1021
1.1635208250519853E+137
1031
2.2001823324378494E+215
1021
148.46832716817329
1031
0.0
1000
R14_HATCH_DATA
1000
BBD
1011
1.0
1021
1.1635208250519853E+137
1031
2.2001823324378494E+215
1021
0.0
1031
0.0
1011
0.0
1021
1.1635208250519853E+137
1031
2.2001823324378494E+215
1021
1.0
1031
0.0
1011
0.0
1021
1.1635208250519853E+137
1031
2.2001823324378494E+215
1021
0.0
1031
1.0
1040
0.0
1010
0.0
1020
0.0
1030
1.0
1000
_USER
1070
     0
1070
     1
1071
        2
1071
        7
1070
     0
1070
     1
1071
        4
1040
520.91377272707678
1040
152.05236316337201
1040
520.41377272707678
1040
152.05236316337201
1040
520.41377272707678
1040
142.05236316337201
1040
520.91377272707678
1040
142.05236316337201
1071
        4
1005
A72
1005
A7F
1005
A71
1005
A7E
1071
        7
1070
     0
1070
     1
1071
        7
1040
519.41377272707666
1040
148.05236316337201
1040
516.91377272707678
1040
148.05236316337201
1040
516.91377272707655
1040
143.65236316337231
1040
518.5137727270768
1040
142.05236316337201
1040
520.41377272707678
1040
142.05236316337201
1040
520.41377272707678
1040
152.05236316337201
1040
519.41377272707666
1040
152.05236316337201
1071
        7
1005
A72
1005
A73
1005
A76
1005
A77
1005
A75
1005
A71
1005
A7F
1070
     0
1070
     0
1040
0.7853981633974483
1040
1.0
1070
     0
1070
     1
1040
0.7853981633974483
1040
0.0
1040
0.0
1040
-0.7071067811865475
1040
0.7071067811865476
1070
     0
1040
0.0402324809178379
1071
        2
1040
520.69873603597318
1040
148.46832716817329
1040
0.0
1040
519.77296596535029
1040
148.42809506934651
1040
0.0
1002
}
  0
INSERT
  5
BC9
  8
0
  6
CONTINUOUS
  2
*X2
 10
0.0
 20
0.0
 30
0.0
1001
ACAD
1000
HATCH
1002
{
1070
    19
1000
_USER
1040
1.5
1040
0.7853981633974483
1000
ASC_BOUNDS
1070
     2
1070
     1
1070
     4
1005
869
1005
85E
1005
86A
1005
865
1070
     1
1070
     7
1005
86A
1005
85E
1005
85D
1005
85C
1005
864
1005
863
1005
865
1000
ASC_SEEDPOINT
1011
613.19971769918868
1021
1.1635208250519853E+137
1031
2.2001823324378494E+215
1021
145.3171248057036
1031
0.0
1000
R14_HATCH_DATA
1000
BC9
1011
1.0
1021
1.1635208250519853E+137
1031
2.2001823324378494E+215
1021
0.0
1031
0.0
1011
0.0
1021
1.1635208250519853E+137
1031
2.2001823324378494E+215
1021
1.0
1031
0.0
1011
0.0
1021
1.1635208250519853E+137
1031
2.2001823324378494E+215
1021
0.0
1031
1.0
1040
0.0
1010
0.0
1020
0.0
1030
1.0
1000
_USER
1070
     0
1070
     1
1071
        2
1071
        7
1070
     0
1070
     1
1071
        7
1040
614.57231372405045
1040
154.05236316337201
1040
613.57231372405045
1040
154.05236316337201
1040
613.57231372405045
1040
148.05236316337201
1040
611.07231372405045
1040
148.05236316337209
1040
611.07231372405045
1040
143.65236316337209
1040
612.67231372405035
1040
142.05236316337201
1040
614.57231372405045
1040
142.05236316337201
1071
        7
1005
865
1005
863
1005
864
1005
85C
1005
85D
1005
85E
1005
86A
1071
        7
1070
     0
1070
     1
1071
        4
1040
614.57231372405045
1040
142.05236316337201
1040
615.17231372405047
1040
142.05236316337201
1040
615.17231372405035
1040
154.05236316337201
1040
614.57231372405045
1040
154.05236316337201
1071
        4
1005
865
1005
86A
1005
85E
1005
869
1070
     0
1070
     0
1040
0.7853981633974483
1040
1.5
1070
     0
1070
     1
1040
0.7853981633974483
1040
-23.971570889818171
1040
0.0
1040
-1.060660171779821
1040
1.060660171779821
1070
     0
1040
0.091022785427558
1071
        2
1040
613.19971769918868
1040
145.3171248057036
1040
0.0
1040
614.83887511518219
1040
144.95303364363991
1040
0.0
1002
}
  0
CIRCLE
  5
D02
  8
0
 10
733.23528253361542
 20
113.4869930890784
 30
0.0
 40
4.25
  0
INSERT
  5
D0E
  8
0
  6
CONTINUOUS
  2
*X3
 10
0.0
 20
0.0
 30
0.0
1001
ACAD
1000
HATCH
1002
{
1070
    19
1000
_USER
1040
1.5
1040
0.7853981633974483
1000
ASC_BOUNDS
1070
     2
1070
     1
1070
     7
1005
7EF
1005
7E2
1005
7E5
1005
7E7
1005
7E6
1005
7E4
1005
7E1
1070
     1
1070
     4
1005
7EE
1005
7E2
1005
7EF
1005
7E1
1000
ASC_SEEDPOINT
1011
728.74684063097391
1021
1.1635208250519853E+137
1031
2.2001823324378494E+215
1021
148.64630409055241
1031
0.0
1000
R14_HATCH_DATA
1000
D0E
1011
1.0
1021
1.1635208250519853E+137
1031
2.2001823324378494E+215
1021
0.0
1031
0.0
1011
0.0
1021
1.1635208250519853E+137
1031
2.2001823324378494E+215
1021
1.0
1031
0.0
1011
0.0
1021
1.1635208250519853E+137
1031
2.2001823324378494E+215
1021
0.0
1031
1.0
1040
0.0
1010
0.0
1020
0.0
1030
1.0
1000
_USER
1070
     0
1070
     1
1071
        2
1071
        7
1070
     0
1070
     1
1071
        4
1040
728.98528253361542
1040
155.05236316337201
1040
728.23528253361542
1040
155.05236316337201
1040
728.2352825336153
1040
141.05236316337201
1040
728.98528253361542
1040
141.05236316337201
1071
        4
1005
7E1
1005
7EF
1005
7E2
1005
7EE
1071
        7
1070
     0
1070
     1
1071
        7
1040
727.23528253361542
1040
148.05236316337201
1040
724.23528253361553
1040
148.05236316337201
1040
724.23528253361542
1040
143.55236316337221
1040
726.73528253361553
1040
141.05236316337201
1040
728.23528253361542
1040
141.05236316337201
1040
728.2352825336153
1040
155.05236316337201
1040
727.23528253361542
1040
155.05236316337201
1071
        7
1005
7E1
1005
7E4
1005
7E6
1005
7E7
1005
7E5
1005
7E2
1005
7EF
1070
     0
1070
     0
1040
0.7853981633974483
1040
1.5
1070
     0
1070
     1
1040
0.7853981633974483
1040
0.0
1040
0.0
1040
-1.060660171779821
1040
1.060660171779821
1070
     0
1040
0.0592989646763169
1071
        2
1040
728.74684063097391
1040
148.64630409055241
1040
0.0
1040
727.56032027171079
1040
148.40910849921841
1040
0.0
1002
}
  0
CIRCLE
  5
DAB
  8
0
 10
860.26085436302299
 20
113.4869930890783
 30
0.0
 40
5.0999999999999988
  0
INSERT
  5
E32
  8
0
  6
CONTINUOUS
  2
*X4
 10
0.0
 20
0.0
 30
0.0
1001
ACAD
1000
HATCH
1002
{
1070
    19
1000
_USER
1040
1.5
1040
0.7853981633974483
1000
ASC_BOUNDS
1070
     2
1070
     1
1070
     7
1005
8D4
1005
8C7
1005
8CA
1005
8CC
1005
8CB
1005
8C9
1005
8C6
1070
     1
1070
     4
1005
8D3
1005
8C7
1005
8D4
1005
8C6
1000
ASC_SEEDPOINT
1011
855.01312104188628
1021
1.1635208250519853E+137
1031
2.2001823324378494E+215
1021
143.9211079040563
1031
0.0
1000
R14_HATCH_DATA
1000
E32
1011
1.0
1021
1.1635208250519853E+137
1031
2.2001823324378494E+215
1021
0.0
1031
0.0
1011
0.0
1021
1.1635208250519853E+137
1031
2.2001823324378494E+215
1021
1.0
1031
0.0
1011
0.0
1021
1.1635208250519853E+137
1031
2.2001823324378494E+215
1021
0.0
1031
1.0
1040
0.0
1010
0.0
1020
0.0
1030
1.0
1000
_USER
1070
     0
1070
     1
1071
        2
1071
        7
1070
     0
1070
     1
1071
        4
1040
855.16085436302319
1040
156.05236316337209
1040
854.2608543630231
1040
156.05236316337201
1040
854.26085436302299
1040
140.05236316337201
1040
855.16085436302296
1040
140.05236316337201
1071
        4
1005
8C6
1005
8D4
1005
8C7
1005
8D3
1071
        7
1070
     0
1070
     1
1071
        7
1040
854.2608543630231
1040
156.05236316337209
1040
853.26085436302299
1040
156.05236316337209
1040
853.26085436302299
1040
148.05236316337201
1040
849.2608543630231
1040
148.05236316337201
1040
849.26085436302321
1040
142.55236316337201
1040
851.7608543630231
1040
140.05236316337209
1040
854.2608543630231
1040
140.05236316337209
1071
        7
1005
8C6
1005
8C9
1005
8CB
1005
8CC
1005
8CA
1005
8C7
1005
8D4
1070
     0
1070
     0
1040
0.7853981633974483
1040
1.5
1070
     0
1070
     1
1040
0.7853981633974483
1040
0.0
1040
0.0
1040
-1.060660171779821
1040
1.060660171779821
1070
     0
1040
0.1833086908107761
1071
        2
1040
855.01312104188628
1040
143.9211079040563
1040
0.0
1040
852.81241254034046
1040
144.10441699642749
1040
0.0
1002
}
  0
INSERT
  5
10AB
  8
0
  6
CONTINUOUS
  2
*X5
 10
0.0
 20
0.0
 30
0.0
1001
ACAD
1000
HATCH
1002
{
1070
    19
1000
_USER
1040
2.0
1040
0.7853981633974483
1000
R14_HATCH_DATA
1000
10AB
1011
1.0
1021
1.1635208250519853E+137
1031
2.2001823324378494E+215
1021
0.0
1031
0.0
1011
0.0
1021
1.1635208250519853E+137
1031
2.2001823324378494E+215
1021
1.0
1031
0.0
1011
0.0
1021
1.1635208250519853E+137
1031
2.2001823324378494E+215
1021
0.0
1031
1.0
1040
0.0
1010
0.0
1020
0.0
1030
1.0
1000
_USER
1070
     0
1070
     0
1071
        2
1071
        7
1070
     0
1070
     1
1071
        4
1040
544.63529337402679
1040
7.1415706948544084
1040
543.63529337402667
1040
7.1415706948544084
1040
543.63529337402667
1040
-10.85842930514559
1040
544.63529337402679
1040
-10.85842930514559
1071
        0
1071
        7
1070
     0
1070
     1
1071
        7
1040
543.63529337402667
1040
7.1415706948544093
1040
542.63529337402667
1040
7.1415706948544084
1040
542.63529337402667
1040
-1.8584293051455909
1040
538.13529337402667
1040
-1.8584293051455909
1040
538.13529337402667
1040
-8.3584293051456022
1040
540.63529337402679
1040
-10.85842930514559
1040
543.63529337402667
1040
-10.85842930514559
1071
        0
1070
     0
1070
     0
1040
0.7853981633974483
1040
2.0
1070
     0
1070
     1
1040
0.7853981633974483
1040
3.6956629004746442
1040
0.0
1040
-1.414213562373094
1040
1.4142135623730949
1070
     0
1040
0.0739955961173287
1071
        2
1040
543.83376288879685
1040
-2.3169796353541861
1040
0.0
1040
542.94541076591406
1040
-3.8708879131635281
1040
0.0
1002
}
  0
INSERT
  5
10B7
  8
0
  6
CONTINUOUS
  2
*X6
 10
0.0
 20
0.0
 30
0.0
1001
ACAD
1000
HATCH
1002
{
1070
    19
1000
_USER
1040
2.0
1040
0.7853981633974483
1000
ASC_BOUNDS
1070
     2
1070
     1
1070
     7
1005
9A8
1005
99B
1005
99F
1005
99E
1005
9A0
1005
99D
1005
99A
1070
     1
1070
     4
1005
9A7
1005
99B
1005
9A8
1005
99A
1000
ASC_SEEDPOINT
1011
687.10924794182051
1021
1.1635208250519853E+137
1031
2.2001823324378494E+215
1021
-6.7529729248409458
1031
0.0
1000
R14_HATCH_DATA
1000
10B7
1011
1.0
1021
1.1635208250519853E+137
1031
2.2001823324378494E+215
1021
0.0
1031
0.0
1011
0.0
1021
1.1635208250519853E+137
1031
2.2001823324378494E+215
1021
1.0
1031
0.0
1011
0.0
1021
1.1635208250519853E+137
1031
2.2001823324378494E+215
1021
0.0
1031
1.0
1040
0.0
1010
0.0
1020
0.0
1030
1.0
1000
_USER
1070
     0
1070
     1
1071
        2
1071
        7
1070
     0
1070
     1
1071
        4
1040
687.39467895937048
1040
8.1415706948544084
1040
686.39467895937037
1040
8.1415706948544084
1040
686.39467895937037
1040
-11.85842930514559
1040
687.39467895937048
1040
-11.85842930514559
1071
        4
1005
99A
1005
9A8
1005
99B
1005
9A7
1071
        7
1070
     0
1070
     1
1071
        7
1040
686.39467895937037
1040
8.1415706948544084
1040
685.39467895937037
1040
8.1415706948544084
1040
685.39467895937037
1040
-1.8584293051455909
1040
680.39467895937048
1040
-1.8584293051455909
1040
680.39467895937037
1040
-9.3584293051455472
1040
682.89467895937025
1040
-11.85842930514559
1040
686.39467895937059
1040
-11.85842930514559
1071
        7
1005
99A
1005
99D
1005
9A0
1005
99E
1005
99F
1005
99B
1005
9A8
1070
     0
1070
     0
1040
0.7853981633974483
1040
2.0
1070
     0
1070
     1
1040
0.7853981633974483
1040
0.0
1040
0.0
1040
-1.414213562373094
1040
1.4142135623730949
1070
     0
1040
0.1461086204339836
1071
        2
1040
687.10924794182051
1040
-6.7529729248409458
1040
0.0
1040
684.47809243123277
1040
-6.8990821144360552
1040
0.0
1002
}
  0
CIRCLE
  5
10B8
  8
0
 10
694.39467895937037
 20
-51.419718920402829
 30
0.0
 40
7.0
  0
INSERT
  5
10C4
  8
0
  6
CONTINUOUS
  2
*X7
 10
0.0
 20
0.0
 30
0.0
1001
ACAD
1000
HATCH
1002
{
1070
    19
1000
_USER
1040
2.0
1040
0.7853981633974483
1000
ASC_BOUNDS
1070
     2
1070
     1
1070
     7
1005
A13
1005
A06
1005
A0A
1005
A09
1005
A0B
1005
A08
1005
A05
1070
     1
1070
     4
1005
A12
1005
A06
1005
A13
1005
A05
1000
ASC_SEEDPOINT
1011
858.89202897298708
1021
1.1635208250519853E+137
1031
2.2001823324378494E+215
1021
-4.4851044733437666
1031
0.0
1000
R14_HATCH_DATA
1000
10C4
1011
1.0
1021
1.1635208250519853E+137
1031
2.2001823324378494E+215
1021
0.0
1031
0.0
1011
0.0
1021
1.1635208250519853E+137
1031
2.2001823324378494E+215
1021
1.0
1031
0.0
1011
0.0
1021
1.1635208250519853E+137
1031
2.2001823324378494E+215
1021
0.0
1031
1.0
1040
0.0
1010
0.0
1020
0.0
1030
1.0
1000
_USER
1070
     0
1070
     1
1071
        2
1071
        7
1070
     0
1070
     1
1071
        4
1040
859.3725361425976
1040
12.1415706948544
1040
858.12253614259748
1040
12.1415706948544
1040
858.12253614259726
1040
-15.85842930514559
1040
859.37253614259737
1040
-15.85842930514559
1071
        4
1005
A05
1005
A13
1005
A06
1005
A12
1071
        7
1070
     0
1070
     1
1071
        7
1040
858.12253614259748
1040
12.1415706948544
1040
857.12253614259748
1040
12.1415706948544
1040
857.12253614259748
1040
-1.8584293051455909
1040
850.62253614259737
1040
-1.8584293051455909
1040
850.62253614259748
1040
-13.358429305145449
1040
853.1225361425976
1040
-15.85842930514559
1040
858.12253614259748
1040
-15.858429305145579
1071
        7
1005
A05
1005
A08
1005
A0B
1005
A09
1005
A0A
1005
A06
1005
A13
1070
     0
1070
     0
1040
0.7853981633974483
1040
2.0
1070
     0
1070
     1
1040
0.7853981633974483
1040
0.0
1040
0.0
1040
-1.414213562373094
1040
1.4142135623730949
1070
     0
1040
0.0663133280752957
1071
        2
1040
858.89202897298708
1040
-4.4851044733437666
1040
0.0
1040
855.57485046971465
1040
-4.8829840878939867
1040
0.0
1002
}
  0
CIRCLE
  5
10C6
  8
0
 10
868.12253614259737
 20
-63.417189331844376
 30
0.0
 40
8.75
  0
LINE
  5
1402
  8
0
 10
527.41377272707666
 20
113.37447147283621
 30
0.0
 11
525.80025095879625
 21
110.2749251373027
 31
0.0
  0
LINE
  5
1403
  8
0
 10
521.02729449535718
 20
116.69906104085401
 30
0.0
 11
519.41377272707666
 21
113.5995147053205
 31
0.0
  0
LINE
  5
1407
  8
0
 10
613.57231372405045
 20
113.84421257129181
 30
0.0
 11
615.41181411267246
 21
117.3778599520944
 31
0.0
  0
LINE
  5
1408
  8
0
 10
623.57231372405045
 20
113.1297726068649
 30
0.0
 11
621.73281333542855
 21
109.5961252260623
 31
0.0
  0
LINE
  5
14DA
  8
0
 10
727.23528253361542
 20
113.8723429499875
 30
0.0
 11
729.4781632776436
 21
118.1808767989238
 31
0.0
  0
LINE
  5
14DB
  8
0
 10
739.2352825336153
 20
113.1016422281693
 30
0.0
 11
736.99240178958689
 21
108.793108379233
 31
0.0
  0
LINE
  5
14DF
  8
0
 10
853.26085436302299
 20
114.6584620593474
 30
0.0
 11
855.28620799457497
 21
118.549130165923
 31
0.0
  0
LINE
  5
14E0
  8
0
 10
867.26085436302299
 20
112.31552411880929
 30
0.0
 11
865.23550073147101
 21
108.4248560122337
 31
0.0
  0
LINE
  5
15B4
  8
0
 10
542.63529337402667
 20
-47.13747491195857
 30
0.0
 11
544.62052245777375
 21
-43.323885310679621
 31
0.0
  0
LINE
  5
15B5
  8
0
 10
558.63529337402667
 20
-50.619513876125467
 30
0.0
 11
556.65006474948882
 21
-54.43310259527189
 31
0.0
  0
LINE
  5
15B9
  8
0
 10
685.39467895937059
 20
-49.758853098483847
 30
0.0
 11
687.87198953670963
 21
-44.999983707273771
 31
0.0
  0
LINE
  5
15BA
  8
0
 10
703.39467895937048
 20
-53.080584742321577
 30
0.0
 11
700.91736838203133
 21
-57.839454133531888
 31
0.0
  0
LINE
  5
168D
  8
0
 10
857.12253614259748
 20
-60.725506429259617
 30
0.0
 11
859.60829802105582
 21
-55.950402342965738
 31
0.0
  0
LINE
  5
168E
  8
0
 10
879.12253614259737
 20
-66.108872234429143
 30
0.0
 11
876.63677426413904
 21
-70.883976320723022
 31
0.0
  0
LINE
  5
19CA
  8
0
 10
525.80025095879625
 20
148.05236316337201
 30
0.0
 11
525.80025095879625
 21
152.05236316337201
 31
0.0
  0
LINE
  5
1A0B
  8
0
 10
621.73281333542855
 20
148.05236316337201
 30
0.0
 11
621.73281333542855
 21
154.05236316337201
 31
0.0
  0
LINE
  5
1A0C
  8
0
 10
736.99240178958689
 20
148.05236316337201
 30
0.0
 11
736.99240178958689
 21
155.05236316337201
 31
0.0
  0
LINE
  5
1A0D
  8
0
 10
865.23550073147101
 20
148.05236316337201
 30
0.0
 11
865.23550073147101
 21
156.05236316337209
 31
0.0
  0
LINE
  5
1A0E
  8
0
 10
556.65006474948882
 20
-1.8584293051455909
 30
0.0
 11
556.65006474948882
 21
7.1415706948544084
 31
0.0
  0
LINE
  5
1A0F
  8
0
 10
700.91736838203133
 20
-1.8584293051455909
 30
0.0
 11
700.91736838203133
 21
8.1415706948544084
 31
0.0
  0
LINE
  5
1A10
  8
0
 10
876.63677426413904
 20
-1.8584293051455909
 30
0.0
 11
876.63677426413904
 21
12.1415706948544
 31
0.0
  0
ENDSEC
  0
EOF
