  0
SECTION
  2
HEADER
  9
$ACADVER
  1
AC1009
  9
$INSBASE
 10
0.0
 20
0.0
 30
0.0
  9
$EXTMIN
 10
-378.724186
 20
-314.273119
 30
0.0
  9
$EXTMAX
 10
262.338817
 20
42.967133
 30
0.0
  9
$LIMMIN
 10
0.0
 20
0.0
  9
$LIMMAX
 10
12.0
 20
9.0
  9
$ORTHOMODE
 70
     1
  9
$REGENMODE
 70
     1
  9
$FILLMODE
 70
     1
  9
$QTEXTMODE
 70
     0
  9
$MIRRTEXT
 70
     1
  9
$DRAGMODE
 70
     2
  9
$LTSCALE
 40
7.0
  9
$OSMODE
 70
     0
  9
$ATTMODE
 70
     1
  9
$TEXTSIZE
 40
0.285307
  9
$TRACEWID
 40
0.05
  9
$TEXTSTYLE
  7
STANDARD
  9
$CLAYER
  8
0
  9
$CELTYPE
  6
BYLAYER
  9
$CECOLOR
 62
   256
  9
$DIMSCALE
 40
1.0
  9
$DIMASZ
 40
2.5
  9
$DIMEXO
 40
0.0
  9
$DIMDLI
 40
5.0
  9
$DIMRND
 40
0.0
  9
$DIMDLE
 40
0.0
  9
$DIMEXE
 40
1.0
  9
$DIMTP
 40
0.0
  9
$DIMTM
 40
0.0
  9
$DIMTXT
 40
2.5
  9
$DIMCEN
 40
0.09
  9
$DIMTSZ
 40
0.0
  9
$DIMTOL
 70
     0
  9
$DIMLIM
 70
     0
  9
$DIMTIH
 70
     0
  9
$DIMTOH
 70
     0
  9
$DIMSE1
 70
     0
  9
$DIMSE2
 70
     0
  9
$DIMTAD
 70
     1
  9
$DIMZIN
 70
     0
  9
$DIMBLK
  1

  9
$DIMASO
 70
     0
  9
$DIMSHO
 70
     0
  9
$DIMPOST
  1

  9
$DIMAPOST
  1

  9
$DIMALT
 70
     0
  9
$DIMALTD
 70
     2
  9
$DIMALTF
 40
25.4
  9
$DIMLFAC
 40
1.0
  9
$DIMTOFL
 70
     1
  9
$DIMTVP
 40
0.0
  9
$DIMTIX
 70
     0
  9
$DIMSOXD
 70
     0
  9
$DIMSAH
 70
     0
  9
$DIMBLK1
  1

  9
$DIMBLK2
  1

  9
$DIMSTYLE
  2
*UNNAMED
  9
$DIMCLRD
 70
     0
  9
$DIMCLRE
 70
     0
  9
$DIMCLRT
 70
     0
  9
$DIMTFAC
 40
1.0
  9
$DIMGAP
 40
0.09
  9
$LUNITS
 70
     2
  9
$LUPREC
 70
     4
  9
$SKETCHINC
 40
0.1
  9
$FILLETRAD
 40
1.0
  9
$AUNITS
 70
     0
  9
$AUPREC
 70
     0
  9
$MENU
  1
wiberger
  9
$ELEVATION
 40
0.0
  9
$PELEVATION
 40
0.0
  9
$THICKNESS
 40
0.0
  9
$LIMCHECK
 70
     0
  9
$BLIPMODE
 70
     1
  9
$CHAMFERA
 40
0.0
  9
$CHAMFERB
 40
0.0
  9
$SKPOLY
 70
     0
  9
$TDCREATE
 40
2450191.328343750
  9
$TDUPDATE
 40
2450218.525674421
  9
$TDINDWG
 40
0.0015295139
  9
$TDUSRTIMER
 40
0.0015295139
  9
$USRTIMER
 70
     1
  9
$ANGBASE
 50
0.0
  9
$ANGDIR
 70
     0
  9
$PDMODE
 70
     0
  9
$PDSIZE
 40
0.0
  9
$PLINEWID
 40
0.0
  9
$COORDS
 70
     0
  9
$SPLFRAME
 70
     0
  9
$SPLINETYPE
 70
     6
  9
$SPLINESEGS
 70
     8
  9
$ATTDIA
 70
     0
  9
$ATTREQ
 70
     1
  9
$HANDLING
 70
     0
  9
$HANDSEED
  5
0
  9
$SURFTAB1
 70
     6
  9
$SURFTAB2
 70
     6
  9
$SURFTYPE
 70
     6
  9
$SURFU
 70
     6
  9
$SURFV
 70
     6
  9
$UCSNAME
  2

  9
$UCSORG
 10
0.0
 20
0.0
 30
0.0
  9
$UCSXDIR
 10
1.0
 20
0.0
 30
0.0
  9
$UCSYDIR
 10
0.0
 20
1.0
 30
0.0
  9
$PUCSNAME
  2

  9
$PUCSORG
 10
0.0
 20
0.0
 30
0.0
  9
$PUCSXDIR
 10
1.0
 20
0.0
 30
0.0
  9
$PUCSYDIR
 10
0.0
 20
1.0
 30
0.0
  9
$USERI1
 70
     0
  9
$USERI2
 70
     0
  9
$USERI3
 70
     0
  9
$USERI4
 70
     0
  9
$USERI5
 70
     0
  9
$USERR1
 40
0.0
  9
$USERR2
 40
0.0
  9
$USERR3
 40
0.0
  9
$USERR4
 40
0.0
  9
$USERR5
 40
0.0
  9
$WORLDVIEW
 70
     1
  9
$SHADEDGE
 70
     3
  9
$SHADEDIF
 70
    70
  9
$TILEMODE
 70
     1
  9
$MAXACTVP
 70
    16
  9
$PINSBASE
 10
0.0
 20
0.0
 30
0.0
  9
$PLIMCHECK
 70
     0
  9
$PEXTMIN
 10
1.000000E+20
 20
1.000000E+20
 30
1.000000E+20
  9
$PEXTMAX
 10
-1.000000E+20
 20
-1.000000E+20
 30
-1.000000E+20
  9
$PLIMMIN
 10
0.0
 20
0.0
  9
$PLIMMAX
 10
12.0
 20
9.0
  9
$UNITMODE
 70
     0
  9
$VISRETAIN
 70
     0
  9
$PLINEGEN
 70
     0
  9
$PSLTSCALE
 70
     0
  9
$TREEDEPTH
 70
  3020
  9
$DWGCODEPAGE
  3
undefined
  0
ENDSEC
  0
SECTION
  2
TABLES
  0
TABLE
  2
VPORT
 70
     2
  0
VPORT
  2
*ACTIVE
 70
     0
 10
0.0
 20
0.0
 11
1.0
 21
1.0
 12
39.37792
 22
-136.568186
 13
0.0
 23
0.0
 14
1.0
 24
1.0
 15
0.0
 25
0.0
 16
0.0
 26
0.0
 36
1.0
 17
0.0
 27
0.0
 37
0.0
 40
513.397363
 41
1.767507
 42
50.0
 43
0.0
 44
0.0
 50
0.0
 51
0.0
 71
     0
 72
   100
 73
     1
 74
     0
 75
     0
 76
     0
 77
     0
 78
     0
  0
ENDTAB
  0
TABLE
  2
LTYPE
 70
     9
  0
LTYPE
  2
CONTINUOUS
 70
    64
  3
Solid line
 72
    65
 73
     0
 40
0.0
  0
LTYPE
  2
CENTER
 70
    64
  3
____ _ ____ _ ____ _ ____ _ ____ _ ____ _ ____
 72
    65
 73
     4
 40
2.0
 49
1.25
 49
-0.25
 49
0.25
 49
-0.25
  0
LTYPE
  2
ST1
 70
     0
  3

 72
    65
 73
     2
 40
7.0
 49
5.0
 49
-2.0
  0
LTYPE
  2
ST2
 70
     0
  3

 72
    65
 73
     2
 40
4.0
 49
3.0
 49
-1.0
  0
LTYPE
  2
CNT2
 70
    64
  3

 72
    65
 73
     4
 40
5.0
 49
3.0
 49
-1.0
 49
0.0
 49
-1.0
  0
LTYPE
  2
PHT
 70
     0
  3

 72
    65
 73
     6
 40
6.0
 49
3.0
 49
-1.0
 49
0.0
 49
-1.0
 49
0.0
 49
-1.0
  0
LTYPE
  2
CNT1
 70
     0
  3
CENTRUMLINJE - LÅNG
 72
    65
 73
     4
 40
25.0
 49
20.0
 49
-2.5
 49
0.0
 49
-2.5
  0
LTYPE
  2
DASHED
 70
    64
  3
__ __ __ __ __ __ __ __ __ __ __ __ __ __ __
 72
    65
 73
     2
 40
0.75
 49
0.5
 49
-0.25
  0
LTYPE
  2
PHANTOM
 70
     0
  3
_____ _ _ _____ _ _ _____ _ _ _____ _ _ ____
 72
    65
 73
     6
 40
2.5
 49
1.25
 49
-0.25
 49
0.25
 49
-0.25
 49
0.25
 49
-0.25
  0
ENDTAB
  0
TABLE
  2
LAYER
 70
     9
  0
LAYER
  2
0
 70
    64
 62
     7
  6
CONTINUOUS
  0
LAYER
  2
KONTUR
 70
     0
 62
     3
  6
CONTINUOUS
  0
LAYER
  2
CL
 70
     0
 62
     1
  6
CENTER
  0
LAYER
  2
TEXT
 70
     0
 62
     2
  6
CONTINUOUS
  0
LAYER
  2
SKYMD
 70
     0
 62
     1
  6
DASHED
  0
LAYER
  2
DIM
 70
     0
 62
     1
  6
CONTINUOUS
  0
LAYER
  2
HATCH
 70
     0
 62
     5
  6
CONTINUOUS
  0
LAYER
  2
SLASK
 70
     0
 62
    10
  6
CONTINUOUS
  0
LAYER
  2
CL2
 70
     0
 62
     1
  6
CNT2
  0
ENDTAB
  0
TABLE
  2
STYLE
 70
    11
  0
STYLE
  2
STANDARD
 70
     0
 40
0.0
 41
1.0
 50
0.0
 71
     0
 42
0.285307
  3
txt
  4

  0
STYLE
  2
ST1
 70
     0
 40
0.0
 41
0.8
 50
0.0
 71
     0
 42
4.83555
  3
simplex
  4

  0
STYLE
  2
ST2
 70
     0
 40
0.0
 41
0.8
 50
10.0
 71
     0
 42
3.5
  3
simplex
  4

  0
STYLE
  2
ST3
 70
     0
 40
0.0
 41
0.8
 50
10.0
 71
     0
 42
5.0
  3
complex
  4

  0
STYLE
  2
LITEN
 70
     0
 40
3.0
 41
0.8
 50
0.0
 71
     0
 42
1.5
  3
SIMPLEX
  4

  0
STYLE
  2
MELLAN
 70
     0
 40
3.5
 41
0.8
 50
15.0
 71
     0
 42
3.5
  3
SIMPLEX
  4

  0
STYLE
  2
STOR
 70
     0
 40
4.0
 41
0.8
 50
15.0
 71
     0
 42
5.0
  3
SIMPLEX
  4

  0
STYLE
  2
LAGOM
 70
     0
 40
3.5
 41
0.7
 50
15.0
 71
     0
 42
2.5
  3
SIMPLEX
  4

  0
STYLE
  2
ROMAND
 70
     0
 40
5.0
 41
1.0
 50
0.0
 71
     0
 42
5.0
  3
romand
  4

  0
STYLE
  2
GOTHICG
 70
     0
 40
10.0
 41
1.0
 50
0.0
 71
     0
 42
10.0
  3
gothicg
  4

  0
STYLE
  2
GOTHICE
 70
     0
 40
10.0
 41
1.0
 50
5.0
 71
     0
 42
10.0
  3
gothice
  4

  0
ENDTAB
  0
TABLE
  2
VIEW
 70
     0
  0
ENDTAB
  0
TABLE
  2
UCS
 70
     0
  0
ENDTAB
  0
TABLE
  2
APPID
 70
     1
  0
APPID
  2
ACAD
 70
    64
  0
ENDTAB
  0
TABLE
  2
DIMSTYLE
 70
     0
  0
ENDTAB
  0
ENDSEC
  0
SECTION
  2
BLOCKS
  0
BLOCK
  8
0
  2
*X0
 70
    65
 10
0.0
 20
0.0
 30
0.0
  3
*X
  0
LINE
  8
0
 62
     0
 10
-78.839624
 20
-42.777178
 30
0.0
 11
-72.671703
 21
-36.609257
 31
0.0
  0
LINE
  8
0
 62
     0
 10
-78.920894
 20
-40.737128
 30
0.0
 11
-72.671703
 21
-34.487937
 31
0.0
  0
LINE
  8
0
 62
     0
 10
-78.752594
 20
-38.447507
 30
0.0
 11
-72.671703
 21
-32.366616
 31
0.0
  0
LINE
  8
0
 62
     0
 10
-78.584293
 20
-36.157886
 30
0.0
 11
-72.671703
 21
-30.245296
 31
0.0
  0
LINE
  8
0
 62
     0
 10
-78.415992
 20
-33.868265
 30
0.0
 11
-72.671703
 21
-28.123976
 31
0.0
  0
LINE
  8
0
 62
     0
 10
-78.247691
 20
-31.578644
 30
0.0
 11
-73.81283
 21
-27.143782
 31
0.0
  0
LINE
  8
0
 62
     0
 10
-78.079391
 20
-29.289023
 30
0.0
 11
-75.93415
 21
-27.143782
 31
0.0
  0
LINE
  8
0
 62
     0
 10
-78.010559
 20
-44.069433
 30
0.0
 11
-72.671703
 21
-38.730577
 31
0.0
  0
LINE
  8
0
 62
     0
 10
-77.917365
 20
-46.09756
 30
0.0
 11
-72.671703
 21
-40.851898
 31
0.0
  0
LINE
  8
0
 62
     0
 10
-77.824171
 20
-48.125687
 30
0.0
 11
-72.671703
 21
-42.973218
 31
0.0
  0
LINE
  8
0
 62
     0
 10
-77.72509
 20
-50.147925
 30
0.0
 11
-72.671703
 21
-45.094538
 31
0.0
  0
LINE
  8
0
 62
     0
 10
-76.793422
 20
-51.337578
 30
0.0
 11
-72.671703
 21
-47.215859
 31
0.0
  0
LINE
  8
0
 62
     0
 10
-74.778306
 20
-51.443782
 30
0.0
 11
-72.671703
 21
-49.337179
 31
0.0
  0
ENDBLK
  8
0
  0
BLOCK
  8
0
  2
*X1
 70
    65
 10
0.0
 20
0.0
 30
0.0
  3
*X
  0
LINE
  8
0
 62
     0
 10
-80.860662
 20
-256.223144
 30
0.0
 11
-74.290081
 21
-249.652562
 31
0.0
  0
LINE
  8
0
 62
     0
 10
-80.62609
 20
-253.160145
 30
0.0
 11
-74.290081
 21
-246.824135
 31
0.0
  0
LINE
  8
0
 62
     0
 10
-80.391518
 20
-250.097146
 30
0.0
 11
-74.290081
 21
-243.995708
 31
0.0
  0
LINE
  8
0
 62
     0
 10
-80.156946
 20
-247.034147
 30
0.0
 11
-74.290081
 21
-241.167281
 31
0.0
  0
LINE
  8
0
 62
     0
 10
-79.922374
 20
-243.971148
 30
0.0
 11
-76.889125
 21
-240.937898
 31
0.0
  0
LINE
  8
0
 62
     0
 10
-81.024945
 20
-259.215854
 30
0.0
 11
-74.290081
 21
-252.48099
 31
0.0
  0
LINE
  8
0
 62
     0
 10
-80.172501
 20
-261.191837
 30
0.0
 11
-74.290081
 21
-255.309417
 31
0.0
  0
LINE
  8
0
 62
     0
 10
-80.016175
 20
-263.863938
 30
0.0
 11
-74.290081
 21
-258.137844
 31
0.0
  0
LINE
  8
0
 62
     0
 10
-79.859849
 20
-266.536039
 30
0.0
 11
-74.290081
 21
-260.966271
 31
0.0
  0
LINE
  8
0
 62
     0
 10
-79.411989
 20
-268.916607
 30
0.0
 11
-74.290081
 21
-263.794698
 31
0.0
  0
LINE
  8
0
 62
     0
 10
-77.104854
 20
-269.437898
 30
0.0
 11
-74.290081
 21
-266.623125
 31
0.0
  0
ENDBLK
  8
0
  0
BLOCK
  8
0
  2
*X2
 70
    65
 10
0.0
 20
0.0
 30
0.0
  3
*X
  0
LINE
  8
0
 62
     0
 10
134.712037
 20
-63.277862
 30
0.0
 11
142.670884
 21
-55.319014
 31
0.0
  0
LINE
  8
0
 62
     0
 10
134.956779
 20
-60.204692
 30
0.0
 11
142.670884
 21
-52.490587
 31
0.0
  0
LINE
  8
0
 62
     0
 10
135.201522
 20
-57.131523
 30
0.0
 11
142.670884
 21
-49.66216
 31
0.0
  0
LINE
  8
0
 62
     0
 10
135.446265
 20
-54.058353
 30
0.0
 11
142.670884
 21
-46.833733
 31
0.0
  0
LINE
  8
0
 62
     0
 10
135.691007
 20
-50.985183
 30
0.0
 11
142.670884
 21
-44.005306
 31
0.0
  0
LINE
  8
0
 62
     0
 10
135.93575
 20
-47.912013
 30
0.0
 11
141.399618
 21
-42.448145
 31
0.0
  0
LINE
  8
0
 62
     0
 10
136.180493
 20
-44.838843
 30
0.0
 11
138.571191
 21
-42.448145
 31
0.0
  0
LINE
  8
0
 62
     0
 10
134.515374
 20
-66.302952
 30
0.0
 11
142.670884
 21
-58.147442
 31
0.0
  0
LINE
  8
0
 62
     0
 10
135.962784
 20
-67.683969
 30
0.0
 11
142.670884
 21
-60.975869
 31
0.0
  0
LINE
  8
0
 62
     0
 10
136.174223
 20
-70.300957
 30
0.0
 11
142.670884
 21
-63.804296
 31
0.0
  0
LINE
  8
0
 62
     0
 10
136.385662
 20
-72.917945
 30
0.0
 11
142.670884
 21
-66.632723
 31
0.0
  0
LINE
  8
0
 62
     0
 10
136.652035
 20
-75.479999
 30
0.0
 11
142.670884
 21
-69.46115
 31
0.0
  0
LINE
  8
0
 62
     0
 10
138.512317
 20
-76.448145
 30
0.0
 11
142.670884
 21
-72.289577
 31
0.0
  0
LINE
  8
0
 62
     0
 10
141.340744
 20
-76.448145
 30
0.0
 11
142.670884
 21
-75.118004
 31
0.0
  0
ENDBLK
  8
0
  0
BLOCK
  8
0
  2
*X3
 70
    65
 10
0.0
 20
0.0
 30
0.0
  3
*X
  0
LINE
  8
0
 62
     0
 10
122.927229
 20
-329.621111
 30
0.0
 11
130.99568
 21
-321.55266
 31
0.0
  0
LINE
  8
0
 62
     0
 10
123.225451
 20
-326.494462
 30
0.0
 11
130.99568
 21
-318.724233
 31
0.0
  0
LINE
  8
0
 62
     0
 10
123.523673
 20
-323.367813
 30
0.0
 11
130.99568
 21
-315.895806
 31
0.0
  0
LINE
  8
0
 62
     0
 10
123.821895
 20
-320.241164
 30
0.0
 11
130.99568
 21
-313.067379
 31
0.0
  0
LINE
  8
0
 62
     0
 10
124.120117
 20
-317.114515
 30
0.0
 11
130.99568
 21
-310.238952
 31
0.0
  0
LINE
  8
0
 62
     0
 10
124.418339
 20
-313.987866
 30
0.0
 11
128.374497
 21
-310.031707
 31
0.0
  0
LINE
  8
0
 62
     0
 10
125.010865
 20
-310.566912
 30
0.0
 11
125.194621
 21
-310.383156
 31
0.0
  0
LINE
  8
0
 62
     0
 10
122.629007
 20
-332.74776
 30
0.0
 11
130.99568
 21
-324.381087
 31
0.0
  0
LINE
  8
0
 62
     0
 10
122.330785
 20
-335.87441
 30
0.0
 11
130.99568
 21
-327.209514
 31
0.0
  0
LINE
  8
0
 62
     0
 10
124.138592
 20
-336.895029
 30
0.0
 11
130.99568
 21
-330.037941
 31
0.0
  0
LINE
  8
0
 62
     0
 10
124.285938
 20
-339.576111
 30
0.0
 11
130.99568
 21
-332.866369
 31
0.0
  0
LINE
  8
0
 62
     0
 10
124.433284
 20
-342.257192
 30
0.0
 11
130.99568
 21
-335.694796
 31
0.0
  0
LINE
  8
0
 62
     0
 10
124.58063
 20
-344.938273
 30
0.0
 11
130.99568
 21
-338.523223
 31
0.0
  0
LINE
  8
0
 62
     0
 10
125.464336
 20
-346.882994
 30
0.0
 11
130.99568
 21
-341.35165
 31
0.0
  0
LINE
  8
0
 62
     0
 10
128.14405
 20
-347.031707
 30
0.0
 11
130.99568
 21
-344.180077
 31
0.0
  0
LINE
  8
0
 62
     0
 10
130.972477
 20
-347.031707
 30
0.0
 11
130.99568
 21
-347.008504
 31
0.0
  0
ENDBLK
  8
0
  0
BLOCK
  8
0
  2
*X4
 70
    65
 10
0.0
 20
0.0
 30
0.0
  3
*X
  0
LINE
  8
0
 62
     0
 10
-297.22849
 20
-12.971564
 30
0.0
 11
-292.910549
 21
-8.653623
 31
0.0
  0
LINE
  8
0
 62
     0
 10
-297.360549
 20
-10.982302
 30
0.0
 11
-292.910549
 21
-6.532302
 31
0.0
  0
LINE
  8
0
 62
     0
 10
-297.360549
 20
-8.860982
 30
0.0
 11
-292.910549
 21
-4.410982
 31
0.0
  0
LINE
  8
0
 62
     0
 10
-297.360549
 20
-6.739662
 30
0.0
 11
-292.910549
 21
-2.289662
 31
0.0
  0
LINE
  8
0
 62
     0
 10
-297.360549
 20
-4.618341
 30
0.0
 11
-292.910549
 21
-0.168341
 31
0.0
  0
LINE
  8
0
 62
     0
 10
-297.360549
 20
-2.497021
 30
0.0
 11
-294.895523
 21
-0.031995
 31
0.0
  0
LINE
  8
0
 62
     0
 10
-295.860549
 20
-13.724943
 30
0.0
 11
-292.910549
 21
-10.774943
 31
0.0
  0
LINE
  8
0
 62
     0
 10
-295.860549
 20
-15.846263
 30
0.0
 11
-292.910549
 21
-12.896263
 31
0.0
  0
LINE
  8
0
 62
     0
 10
-295.860549
 20
-17.967584
 30
0.0
 11
-292.910549
 21
-15.017584
 31
0.0
  0
LINE
  8
0
 62
     0
 10
-295.538628
 20
-19.766983
 30
0.0
 11
-292.910549
 21
-17.138904
 31
0.0
  0
LINE
  8
0
 62
     0
 10
-293.682319
 20
-20.031995
 30
0.0
 11
-292.910549
 21
-19.260224
 31
0.0
  0
ENDBLK
  8
0
  0
BLOCK
  8
0
  2
*X5
 70
    65
 10
0.0
 20
0.0
 30
0.0
  3
*X
  0
LINE
  8
0
 62
     0
 10
-367.925869
 20
-11.544051
 30
0.0
 11
-363.975869
 21
-7.594051
 31
0.0
  0
LINE
  8
0
 62
     0
 10
-367.925869
 20
-9.422731
 30
0.0
 11
-363.975869
 21
-5.472731
 31
0.0
  0
LINE
  8
0
 62
     0
 10
-367.925869
 20
-7.301411
 30
0.0
 11
-363.975869
 21
-3.351411
 31
0.0
  0
LINE
  8
0
 62
     0
 10
-367.925869
 20
-5.18009
 30
0.0
 11
-363.975869
 21
-1.23009
 31
0.0
  0
LINE
  8
0
 62
     0
 10
-367.925869
 20
-3.05877
 30
0.0
 11
-364.719511
 21
0.147588
 31
0.0
  0
LINE
  8
0
 62
     0
 10
-367.925869
 20
-0.93745
 30
0.0
 11
-366.840832
 21
0.147588
 31
0.0
  0
LINE
  8
0
 62
     0
 10
-367.027822
 20
-12.767324
 30
0.0
 11
-363.975869
 21
-9.715372
 31
0.0
  0
LINE
  8
0
 62
     0
 10
-366.925869
 20
-14.786692
 30
0.0
 11
-363.975869
 21
-11.836692
 31
0.0
  0
LINE
  8
0
 62
     0
 10
-366.924403
 20
-16.906546
 30
0.0
 11
-363.975869
 21
-13.958012
 31
0.0
  0
LINE
  8
0
 62
     0
 10
-365.748949
 20
-17.852412
 30
0.0
 11
-363.975869
 21
-16.079333
 31
0.0
  0
ENDBLK
  8
0
  0
ENDSEC
  0
SECTION
  2
ENTITIES
  0
LINE
  8
0
 10
-6.587999
 20
-24.132867
 30
0.0
 11
6.28414
 21
-24.132867
 31
0.0
  0
LINE
  8
0
 10
191.546817
 20
-24.532867
 30
0.0
 11
191.546817
 21
-22.032867
 31
0.0
  0
LINE
  8
0
 10
4.848071
 20
-24.132867
 30
0.0
 11
4.848071
 21
-21.632867
 31
0.0
  0
LINE
  8
0
  6
CENTER
 10
98.046817
 20
-59.618862
 30
0.0
 11
98.046817
 21
-25.890663
 31
0.0
  0
LINE
  8
0
 10
-5.151929
 20
-24.132867
 30
0.0
 11
-5.151929
 21
-21.632867
 31
0.0
  0
LINE
  8
0
 10
-10.651929
 20
-1.632867
 30
0.0
 11
10.348071
 21
-1.632867
 31
0.0
  0
LINE
  8
0
 10
-8.651929
 20
-21.632867
 30
0.0
 11
-10.651929
 21
-1.632867
 31
0.0
  0
LINE
  8
0
 10
-10.651929
 20
-1.632867
 30
0.0
 11
-10.651929
 21
24.138742
 31
0.0
  0
LINE
  8
0
 10
8.348071
 20
-21.632867
 30
0.0
 11
10.348071
 21
-1.632867
 31
0.0
  0
LINE
  8
0
 10
10.348071
 20
-1.632867
 30
0.0
 11
10.348071
 21
24.138742
 31
0.0
  0
ARC
  8
0
 10
-0.151929
 20
-9.132867
 30
0.0
 40
37.5
 50
78.118844
 51
101.881156
  0
ARC
  8
0
 10
-7.151929
 20
24.138742
 30
0.0
 40
3.5
 50
101.881156
 51
180.0
  0
ARC
  8
0
 10
6.848071
 20
24.138742
 30
0.0
 40
3.5
 50
0.0
 51
78.118844
  0
CIRCLE
  8
0
 10
-0.151929
 20
-82.8239
 30
0.0
 40
10.5
  0
LINE
  8
0
 10
-8.651929
 20
-21.632867
 30
0.0
 11
8.348071
 21
-21.632867
 31
0.0
  0
LINE
  8
0
 10
188.546817
 20
-22.032867
 30
0.0
 11
186.546817
 21
4.967133
 31
0.0
  0
LINE
  8
0
 10
186.546817
 20
4.967133
 30
0.0
 11
186.546817
 21
38.68555
 31
0.0
  0
LINE
  8
0
 10
207.546817
 20
-22.032867
 30
0.0
 11
209.546817
 21
4.967133
 31
0.0
  0
LINE
  8
0
 10
209.546817
 20
4.967133
 30
0.0
 11
209.546817
 21
38.68555
 31
0.0
  0
LINE
  8
0
 10
204.546817
 20
-24.532867
 30
0.0
 11
204.546817
 21
-22.032867
 31
0.0
  0
ARC
  8
0
 10
198.046817
 20
-1.866201
 30
0.0
 40
44.833333
 50
78.840063
 51
101.159937
  0
ARC
  8
0
 10
190.046817
 20
38.68555
 30
0.0
 40
3.5
 50
101.159937
 51
180.0
  0
ARC
  8
0
 10
206.046817
 20
38.68555
 30
0.0
 40
3.5
 50
0.0
 51
78.840063
  0
LINE
  8
0
 10
188.546817
 20
-22.032867
 30
0.0
 11
207.546817
 21
-22.032867
 31
0.0
  0
CIRCLE
  8
0
 10
198.046817
 20
-92.599529
 30
0.0
 40
11.5
  0
LINE
  8
0
 10
-246.81708
 20
-215.164772
 30
0.0
 11
-225.81708
 21
-215.164772
 31
0.0
  0
LINE
  8
0
 10
-229.81708
 20
-217.664772
 30
0.0
 11
-229.81708
 21
-215.164772
 31
0.0
  0
LINE
  8
0
  6
CENTER
 10
-361.31708
 20
-261.067019
 30
0.0
 11
-361.31708
 21
-218.910056
 31
0.0
  0
LINE
  8
0
 10
-242.81708
 20
-217.664772
 30
0.0
 11
-242.81708
 21
-215.164772
 31
0.0
  0
LINE
  8
0
 10
-249.31708
 20
-185.164772
 30
0.0
 11
-223.31708
 21
-185.164772
 31
0.0
  0
LINE
  8
0
 10
-246.81708
 20
-215.164772
 30
0.0
 11
-249.31708
 21
-185.164772
 31
0.0
  0
LINE
  8
0
 10
-249.31708
 20
-185.164772
 30
0.0
 11
-249.31708
 21
-139.816683
 31
0.0
  0
LINE
  8
0
 10
-225.81708
 20
-215.164772
 30
0.0
 11
-223.31708
 21
-185.164772
 31
0.0
  0
LINE
  8
0
 10
-223.31708
 20
-185.164772
 30
0.0
 11
-223.31708
 21
-139.816683
 31
0.0
  0
ARC
  8
0
 10
-236.31708
 20
-178.414772
 30
0.0
 40
43.25
 50
76.172844
 51
103.827156
  0
ARC
  8
0
 10
-245.81708
 20
-139.816683
 30
0.0
 40
3.5
 50
103.827156
 51
180.0
  0
ARC
  8
0
 10
-226.81708
 20
-139.816683
 30
0.0
 40
3.5
 50
0.0
 51
76.172844
  0
CIRCLE
  8
0
 10
-236.31708
 20
-295.74505
 30
0.0
 40
13.0
  0
LINE
  8
0
 10
-90.508141
 20
-28.332867
 30
0.0
 11
-0.151929
 21
-28.332867
 31
0.0
  0
LINE
  8
0
 10
-8.081242
 20
-25.490654
 30
0.0
 11
-8.351929
 21
-28.332867
 31
0.0
  0
LINE
  8
0
 10
7.777384
 20
-25.490654
 30
0.0
 11
8.903101
 21
-37.31069
 31
0.0
  0
LINE
  8
0
 10
7.484765
 20
-38.951032
 30
0.0
 11
-80.151929
 21
-43.332867
 31
0.0
  0
ARC
  8
0
 10
7.409858
 20
-37.452904
 30
0.0
 40
1.5
 50
272.862405
 51
5.440332
  0
ARC
  8
0
 10
6.28414
 20
-25.632867
 30
0.0
 40
1.5
 50
5.440332
 51
90.0
  0
LINE
  8
0
 10
-92.004105
 20
-29.722905
 30
0.0
 11
-93.051929
 21
-43.977867
 31
0.0
  0
ARC
  8
0
 10
-90.508141
 20
-29.832867
 30
0.0
 40
1.5
 50
90.0
 51
175.795982
  0
LINE
  8
0
 10
-90.219273
 20
-52.632867
 30
0.0
 11
-70.092518
 21
-52.632867
 31
0.0
  0
LINE
  8
0
 10
-92.051929
 20
-43.927867
 30
0.0
 11
-91.717691
 21
-51.20172
 31
0.0
  0
ARC
  8
0
 10
-90.219273
 20
-51.132867
 30
0.0
 40
1.5
 50
182.630925
 51
270.0
  0
LINE
  8
0
 10
-68.251929
 20
-42.737867
 30
0.0
 11
-68.593742
 21
-51.193454
 31
0.0
  0
ARC
  8
0
 10
-70.092518
 20
-51.132867
 30
0.0
 40
1.5
 50
270.0
 51
357.68511
  0
ARC
  8
0
 10
-80.151929
 20
-82.8239
 30
0.0
 40
11.852176
 50
87.096604
 51
272.9034
  0
ARC
  8
0
 10
-80.151929
 20
-82.8239
 30
0.0
 40
12.9
 50
86.631938
 51
273.368066
  0
LINE
  8
0
 10
-6.217053
 20
-74.252769
 30
0.0
 11
-79.394054
 21
-69.946182
 31
0.0
  0
LINE
  8
0
 10
-6.777044
 20
-74.677867
 30
0.0
 11
-79.551591
 21
-70.986938
 31
0.0
  0
LINE
  8
0
 10
-6.777044
 20
-90.969933
 30
0.0
 11
-79.551591
 21
-94.660862
 31
0.0
  0
LINE
  8
0
 10
-6.217053
 20
-91.39503
 30
0.0
 11
-79.394054
 21
-95.701618
 31
0.0
  0
LINE
  8
0
 10
-86.651929
 20
-83.394968
 30
0.0
 11
-80.722997
 21
-89.3239
 31
0.0
  0
LINE
  8
0
 10
-79.580862
 20
-76.3239
 30
0.0
 11
-73.651929
 21
-82.252832
 31
0.0
  0
LINE
  8
0
 10
-86.651929
 20
-82.252832
 30
0.0
 11
-80.722997
 21
-76.3239
 31
0.0
  0
LINE
  8
0
 10
-79.580862
 20
-89.3239
 30
0.0
 11
-73.651929
 21
-83.394968
 31
0.0
  0
LINE
  8
0
 10
-80.722997
 20
-76.3239
 30
0.0
 11
-79.580862
 21
-76.3239
 31
0.0
  0
LINE
  8
0
 10
-80.722997
 20
-89.3239
 30
0.0
 11
-79.580862
 21
-89.3239
 31
0.0
  0
LINE
  8
0
 10
-86.651929
 20
-82.252832
 30
0.0
 11
-86.651929
 21
-83.394968
 31
0.0
  0
LINE
  8
0
 10
-73.651929
 20
-82.252832
 30
0.0
 11
-73.651929
 21
-83.394968
 31
0.0
  0
LINE
  8
0
 10
-80.722997
 20
-52.632867
 30
0.0
 11
-80.722997
 21
-28.332867
 31
0.0
  0
LINE
  8
0
 10
-86.651929
 20
-52.632867
 30
0.0
 11
-86.651929
 21
-28.332867
 31
0.0
  0
LINE
  8
0
 10
-92.051929
 20
-43.927867
 30
0.0
 11
-93.051929
 21
-43.977867
 31
0.0
  0
INSERT
  8
0
  2
*X0
 10
-13.980226
 20
-1.189085
 30
0.0
  0
ARC
  8
0
 10
29.627575
 20
-51.132867
 30
0.0
 40
1.5
 50
182.630925
 51
270.0
  0
LINE
  8
0
 10
27.792799
 20
-43.881734
 30
0.0
 11
28.129157
 21
-51.20172
 31
0.0
  0
LINE
  8
0
 10
29.627575
 20
-52.632867
 30
0.0
 11
49.75433
 21
-52.632867
 31
0.0
  0
ARC
  8
0
 10
29.338707
 20
-29.832867
 30
0.0
 40
1.5
 50
90.0
 51
175.795982
  0
LINE
  8
0
 10
27.842743
 20
-29.722905
 30
0.0
 11
26.794919
 21
-43.977867
 31
0.0
  0
LINE
  8
0
 10
29.338707
 20
-28.332867
 30
0.0
 11
50.051131
 21
-28.332867
 31
0.0
  0
ARC
  8
0
 10
49.762262
 20
-51.132867
 30
0.0
 40
1.5
 50
270.0
 51
357.369075
  0
LINE
  8
0
 10
51.597038
 20
-43.881734
 30
0.0
 11
51.260681
 21
-51.20172
 31
0.0
  0
LINE
  8
0
 10
51.547095
 20
-29.722905
 30
0.0
 11
52.594919
 21
-43.977867
 31
0.0
  0
ARC
  8
0
 10
50.051131
 20
-29.832867
 30
0.0
 40
1.5
 50
4.204018
 51
90.0
  0
ARC
  8
0
 10
39.694919
 20
-172.655367
 30
0.0
 40
129.3225
 50
84.27519
 51
95.72481
  0
ARC
  8
0
 10
46.130988
 20
-25.632867
 30
0.0
 40
1.5
 50
5.440332
 51
90.0
  0
LINE
  8
0
 10
47.624232
 20
-25.490654
 30
0.0
 11
47.894919
 21
-28.332867
 31
0.0
  0
LINE
  8
0
 10
31.765606
 20
-25.490654
 30
0.0
 11
31.494919
 21
-28.332867
 31
0.0
  0
LINE
  8
0
 10
31.194919
 20
-21.632867
 30
0.0
 11
48.194919
 21
-21.632867
 31
0.0
  0
ARC
  8
0
 10
46.694919
 20
24.138742
 30
0.0
 40
3.5
 50
0.0
 51
78.118844
  0
ARC
  8
0
 10
32.694919
 20
24.138742
 30
0.0
 40
3.5
 50
101.881156
 51
180.0
  0
ARC
  8
0
 10
39.694919
 20
-9.132867
 30
0.0
 40
37.5
 50
78.118844
 51
101.881156
  0
LINE
  8
0
 10
50.194919
 20
-1.632867
 30
0.0
 11
50.194919
 21
24.138742
 31
0.0
  0
LINE
  8
0
 10
48.194919
 20
-21.632867
 30
0.0
 11
50.194919
 21
-1.632867
 31
0.0
  0
LINE
  8
0
 10
29.194919
 20
-1.632867
 30
0.0
 11
29.194919
 21
24.138742
 31
0.0
  0
LINE
  8
0
 10
31.194919
 20
-21.632867
 30
0.0
 11
29.194919
 21
-1.632867
 31
0.0
  0
LINE
  8
0
 10
29.194919
 20
-1.632867
 30
0.0
 11
50.194919
 21
-1.632867
 31
0.0
  0
LINE
  8
0
 10
34.694919
 20
-24.132867
 30
0.0
 11
34.694919
 21
-21.632867
 31
0.0
  0
LINE
  8
0
 10
44.694919
 20
-24.132867
 30
0.0
 11
44.694919
 21
-21.632867
 31
0.0
  0
LINE
  8
0
 10
33.258849
 20
-24.132867
 30
0.0
 11
46.130988
 21
-24.132867
 31
0.0
  0
ARC
  8
0
 10
-6.587999
 20
-25.632867
 30
0.0
 40
1.5
 50
90.0
 51
174.559668
  0
ARC
  8
0
 10
33.258849
 20
-25.632867
 30
0.0
 40
1.5
 50
90.0
 51
174.559668
  0
LINE
  8
0
 10
86.036335
 20
-28.332867
 30
0.0
 11
198.046817
 21
-28.332867
 31
0.0
  0
LINE
  8
0
 10
190.662377
 20
-24.532867
 30
0.0
 11
205.431256
 21
-24.532867
 31
0.0
  0
LINE
  8
0
 10
189.175196
 20
-25.837185
 30
0.0
 11
188.846817
 21
-28.332867
 31
0.0
  0
LINE
  8
0
 10
206.918437
 20
-25.837185
 30
0.0
 11
208.678522
 21
-39.213826
 31
0.0
  0
LINE
  8
0
 10
83.246817
 20
-46.61382
 30
0.0
 11
84.046817
 21
-46.577011
 31
0.0
  0
LINE
  8
0
 10
83.246817
 20
-46.61382
 30
0.0
 11
84.540715
 21
-29.718329
 31
0.0
  0
LINE
  8
0
 10
86.061627
 20
-56.832867
 30
0.0
 11
110.022754
 21
-56.832867
 31
0.0
  0
LINE
  8
0
 10
84.564187
 20
-55.420472
 30
0.0
 11
84.046817
 21
-46.577011
 31
0.0
  0
LINE
  8
0
 10
111.520732
 20
-55.410724
 30
0.0
 11
112.046817
 21
-45.288723
 31
0.0
  0
ARC
  8
0
 10
98.046817
 20
-92.599529
 30
0.0
 40
13.4
 50
87.306106
 51
272.693894
  0
ARC
  8
0
 10
98.046817
 20
-92.599529
 30
0.0
 40
14.8
 50
86.789757
 51
273.210243
  0
LINE
  8
0
 10
98.875617
 20
-77.822753
 30
0.0
 11
191.672844
 21
-83.027566
 31
0.0
  0
LINE
  8
0
 10
98.875617
 20
-107.376304
 30
0.0
 11
191.672844
 21
-102.171492
 31
0.0
  0
LINE
  8
0
 10
190.943389
 20
-101.643384
 30
0.0
 11
98.676617
 21
-105.98472
 31
0.0
  0
LINE
  8
0
 10
98.676617
 20
-79.214337
 30
0.0
 11
190.943389
 21
-83.555673
 31
0.0
  0
LINE
  8
0
 10
97.561535
 20
-84.599529
 30
0.0
 11
90.046817
 21
-92.114247
 31
0.0
  0
LINE
  8
0
 10
106.046817
 20
-93.08481
 30
0.0
 11
98.532098
 21
-100.599529
 31
0.0
  0
LINE
  8
0
 10
90.046817
 20
-93.08481
 30
0.0
 11
97.561535
 21
-100.599529
 31
0.0
  0
LINE
  8
0
 10
98.532098
 20
-84.599529
 30
0.0
 11
106.046817
 21
-92.114247
 31
0.0
  0
LINE
  8
0
 10
90.046817
 20
-92.114247
 30
0.0
 11
90.046817
 21
-93.08481
 31
0.0
  0
LINE
  8
0
 10
106.046817
 20
-92.114247
 30
0.0
 11
106.046817
 21
-93.08481
 31
0.0
  0
LINE
  8
0
 10
98.532098
 20
-84.599529
 30
0.0
 11
97.561535
 21
-84.599529
 31
0.0
  0
LINE
  8
0
 10
98.532098
 20
-100.599529
 30
0.0
 11
97.561535
 21
-100.599529
 31
0.0
  0
LINE
  8
0
 10
97.561535
 20
-56.832867
 30
0.0
 11
97.561535
 21
-28.332867
 31
0.0
  0
LINE
  8
0
 10
90.046817
 20
-56.832867
 30
0.0
 11
90.046817
 21
-28.332867
 31
0.0
  0
LINE
  8
0
 10
98.046817
 20
-45.932867
 30
0.0
 11
207.260283
 21
-40.907922
 31
0.0
  0
ARC
  8
0
 10
86.036335
 20
-29.832867
 30
0.0
 40
1.5
 50
90.0
 51
175.620697
  0
ARC
  8
0
 10
207.19134
 20
-39.409508
 30
0.0
 40
1.5
 50
272.634338
 51
7.495858
  0
ARC
  8
0
 10
190.662377
 20
-26.032867
 30
0.0
 40
1.5
 50
90.0
 51
172.504142
  0
ARC
  8
0
 10
205.431256
 20
-26.032867
 30
0.0
 40
1.5
 50
7.495858
 51
90.0
  0
ARC
  8
0
 10
86.061627
 20
-55.332867
 30
0.0
 40
1.5
 50
183.348168
 51
270.0
  0
ARC
  8
0
 10
110.022754
 20
-55.332867
 30
0.0
 40
1.5
 50
270.0
 51
357.024763
  0
ARC
  8
0
 10
259.514754
 20
-55.332867
 30
0.0
 40
1.5
 50
270.0
 51
357.024763
  0
ARC
  8
0
 10
235.553627
 20
-55.332867
 30
0.0
 40
1.5
 50
183.348168
 51
270.0
  0
ARC
  8
0
 10
235.528335
 20
-29.832867
 30
0.0
 40
1.5
 50
90.0
 51
175.620697
  0
LINE
  8
0
 10
234.056187
 20
-55.420472
 30
0.0
 11
233.536782
 21
-46.542234
 31
0.0
  0
LINE
  8
0
 10
235.553627
 20
-56.832867
 30
0.0
 11
259.514754
 21
-56.832867
 31
0.0
  0
LINE
  8
0
 10
232.738817
 20
-46.61382
 30
0.0
 11
234.032715
 21
-29.718329
 31
0.0
  0
LINE
  8
0
 10
235.528335
 20
-28.332867
 30
0.0
 11
259.5493
 21
-28.332867
 31
0.0
  0
ARC
  8
0
 10
259.549298
 20
-29.832867
 30
0.0
 40
1.5
 50
4.379303
 51
90.0
  0
LINE
  8
0
 10
262.338817
 20
-46.61382
 30
0.0
 11
261.044919
 21
-29.718329
 31
0.0
  0
LINE
  8
0
 10
261.021446
 20
-55.420472
 30
0.0
 11
261.540851
 21
-46.542234
 31
0.0
  0
ARC
  8
0
 10
247.538817
 20
-207.106883
 30
0.0
 40
161.174016
 50
84.731323
 51
95.268677
  0
ARC
  8
0
 10
254.923256
 20
-26.032867
 30
0.0
 40
1.5
 50
7.495858
 51
90.0
  0
ARC
  8
0
 10
240.154377
 20
-26.032867
 30
0.0
 40
1.5
 50
90.0
 51
172.504142
  0
LINE
  8
0
 10
256.410437
 20
-25.837185
 30
0.0
 11
256.738817
 21
-28.332867
 31
0.0
  0
LINE
  8
0
 10
238.667196
 20
-25.837185
 30
0.0
 11
238.338817
 21
-28.332867
 31
0.0
  0
LINE
  8
0
 10
240.154377
 20
-24.532867
 30
0.0
 11
254.923256
 21
-24.532867
 31
0.0
  0
LINE
  8
0
 10
238.038817
 20
-22.032867
 30
0.0
 11
257.038817
 21
-22.032867
 31
0.0
  0
ARC
  8
0
 10
255.538817
 20
38.68555
 30
0.0
 40
3.5
 50
0.0
 51
78.840063
  0
ARC
  8
0
 10
239.538817
 20
38.68555
 30
0.0
 40
3.5
 50
101.159937
 51
180.0
  0
ARC
  8
0
 10
247.538817
 20
-1.866201
 30
0.0
 40
44.833333
 50
78.840063
 51
101.159937
  0
LINE
  8
0
 10
254.038817
 20
-24.532867
 30
0.0
 11
254.038817
 21
-22.032867
 31
0.0
  0
LINE
  8
0
 10
259.038817
 20
4.967133
 30
0.0
 11
259.038817
 21
38.68555
 31
0.0
  0
LINE
  8
0
 10
257.038817
 20
-22.032867
 30
0.0
 11
259.038817
 21
4.967133
 31
0.0
  0
LINE
  8
0
 10
236.038817
 20
4.967133
 30
0.0
 11
236.038817
 21
38.68555
 31
0.0
  0
LINE
  8
0
 10
238.038817
 20
-22.032867
 30
0.0
 11
236.038817
 21
4.967133
 31
0.0
  0
LINE
  8
0
 10
241.038817
 20
-24.532867
 30
0.0
 11
241.038817
 21
-22.032867
 31
0.0
  0
INSERT
  8
0
  2
*X1
 10
164.336897
 20
212.605031
 30
0.0
  0
LINE
  8
0
 10
259.038817
 20
4.967133
 30
0.0
 11
236.038817
 21
4.967133
 31
0.0
  0
LINE
  8
0
 10
209.546817
 20
4.967133
 30
0.0
 11
186.546817
 21
4.967133
 31
0.0
  0
LINE
  8
0
 10
-375.231788
 20
-223.164772
 30
0.0
 11
-236.31708
 21
-223.164772
 31
0.0
  0
LINE
  8
0
 10
-244.571817
 20
-217.664772
 30
0.0
 11
-228.062342
 21
-217.664772
 31
0.0
  0
LINE
  8
0
 10
-246.51708
 20
-223.164772
 30
0.0
 11
-246.06297
 21
-219.002101
 31
0.0
  0
LINE
  8
0
 10
-224.81391
 20
-235.110496
 30
0.0
 11
-226.571189
 21
-219.002101
 31
0.0
  0
LINE
  8
0
 10
-226.20432
 20
-236.76978
 30
0.0
 11
-361.31708
 21
-245.864772
 31
0.0
  0
LINE
  8
0
 10
-378.51708
 20
-247.022575
 30
0.0
 11
-376.727054
 21
-224.545692
 31
0.0
  0
LINE
  8
0
 10
-374.933384
 20
-257.164772
 30
0.0
 11
-347.700775
 21
-257.164772
 31
0.0
  0
CIRCLE
  8
0
 10
74.907181
 20
-294.473119
 30
0.0
 40
13.0
  0
ARC
  8
0
 10
84.407181
 20
-140.316683
 30
0.0
 40
3.5
 50
0.0
 51
76.172844
  0
ARC
  8
0
 10
65.407181
 20
-140.316683
 30
0.0
 40
3.5
 50
103.827156
 51
180.0
  0
ARC
  8
0
 10
74.907181
 20
-178.914772
 30
0.0
 40
43.25
 50
76.172844
 51
103.827156
  0
LINE
  8
0
 10
87.907181
 20
-185.664772
 30
0.0
 11
87.907181
 21
-140.316683
 31
0.0
  0
LINE
  8
0
 10
85.407181
 20
-215.664772
 30
0.0
 11
87.907181
 21
-185.664772
 31
0.0
  0
LINE
  8
0
 10
61.907181
 20
-185.664772
 30
0.0
 11
61.907181
 21
-140.316683
 31
0.0
  0
LINE
  8
0
 10
64.407181
 20
-215.664772
 30
0.0
 11
61.907181
 21
-185.664772
 31
0.0
  0
LINE
  8
0
 10
61.907181
 20
-185.664772
 30
0.0
 11
87.907181
 21
-185.664772
 31
0.0
  0
LINE
  8
0
 10
68.407181
 20
-218.164772
 30
0.0
 11
68.407181
 21
-215.664772
 31
0.0
  0
LINE
  8
0
 10
81.407181
 20
-218.164772
 30
0.0
 11
81.407181
 21
-215.664772
 31
0.0
  0
LINE
  8
0
 10
64.407181
 20
-215.664772
 30
0.0
 11
85.407181
 21
-215.664772
 31
0.0
  0
LINE
  8
0
 10
-346.205647
 20
-255.785571
 30
0.0
 11
-345.31708
 21
-244.787747
 31
0.0
  0
LINE
  8
0
 10
-376.428512
 20
-255.785571
 30
0.0
 11
-377.143985
 21
-246.930146
 31
0.0
  0
ARC
  8
0
 10
-361.31708
 20
-295.74505
 30
0.0
 40
15.3
 50
87.386397
 51
272.613594
  0
ARC
  8
0
 10
-361.31708
 20
-295.74505
 30
0.0
 40
17.2
 50
86.789757
 51
273.210247
  0
LINE
  8
0
 10
-360.6194
 20
-280.460965
 30
0.0
 11
-244.636044
 21
-285.755313
 31
0.0
  0
LINE
  8
0
 10
-360.35388
 20
-278.57204
 30
0.0
 11
-243.793009
 21
-285.109708
 31
0.0
  0
LINE
  8
0
 10
-360.6194
 20
-311.029134
 30
0.0
 11
-244.636044
 21
-305.734786
 31
0.0
  0
LINE
  8
0
 10
-360.35388
 20
-312.918059
 30
0.0
 11
-243.793009
 21
-306.380391
 31
0.0
  0
LINE
  8
0
 10
-370.31708
 20
-294.845555
 30
0.0
 11
-362.216575
 21
-286.74505
 31
0.0
  0
LINE
  8
0
 10
-360.417585
 20
-304.74505
 30
0.0
 11
-352.31708
 21
-296.644545
 31
0.0
  0
LINE
  8
0
 10
-370.31708
 20
-296.644545
 30
0.0
 11
-362.216575
 21
-304.74505
 31
0.0
  0
LINE
  8
0
 10
-360.417585
 20
-286.74505
 30
0.0
 11
-352.31708
 21
-294.845555
 31
0.0
  0
LINE
  8
0
 10
-362.216575
 20
-286.74505
 30
0.0
 11
-360.417585
 21
-286.74505
 31
0.0
  0
LINE
  8
0
 10
-362.216575
 20
-304.74505
 30
0.0
 11
-360.417585
 21
-304.74505
 31
0.0
  0
LINE
  8
0
 10
-370.31708
 20
-294.845555
 30
0.0
 11
-370.31708
 21
-296.644545
 31
0.0
  0
LINE
  8
0
 10
-352.31708
 20
-294.845555
 30
0.0
 11
-352.31708
 21
-296.644545
 31
0.0
  0
ARC
  8
0
 10
-375.231788
 20
-224.664772
 30
0.0
 40
1.5
 50
90.0
 51
175.446659
  0
ARC
  8
0
 10
-374.933384
 20
-255.664772
 30
0.0
 40
1.5
 50
184.619171
 51
270.0
  0
ARC
  8
0
 10
-347.700775
 20
-255.664772
 30
0.0
 40
1.5
 50
270.0
 51
355.380829
  0
ARC
  8
0
 10
-226.305063
 20
-235.273167
 30
0.0
 40
1.5
 50
273.851004
 51
6.225829
  0
ARC
  8
0
 10
-244.571817
 20
-219.164772
 30
0.0
 40
1.5
 50
90.0
 51
173.774171
  0
ARC
  8
0
 10
-228.062342
 20
-219.164772
 30
0.0
 40
1.5
 50
6.225829
 51
90.0
  0
LINE
  8
0
 10
-362.216575
 20
-257.164772
 30
0.0
 11
-362.216575
 21
-223.164772
 31
0.0
  0
LINE
  8
0
 10
-370.31708
 20
-257.164772
 30
0.0
 11
-370.31708
 21
-223.164772
 31
0.0
  0
LINE
  8
0
 10
-377.143985
 20
-246.930146
 30
0.0
 11
-378.51708
 21
-247.022575
 31
0.0
  0
ARC
  8
0
 10
-168.319747
 20
-255.664772
 30
0.0
 40
1.5
 50
270.0
 51
355.380829
  0
ARC
  8
0
 10
-195.552356
 20
-255.664772
 30
0.0
 40
1.5
 50
184.619171
 51
270.0
  0
ARC
  8
0
 10
-195.85076
 20
-224.664772
 30
0.0
 40
1.5
 50
90.0
 51
175.446659
  0
LINE
  8
0
 10
-197.047484
 20
-255.785571
 30
0.0
 11
-197.769814
 21
-246.845265
 31
0.0
  0
LINE
  8
0
 10
-195.552356
 20
-257.164772
 30
0.0
 11
-168.319747
 21
-257.164772
 31
0.0
  0
LINE
  8
0
 10
-199.136051
 20
-247.022575
 30
0.0
 11
-197.346026
 21
-224.545692
 31
0.0
  0
LINE
  8
0
 10
-192.133051
 20
-223.164772
 30
0.0
 11
-192.129051
 21
-223.164772
 31
0.0
  0
LINE
  8
0
 10
-164.736051
 20
-247.022575
 30
0.0
 11
-166.526077
 21
-224.545692
 31
0.0
  0
ARC
  8
0
 10
-168.021343
 20
-224.664772
 30
0.0
 40
1.5
 50
4.553341
 51
90.0
  0
LINE
  8
0
 10
-166.824619
 20
-255.785571
 30
0.0
 11
-166.102288
 21
-246.845265
 31
0.0
  0
ARC
  8
0
 10
-181.936051
 20
-374.202962
 30
0.0
 40
128.33819
 50
82.297993
 51
97.702007
  0
ARC
  8
0
 10
-173.681314
 20
-219.164772
 30
0.0
 40
1.5
 50
6.225829
 51
90.0
  0
ARC
  8
0
 10
-190.190788
 20
-219.164772
 30
0.0
 40
1.5
 50
90.0
 51
173.774171
  0
LINE
  8
0
 10
-171.736051
 20
-223.164772
 30
0.0
 11
-172.190161
 21
-219.002101
 31
0.0
  0
LINE
  8
0
 10
-192.136051
 20
-223.164772
 30
0.0
 11
-191.681942
 21
-219.002101
 31
0.0
  0
LINE
  8
0
 10
-190.190788
 20
-217.664772
 30
0.0
 11
-173.681314
 21
-217.664772
 31
0.0
  0
ARC
  8
0
 10
-172.436051
 20
-139.816683
 30
0.0
 40
3.5
 50
0.0
 51
76.172844
  0
ARC
  8
0
 10
-191.436051
 20
-139.816683
 30
0.0
 40
3.5
 50
103.827156
 51
180.0
  0
ARC
  8
0
 10
-181.936051
 20
-178.414772
 30
0.0
 40
43.25
 50
76.172844
 51
103.827156
  0
LINE
  8
0
 10
-168.936051
 20
-185.164772
 30
0.0
 11
-168.936051
 21
-139.816683
 31
0.0
  0
LINE
  8
0
 10
-171.436051
 20
-215.164772
 30
0.0
 11
-168.936051
 21
-185.164772
 31
0.0
  0
LINE
  8
0
 10
-194.936051
 20
-185.164772
 30
0.0
 11
-194.936051
 21
-139.816683
 31
0.0
  0
LINE
  8
0
 10
-192.436051
 20
-215.164772
 30
0.0
 11
-194.936051
 21
-185.164772
 31
0.0
  0
LINE
  8
0
 10
-194.936051
 20
-185.164772
 30
0.0
 11
-168.936051
 21
-185.164772
 31
0.0
  0
LINE
  8
0
 10
-188.436051
 20
-217.664772
 30
0.0
 11
-188.436051
 21
-215.164772
 31
0.0
  0
LINE
  8
0
 10
-175.436051
 20
-217.664772
 30
0.0
 11
-175.436051
 21
-215.164772
 31
0.0
  0
LINE
  8
0
 10
-192.436051
 20
-215.164772
 30
0.0
 11
-171.436051
 21
-215.164772
 31
0.0
  0
INSERT
  8
0
  2
*X2
 10
-512.987964
 20
-180.716628
 30
0.0
  0
LINE
  8
0
 10
-101.029083
 20
-223.164772
 30
0.0
 11
74.907181
 21
-223.164772
 31
0.0
  0
LINE
  8
0
 10
66.678244
 20
-218.164772
 30
0.0
 11
83.136118
 21
-218.164772
 31
0.0
  0
LINE
  8
0
 10
65.184282
 20
-219.530316
 30
0.0
 11
64.857181
 21
-223.164772
 31
0.0
  0
LINE
  8
0
 10
84.63008
 20
-219.530316
 30
0.0
 11
85.954477
 21
-234.245838
 31
0.0
  0
LINE
  8
0
 10
84.56712
 20
-235.876502
 30
0.0
 11
-85.092819
 21
-247.964772
 31
0.0
  0
ARC
  8
0
 10
84.460515
 20
-234.380295
 30
0.0
 40
1.5
 50
274.075437
 51
5.142765
  0
LINE
  8
0
 10
-102.522306
 20
-224.522348
 30
0.0
 11
-104.892819
 21
-249.375522
 31
0.0
  0
LINE
  8
0
 10
-101.072992
 20
-260.164772
 30
0.0
 11
-69.112646
 21
-260.164772
 31
0.0
  0
LINE
  8
0
 10
-103.092819
 20
-249.247272
 30
0.0
 11
-102.570732
 21
-258.747085
 31
0.0
  0
LINE
  8
0
 10
-66.951299
 20
-246.672189
 30
0.0
 11
-67.614906
 21
-258.747085
 31
0.0
  0
ARC
  8
0
 10
-85.092819
 20
-294.473119
 30
0.0
 40
17.3
 50
87.241575
 51
272.758425
  0
ARC
  8
0
 10
-85.092819
 20
-294.473119
 30
0.0
 40
19.8
 50
86.506374
 51
273.493626
  0
LINE
  8
0
 10
66.613495
 20
-284.462386
 30
0.0
 11
-84.260257
 21
-277.193164
 31
0.0
  0
LINE
  8
0
 10
66.613495
 20
-304.483852
 30
0.0
 11
-84.260257
 21
-311.753074
 31
0.0
  0
LINE
  8
0
 10
67.288868
 20
-283.939302
 30
0.0
 11
-83.886257
 21
-274.709916
 31
0.0
  0
LINE
  8
0
 10
67.288868
 20
-305.006936
 30
0.0
 11
-83.886257
 21
-314.236322
 31
0.0
  0
LINE
  8
0
 10
-96.192819
 20
-295.393934
 30
0.0
 11
-86.013634
 21
-305.573119
 31
0.0
  0
LINE
  8
0
 10
-84.172004
 20
-283.373119
 30
0.0
 11
-73.992819
 21
-293.552304
 31
0.0
  0
LINE
  8
0
 10
-86.013634
 20
-283.373119
 30
0.0
 11
-96.192819
 21
-293.552304
 31
0.0
  0
LINE
  8
0
 10
-73.992819
 20
-295.393934
 30
0.0
 11
-84.172004
 21
-305.573119
 31
0.0
  0
LINE
  8
0
 10
-86.013634
 20
-283.373119
 30
0.0
 11
-84.172004
 21
-283.373119
 31
0.0
  0
LINE
  8
0
 10
-86.013634
 20
-305.573119
 30
0.0
 11
-84.172004
 21
-305.573119
 31
0.0
  0
LINE
  8
0
 10
-96.192819
 20
-293.552304
 30
0.0
 11
-96.192819
 21
-295.393934
 31
0.0
  0
LINE
  8
0
 10
-73.992819
 20
-293.552304
 30
0.0
 11
-73.992819
 21
-295.393934
 31
0.0
  0
ARC
  8
0
 10
-101.029083
 20
-224.664772
 30
0.0
 40
1.5
 50
90.0
 51
174.55157
  0
ARC
  8
0
 10
-101.072992
 20
-258.664772
 30
0.0
 40
1.5
 50
183.145676
 51
270.0
  0
ARC
  8
0
 10
-69.112646
 20
-258.664772
 30
0.0
 40
1.5
 50
270.0
 51
356.854324
  0
ARC
  8
0
 10
66.678244
 20
-219.664772
 30
0.0
 40
1.5
 50
90.0
 51
174.857235
  0
ARC
  8
0
 10
83.136118
 20
-219.664772
 30
0.0
 40
1.5
 50
5.142765
 51
90.0
  0
LINE
  8
0
 10
-86.013634
 20
-260.164772
 30
0.0
 11
-86.013634
 21
-223.164772
 31
0.0
  0
LINE
  8
0
 10
-96.192819
 20
-260.164772
 30
0.0
 11
-96.192819
 21
-223.164772
 31
0.0
  0
LINE
  8
0
 10
-103.092819
 20
-249.247272
 30
0.0
 11
-104.892819
 21
-249.375522
 31
0.0
  0
INSERT
  8
0
  2
*X3
 10
-227.188499
 20
86.866935
 30
0.0
  0
LINE
  8
0
  6
CENTER
 10
-85.092819
 20
-219.347731
 30
0.0
 11
-85.092819
 21
-264.947088
 31
0.0
  0
ARC
  8
0
 10
147.807249
 20
-219.664772
 30
0.0
 40
1.5
 50
5.142765
 51
90.0
  0
ARC
  8
0
 10
131.349374
 20
-219.664772
 30
0.0
 40
1.5
 50
90.0
 51
174.857235
  0
LINE
  8
0
 10
149.30121
 20
-219.530316
 30
0.0
 11
149.628311
 21
-223.164772
 31
0.0
  0
LINE
  8
0
 10
129.855412
 20
-219.530316
 30
0.0
 11
129.528311
 21
-223.164772
 31
0.0
  0
LINE
  8
0
 10
131.349374
 20
-218.164772
 30
0.0
 11
147.807249
 21
-218.164772
 31
0.0
  0
LINE
  8
0
 10
129.078311
 20
-215.664772
 30
0.0
 11
150.078311
 21
-215.664772
 31
0.0
  0
LINE
  8
0
 10
146.078311
 20
-218.164772
 30
0.0
 11
146.078311
 21
-215.664772
 31
0.0
  0
LINE
  8
0
 10
133.078311
 20
-218.164772
 30
0.0
 11
133.078311
 21
-215.664772
 31
0.0
  0
LINE
  8
0
 10
126.578311
 20
-185.664772
 30
0.0
 11
152.578311
 21
-185.664772
 31
0.0
  0
LINE
  8
0
 10
129.078311
 20
-215.664772
 30
0.0
 11
126.578311
 21
-185.664772
 31
0.0
  0
LINE
  8
0
 10
126.578311
 20
-185.664772
 30
0.0
 11
126.578311
 21
-140.316683
 31
0.0
  0
LINE
  8
0
 10
150.078311
 20
-215.664772
 30
0.0
 11
152.578311
 21
-185.664772
 31
0.0
  0
LINE
  8
0
 10
152.578311
 20
-185.664772
 30
0.0
 11
152.578311
 21
-140.316683
 31
0.0
  0
ARC
  8
0
 10
139.578311
 20
-178.914772
 30
0.0
 40
43.25
 50
76.172844
 51
103.827156
  0
ARC
  8
0
 10
130.078311
 20
-140.316683
 30
0.0
 40
3.5
 50
103.827156
 51
180.0
  0
ARC
  8
0
 10
149.078311
 20
-140.316683
 30
0.0
 40
3.5
 50
0.0
 51
76.172844
  0
ARC
  8
0
 10
155.558484
 20
-258.664772
 30
0.0
 40
1.5
 50
270.0
 51
356.854324
  0
ARC
  8
0
 10
123.598138
 20
-258.664772
 30
0.0
 40
1.5
 50
183.145676
 51
270.0
  0
ARC
  8
0
 10
123.642048
 20
-224.664772
 30
0.0
 40
1.5
 50
90.0
 51
174.55157
  0
LINE
  8
0
 10
157.58473
 20
-249.130485
 30
0.0
 11
157.056224
 21
-258.747085
 31
0.0
  0
LINE
  8
0
 10
121.578311
 20
-249.247272
 30
0.0
 11
122.100399
 21
-258.747085
 31
0.0
  0
LINE
  8
0
 10
123.598138
 20
-260.164772
 30
0.0
 11
155.558484
 21
-260.164772
 31
0.0
  0
LINE
  8
0
 10
122.148825
 20
-224.522348
 30
0.0
 11
119.778311
 21
-249.375522
 31
0.0
  0
LINE
  8
0
 10
123.642048
 20
-223.164772
 30
0.0
 11
155.514575
 21
-223.164772
 31
0.0
  0
LINE
  8
0
 10
157.007798
 20
-224.522348
 30
0.0
 11
159.378311
 21
-249.375522
 31
0.0
  0
ARC
  8
0
 10
155.514575
 20
-224.664772
 30
0.0
 40
1.5
 50
5.44843
 51
90.0
  0
ARC
  8
0
 10
155.558484
 20
-258.664772
 30
0.0
 40
1.5
 50
270.0
 51
356.854324
  0
LINE
  8
0
 10
155.558484
 20
-260.164772
 30
0.0
 11
123.598138
 21
-260.164772
 31
0.0
  0
ARC
  8
0
 10
139.578311
 20
-387.617516
 30
0.0
 40
139.652743
 50
81.849126
 51
98.150874
  0
LINE
  8
0
 10
-195.85076
 20
-223.164772
 30
0.0
 11
-168.021343
 21
-223.164772
 31
0.0
  0
LINE
  8
0
 10
-192.126051
 20
-223.164772
 30
0.0
 11
-192.118051
 21
-223.164772
 31
0.0
  0
LINE
  8
0
 10
-192.115051
 20
-223.164772
 30
0.0
 11
-192.106351
 21
-223.164772
 31
0.0
  0
LINE
  8
0
 10
-173.052304
 20
-28.332867
 30
0.0
 11
-246.052304
 21
-28.332867
 31
0.0
  0
LINE
  8
0
 10
-247.052304
 20
-29.332867
 30
0.0
 11
-247.052304
 21
-40.77577
 31
0.0
  0
LINE
  8
0
  6
CENTER
 10
-236.052304
 20
-23.332867
 30
0.0
 11
-236.052304
 21
-53.332867
 31
0.0
  0
LINE
  8
0
 10
-226.552304
 20
-40.693978
 30
0.0
 11
-226.552304
 21
-47.332867
 31
0.0
  0
LINE
  8
0
 10
-245.552304
 20
-41.749534
 30
0.0
 11
-245.552304
 21
-47.332867
 31
0.0
  0
LINE
  8
0
 10
-227.552304
 20
-48.332867
 30
0.0
 11
-244.552304
 21
-48.332867
 31
0.0
  0
LINE
  8
0
 10
-167.052304
 20
-26.332867
 30
0.0
 11
-179.052304
 21
-26.332867
 31
0.0
  0
LINE
  8
0
 10
-166.052304
 20
-27.332867
 30
0.0
 11
-166.052304
 21
-36.386881
 31
0.0
  0
LINE
  8
0
 10
-245.996834
 20
-41.77423
 30
0.0
 11
-245.552304
 21
-41.749534
 31
0.0
  0
LINE
  8
0
 10
-236.052304
 20
-41.221756
 30
0.0
 11
-166.996834
 21
-37.385341
 31
0.0
  0
LINE
  8
0
 10
-180.052304
 20
-27.332867
 30
0.0
 11
-180.052304
 21
-28.332867
 31
0.0
  0
LINE
  8
0
 10
-173.052304
 20
-26.332867
 30
0.0
 11
-168.052304
 21
-26.332867
 31
0.0
  0
LINE
  8
0
 10
-180.552304
 20
-23.832867
 30
0.0
 11
-165.552304
 21
-23.832867
 31
0.0
  0
ARC
  8
0
 10
-166.552304
 20
13.114465
 30
0.0
 40
2.5
 50
0.0
 51
80.280132
  0
ARC
  8
0
 10
-179.552304
 20
13.114465
 30
0.0
 40
2.5
 50
99.719868
 51
180.0
  0
ARC
  8
0
 10
-173.052304
 20
-24.832867
 30
0.0
 40
41.0
 50
80.280132
 51
99.719868
  0
LINE
  8
0
 10
-165.552304
 20
-23.832867
 30
0.0
 11
-164.052304
 21
-8.832867
 31
0.0
  0
LINE
  8
0
 10
-180.552304
 20
-23.832867
 30
0.0
 11
-182.052304
 21
-8.832867
 31
0.0
  0
LINE
  8
0
 10
-182.052304
 20
-8.832867
 30
0.0
 11
-164.052304
 21
-8.832867
 31
0.0
  0
LINE
  8
0
 10
-178.052304
 20
-26.332867
 30
0.0
 11
-175.552304
 21
-26.332867
 31
0.0
  0
LINE
  8
0
 10
-164.052304
 20
-8.832867
 30
0.0
 11
-164.052304
 21
13.114465
 31
0.0
  0
LINE
  8
0
 10
-182.052304
 20
-8.832867
 30
0.0
 11
-182.052304
 21
13.114465
 31
0.0
  0
LINE
  8
0
 10
-168.052304
 20
-26.332867
 30
0.0
 11
-168.052304
 21
-23.832867
 31
0.0
  0
LINE
  8
0
 10
-178.052304
 20
-26.332867
 30
0.0
 11
-178.052304
 21
-23.832867
 31
0.0
  0
ARC
  8
0
 10
-246.052304
 20
-29.332867
 30
0.0
 40
1.0
 50
90.0
 51
180.0
  0
ARC
  8
0
 10
-246.052304
 20
-40.77577
 30
0.0
 40
1.0
 50
180.0
 51
273.17983
  0
ARC
  8
0
 10
-244.552304
 20
-47.332867
 30
0.0
 40
1.0
 50
180.0
 51
270.0
  0
ARC
  8
0
 10
-227.552304
 20
-47.332867
 30
0.0
 40
1.0
 50
270.0
 51
0.0
  0
ARC
  8
0
 10
-167.052304
 20
-36.386881
 30
0.0
 40
1.0
 50
273.17983
 51
0.0
  0
ARC
  8
0
 10
-179.052304
 20
-27.332867
 30
0.0
 40
1.0
 50
90.0
 51
180.0
  0
ARC
  8
0
 10
-167.052304
 20
-27.332867
 30
0.0
 40
1.0
 50
0.0
 51
90.0
  0
LINE
  8
0
 10
-142.552304
 20
-48.332867
 30
0.0
 11
-127.552304
 21
-48.332867
 31
0.0
  0
LINE
  8
0
 10
-146.052304
 20
-29.332867
 30
0.0
 11
-146.052304
 21
-40.832867
 31
0.0
  0
LINE
  8
0
 10
-124.052304
 20
-29.332867
 30
0.0
 11
-124.052304
 21
-40.832867
 31
0.0
  0
LINE
  8
0
 10
-126.552304
 20
-41.832867
 30
0.0
 11
-126.552304
 21
-47.332867
 31
0.0
  0
LINE
  8
0
 10
-143.552304
 20
-41.832867
 30
0.0
 11
-143.552304
 21
-47.332867
 31
0.0
  0
LINE
  8
0
 10
-142.552304
 20
-23.832867
 30
0.0
 11
-144.052304
 21
-8.832867
 31
0.0
  0
LINE
  8
0
 10
-127.552304
 20
-23.832867
 30
0.0
 11
-126.052304
 21
-8.832867
 31
0.0
  0
LINE
  8
0
 10
-144.052304
 20
-8.832867
 30
0.0
 11
-126.052304
 21
-8.832867
 31
0.0
  0
ARC
  8
0
 10
-135.052304
 20
-24.832867
 30
0.0
 40
41.0
 50
80.280132
 51
99.719868
  0
LINE
  8
0
 10
-144.052304
 20
-8.832867
 30
0.0
 11
-144.052304
 21
13.114465
 31
0.0
  0
ARC
  8
0
 10
-141.552304
 20
13.114465
 30
0.0
 40
2.5
 50
99.719868
 51
180.0
  0
LINE
  8
0
 10
-126.052304
 20
-8.832867
 30
0.0
 11
-126.052304
 21
13.114465
 31
0.0
  0
ARC
  8
0
 10
-128.552304
 20
13.114465
 30
0.0
 40
2.5
 50
0.0
 51
80.280132
  0
LINE
  8
0
 10
-142.552304
 20
-23.832867
 30
0.0
 11
-127.552304
 21
-23.832867
 31
0.0
  0
LINE
  8
0
 10
-140.052304
 20
-26.332867
 30
0.0
 11
-140.052304
 21
-23.832867
 31
0.0
  0
LINE
  8
0
 10
-130.052304
 20
-26.332867
 30
0.0
 11
-130.052304
 21
-23.832867
 31
0.0
  0
LINE
  8
0
 10
-129.052304
 20
-26.332867
 30
0.0
 11
-141.052304
 21
-26.332867
 31
0.0
  0
ARC
  8
0
 10
-141.052304
 20
-27.332867
 30
0.0
 40
1.0
 50
90.0
 51
180.0
  0
ARC
  8
0
 10
-129.052304
 20
-27.332867
 30
0.0
 40
1.0
 50
0.0
 51
90.0
  0
LINE
  8
0
 10
-145.052304
 20
-28.332867
 30
0.0
 11
-125.052304
 21
-28.332867
 31
0.0
  0
LINE
  8
0
 10
-142.052304
 20
-27.332867
 30
0.0
 11
-142.052304
 21
-28.332867
 31
0.0
  0
LINE
  8
0
 10
-128.052304
 20
-27.332867
 30
0.0
 11
-128.052304
 21
-28.332867
 31
0.0
  0
LINE
  8
0
 10
-145.052304
 20
-41.832867
 30
0.0
 11
-125.052304
 21
-41.832867
 31
0.0
  0
ARC
  8
0
 10
-145.052304
 20
-40.832867
 30
0.0
 40
1.0
 50
180.0
 51
270.0
  0
ARC
  8
0
 10
-125.052304
 20
-40.832867
 30
0.0
 40
1.0
 50
270.0
 51
360.0
  0
ARC
  8
0
 10
-145.052304
 20
-29.332867
 30
0.0
 40
1.0
 50
90.0
 51
180.0
  0
ARC
  8
0
 10
-125.052304
 20
-29.332867
 30
0.0
 40
1.0
 50
360.0
 51
90.0
  0
ARC
  8
0
 10
-142.552304
 20
-47.332867
 30
0.0
 40
1.0
 50
180.0
 51
270.0
  0
ARC
  8
0
 10
-127.552304
 20
-47.332867
 30
0.0
 40
1.0
 50
270.0
 51
360.0
  0
CIRCLE
  8
0
 10
-173.052304
 20
-79.332867
 30
0.0
 40
9.0
  0
LINE
  8
0
 10
-229.502304
 20
-78.811799
 30
0.0
 11
-229.502304
 21
-79.853935
 31
0.0
  0
LINE
  8
0
 10
-242.602304
 20
-78.811799
 30
0.0
 11
-242.602304
 21
-79.853935
 31
0.0
  0
LINE
  8
0
 10
-235.531236
 20
-72.782867
 30
0.0
 11
-236.573372
 21
-72.782867
 31
0.0
  0
LINE
  8
0
 10
-235.531236
 20
-85.882867
 30
0.0
 11
-236.573372
 21
-85.882867
 31
0.0
  0
POLYLINE
  8
0
 66
     1
 10
0.0
 20
0.0
 30
0.0
  0
VERTEX
  8
0
 10
-229.502304
 20
-78.811799
 30
0.0
  0
VERTEX
  8
0
 10
-235.531236
 20
-72.782867
 30
0.0
  0
SEQEND
  8
0
  0
POLYLINE
  8
0
 66
     1
 10
0.0
 20
0.0
 30
0.0
  0
VERTEX
  8
0
 10
-236.573372
 20
-72.782867
 30
0.0
  0
VERTEX
  8
0
 10
-242.602304
 20
-78.811799
 30
0.0
  0
SEQEND
  8
0
  0
POLYLINE
  8
0
 66
     1
 10
0.0
 20
0.0
 30
0.0
  0
VERTEX
  8
0
 10
-242.602304
 20
-79.853935
 30
0.0
  0
VERTEX
  8
0
 10
-236.573372
 20
-85.882867
 30
0.0
  0
SEQEND
  8
0
  0
POLYLINE
  8
0
 66
     1
 10
0.0
 20
0.0
 30
0.0
  0
VERTEX
  8
0
 10
-235.531236
 20
-85.882867
 30
0.0
  0
VERTEX
  8
0
 10
-229.502304
 20
-79.853935
 30
0.0
  0
SEQEND
  8
0
  0
LINE
  8
0
 10
-242.602304
 20
-48.332867
 30
0.0
 11
-242.602304
 21
-28.332867
 31
0.0
  0
ARC
  8
0
 10
-236.052304
 20
-79.332867
 30
0.0
 40
11.0
 50
90.0
 51
270.0
  0
LINE
  8
0
 10
-236.052304
 20
-68.332867
 30
0.0
 11
-178.272458
 21
-72.001429
 31
0.0
  0
LINE
  8
0
 10
-236.052304
 20
-90.332867
 30
0.0
 11
-178.272458
 21
-86.664306
 31
0.0
  0
LINE
  8
0
 10
-236.573372
 20
-48.332867
 30
0.0
 11
-236.573372
 21
-28.332867
 31
0.0
  0
INSERT
  8
0
  2
*X4
 10
50.308245
 20
-28.300872
 30
0.0
1001
ACAD
1000
HATCH
1002
{
1070
    16
1000
ANSI31
1040
12.0
1040
0.0
1002
}
  0
LINE
  8
0
 10
-276.51708
 20
-28.332867
 30
0.0
 11
-292.51708
 21
-28.332867
 31
0.0
  0
LINE
  8
0
 10
-378.51708
 20
-29.332867
 30
0.0
 11
-378.51708
 21
-40.25299
 31
0.0
  0
LINE
  8
0
  6
CENTER
 10
-369.51708
 20
-23.332867
 30
0.0
 11
-369.51708
 21
-51.332867
 31
0.0
  0
LINE
  8
0
 10
-377.51708
 20
-41.25299
 30
0.0
 11
-377.51708
 21
-45.332867
 31
0.0
  0
LINE
  8
0
 10
-277.51708
 20
-46.332867
 30
0.0
 11
-291.51708
 21
-46.332867
 31
0.0
  0
LINE
  8
0
 10
-369.51708
 20
-40.640559
 30
0.0
 11
-314.487752
 21
-36.407534
 31
0.0
  0
LINE
  8
0
 10
-314.968329
 20
-26.332867
 30
0.0
 11
-324.01708
 21
-26.332867
 31
0.0
  0
LINE
  8
0
 10
-325.01708
 20
-27.332867
 30
0.0
 11
-325.01708
 21
-28.332867
 31
0.0
  0
LINE
  8
0
 10
-313.969576
 20
-27.28293
 30
0.0
 11
-313.565696
 21
-35.360542
 31
0.0
  0
LINE
  8
0
 10
-361.51708
 20
-40.025175
 30
0.0
 11
-361.51708
 21
-45.332867
 31
0.0
  0
LINE
  8
0
 10
-319.51708
 20
-28.332867
 30
0.0
 11
-377.51708
 21
-28.332867
 31
0.0
  0
LINE
  8
0
 10
-362.51708
 20
-46.332867
 30
0.0
 11
-376.51708
 21
-46.332867
 31
0.0
  0
LINE
  8
0
 10
-293.51708
 20
-29.332867
 30
0.0
 11
-293.51708
 21
-40.332867
 31
0.0
  0
LINE
  8
0
 10
-319.51708
 20
-26.332867
 30
0.0
 11
-315.51708
 21
-26.332867
 31
0.0
  0
LINE
  8
0
 10
-312.51708
 20
-14.332867
 30
0.0
 11
-326.51708
 21
-14.332867
 31
0.0
  0
LINE
  8
0
 10
-325.01708
 20
-25.832867
 30
0.0
 11
-314.01708
 21
-25.832867
 31
0.0
  0
ARC
  8
0
 10
-314.01708
 20
0.014452
 30
0.0
 40
1.5
 50
0.0
 51
76.464809
  0
ARC
  8
0
 10
-325.01708
 20
0.014452
 30
0.0
 40
1.5
 50
103.535191
 51
180.0
  0
ARC
  8
0
 10
-319.51708
 20
-22.832867
 30
0.0
 40
25.0
 50
76.464809
 51
103.535191
  0
LINE
  8
0
 10
-314.01708
 20
-25.832867
 30
0.0
 11
-312.51708
 21
-14.332867
 31
0.0
  0
LINE
  8
0
 10
-325.01708
 20
-25.832867
 30
0.0
 11
-326.51708
 21
-14.332867
 31
0.0
  0
LINE
  8
0
 10
-312.51708
 20
-14.332867
 30
0.0
 11
-312.51708
 21
0.014452
 31
0.0
  0
LINE
  8
0
 10
-326.51708
 20
-14.332867
 30
0.0
 11
-326.51708
 21
0.014452
 31
0.0
  0
LINE
  8
0
 10
-323.51708
 20
-26.332867
 30
0.0
 11
-322.01708
 21
-26.332867
 31
0.0
  0
LINE
  8
0
 10
-315.51708
 20
-26.332867
 30
0.0
 11
-315.51708
 21
-25.832867
 31
0.0
  0
LINE
  8
0
 10
-323.51708
 20
-26.332867
 30
0.0
 11
-323.51708
 21
-25.832867
 31
0.0
  0
LINE
  8
0
 10
-275.51708
 20
-29.332867
 30
0.0
 11
-275.51708
 21
-40.332867
 31
0.0
  0
LINE
  8
0
 10
-292.51708
 20
-41.332867
 30
0.0
 11
-292.51708
 21
-45.332867
 31
0.0
  0
LINE
  8
0
 10
-276.51708
 20
-41.332867
 30
0.0
 11
-276.51708
 21
-45.332867
 31
0.0
  0
LINE
  8
0
 10
-276.51708
 20
-41.332867
 30
0.0
 11
-292.51708
 21
-41.332867
 31
0.0
  0
LINE
  8
0
 10
-290.01708
 20
-25.832867
 30
0.0
 11
-291.51708
 21
-14.332867
 31
0.0
  0
LINE
  8
0
 10
-279.01708
 20
-25.832867
 30
0.0
 11
-277.51708
 21
-14.332867
 31
0.0
  0
LINE
  8
0
 10
-277.51708
 20
-14.332867
 30
0.0
 11
-291.51708
 21
-14.332867
 31
0.0
  0
ARC
  8
0
 10
-279.01708
 20
0.014452
 30
0.0
 40
1.5
 50
0.0
 51
76.464809
  0
LINE
  8
0
 10
-291.51708
 20
-14.332867
 30
0.0
 11
-291.51708
 21
0.014452
 31
0.0
  0
ARC
  8
0
 10
-290.01708
 20
0.014452
 30
0.0
 40
1.5
 50
103.535191
 51
180.0
  0
ARC
  8
0
 10
-284.51708
 20
-22.832867
 30
0.0
 40
25.0
 50
76.464809
 51
103.535191
  0
LINE
  8
0
 10
-277.51708
 20
-14.332867
 30
0.0
 11
-277.51708
 21
0.014452
 31
0.0
  0
LINE
  8
0
 10
-290.01708
 20
-25.832867
 30
0.0
 11
-279.01708
 21
-25.832867
 31
0.0
  0
LINE
  8
0
 10
-280.01708
 20
-26.332867
 30
0.0
 11
-289.01708
 21
-26.332867
 31
0.0
  0
LINE
  8
0
 10
-280.51708
 20
-26.332867
 30
0.0
 11
-280.51708
 21
-25.832867
 31
0.0
  0
LINE
  8
0
 10
-284.51708
 20
-26.332867
 30
0.0
 11
-280.51708
 21
-26.332867
 31
0.0
  0
LINE
  8
0
 10
-288.51708
 20
-26.332867
 30
0.0
 11
-288.51708
 21
-25.832867
 31
0.0
  0
LINE
  8
0
 10
-288.51708
 20
-26.332867
 30
0.0
 11
-287.01708
 21
-26.332867
 31
0.0
  0
LINE
  8
0
 10
-290.01708
 20
-27.332867
 30
0.0
 11
-290.01708
 21
-28.332867
 31
0.0
  0
LINE
  8
0
 10
-279.01708
 20
-27.332867
 30
0.0
 11
-279.01708
 21
-28.332867
 31
0.0
  0
CIRCLE
  8
0
 10
-319.51708
 20
-75.332867
 30
0.0
 40
7.0
  0
ARC
  8
0
 10
-369.51708
 20
-75.332867
 30
0.0
 40
9.0
 50
90.0
 51
270.0
  0
LINE
  8
0
 10
-369.51708
 20
-66.332867
 30
0.0
 11
-322.775281
 21
-69.137375
 31
0.0
  0
LINE
  8
0
 10
-369.51708
 20
-84.332867
 30
0.0
 11
-322.775281
 21
-81.528359
 31
0.0
  0
LINE
  8
0
 10
-364.46708
 20
-74.726013
 30
0.0
 11
-364.46708
 21
-75.939721
 31
0.0
  0
LINE
  8
0
 10
-374.56708
 20
-74.726013
 30
0.0
 11
-374.56708
 21
-75.939721
 31
0.0
  0
LINE
  8
0
 10
-368.910225
 20
-70.282867
 30
0.0
 11
-370.123934
 21
-70.282867
 31
0.0
  0
LINE
  8
0
 10
-368.910225
 20
-80.382867
 30
0.0
 11
-370.123934
 21
-80.382867
 31
0.0
  0
POLYLINE
  8
0
 66
     1
 10
0.0
 20
0.0
 30
0.0
  0
VERTEX
  8
0
 10
-370.123934
 20
-70.282867
 30
0.0
  0
VERTEX
  8
0
 10
-374.56708
 20
-74.726013
 30
0.0
  0
SEQEND
  8
0
  0
POLYLINE
  8
0
 66
     1
 10
0.0
 20
0.0
 30
0.0
  0
VERTEX
  8
0
 10
-364.46708
 20
-74.726013
 30
0.0
  0
VERTEX
  8
0
 10
-368.910225
 20
-70.282867
 30
0.0
  0
SEQEND
  8
0
  0
POLYLINE
  8
0
 66
     1
 10
0.0
 20
0.0
 30
0.0
  0
VERTEX
  8
0
 10
-374.56708
 20
-75.939721
 30
0.0
  0
VERTEX
  8
0
 10
-370.123934
 20
-80.382867
 30
0.0
  0
SEQEND
  8
0
  0
POLYLINE
  8
0
 66
     1
 10
0.0
 20
0.0
 30
0.0
  0
VERTEX
  8
0
 10
-368.910225
 20
-80.382867
 30
0.0
  0
VERTEX
  8
0
 10
-364.46708
 20
-75.939721
 30
0.0
  0
SEQEND
  8
0
  0
LINE
  8
0
 10
-370.123934
 20
-46.332867
 30
0.0
 11
-370.123934
 21
-28.332867
 31
0.0
  0
ARC
  8
0
 10
-377.51708
 20
-29.332867
 30
0.0
 40
1.0
 50
90.0
 51
180.0
  0
ARC
  8
0
 10
-377.51708
 20
-40.25299
 30
0.0
 40
1.0
 50
180.0
 51
270.0
  0
ARC
  8
0
 10
-376.51708
 20
-45.332867
 30
0.0
 40
1.0
 50
180.0
 51
270.0
  0
ARC
  8
0
 10
-362.51708
 20
-45.332867
 30
0.0
 40
1.0
 50
270.0
 51
0.0
  0
ARC
  8
0
 10
-314.564448
 20
-35.41048
 30
0.0
 40
1.0
 50
274.398705
 51
2.862405
  0
ARC
  8
0
 10
-292.51708
 20
-40.332867
 30
0.0
 40
1.0
 50
180.0
 51
270.0
  0
ARC
  8
0
 10
-291.51708
 20
-45.332867
 30
0.0
 40
1.0
 50
180.0
 51
270.0
  0
ARC
  8
0
 10
-277.51708
 20
-45.332867
 30
0.0
 40
1.0
 50
270.0
 51
0.0
  0
ARC
  8
0
 10
-276.51708
 20
-40.332867
 30
0.0
 40
1.0
 50
270.0
 51
0.0
  0
ARC
  8
0
 10
-292.51708
 20
-29.332867
 30
0.0
 40
1.0
 50
90.0
 51
180.0
  0
ARC
  8
0
 10
-276.51708
 20
-29.332867
 30
0.0
 40
1.0
 50
0.0
 51
90.0
  0
ARC
  8
0
 10
-324.01708
 20
-27.332867
 30
0.0
 40
1.0
 50
90.0
 51
180.0
  0
ARC
  8
0
 10
-314.968329
 20
-27.332867
 30
0.0
 40
1.0
 50
2.862405
 51
90.0
  0
ARC
  8
0
 10
-289.01708
 20
-27.332867
 30
0.0
 40
1.0
 50
90.0
 51
180.0
  0
ARC
  8
0
 10
-280.01708
 20
-27.332867
 30
0.0
 40
1.0
 50
0.0
 51
90.0
  0
LINE
  8
0
 10
-374.56708
 20
-46.332867
 30
0.0
 11
-374.56708
 21
-28.332867
 31
0.0
  0
INSERT
  8
0
  2
*X5
 10
-10.59121
 20
-28.480455
 30
0.0
1001
ACAD
1000
HATCH
1002
{
1070
    16
1000
ANSI31
1040
12.0
1040
0.0
1002
}
  0
LINE
  8
0
  6
CENTER
 10
-80.151929
 20
-57.632867
 30
0.0
 11
-80.151929
 21
-23.332867
 31
0.0
  0
ENDSEC
  0
EOF
