  0
SECTION
  2
HEADER
  9
$ACADVER
  1
AC1009
  9
$INSBASE
 10
0.0
 20
0.0
 30
0.0
  9
$EXTMIN
 10
379.83935961654691
 20
-627.68262589382323
 30
-0.0000000000000058
  9
$EXTMAX
 10
1571.212903922582
 20
141.12161550754541
 30
0.0000000000000104
  9
$LIMMIN
 10
0.0
 20
0.0
  9
$LIMMAX
 10
420.0
 20
297.0
  9
$ORTHOMODE
 70
     1
  9
$REGENMODE
 70
     1
  9
$FILLMODE
 70
     1
  9
$QTEXTMODE
 70
     0
  9
$MIRRTEXT
 70
     1
  9
$DRAGMODE
 70
     2
  9
$LTSCALE
 40
1.0
  9
$OSMODE
 70
    40
  9
$ATTMODE
 70
     1
  9
$TEXTSIZE
 40
2.5
  9
$TRACEWID
 40
1.0
  9
$TEXTSTYLE
  7
STANDARD
  9
$CLAYER
  8
0
  9
$CELTYPE
  6
BYLAYER
  9
$CECOLOR
 62
   256
  9
$DIMSCALE
 40
1.0
  9
$DIMASZ
 40
2.5
  9
$DIMEXO
 40
0.625
  9
$DIMDLI
 40
3.75
  9
$DIMRND
 40
0.0
  9
$DIMDLE
 40
0.0
  9
$DIMEXE
 40
1.25
  9
$DIMTP
 40
0.0
  9
$DIMTM
 40
0.0
  9
$DIMTXT
 40
2.5
  9
$DIMCEN
 40
2.5
  9
$DIMTSZ
 40
0.0
  9
$DIMTOL
 70
     0
  9
$DIMLIM
 70
     0
  9
$DIMTIH
 70
     1
  9
$DIMTOH
 70
     1
  9
$DIMSE1
 70
     0
  9
$DIMSE2
 70
     0
  9
$DIMTAD
 70
     1
  9
$DIMZIN
 70
     8
  9
$DIMBLK
  1

  9
$DIMASO
 70
     1
  9
$DIMSHO
 70
     1
  9
$DIMPOST
  1

  9
$DIMAPOST
  1

  9
$DIMALT
 70
     0
  9
$DIMALTD
 70
     3
  9
$DIMALTF
 40
0.03937007874016
  9
$DIMLFAC
 40
1.0
  9
$DIMTOFL
 70
     1
  9
$DIMTVP
 40
0.0
  9
$DIMTIX
 70
     0
  9
$DIMSOXD
 70
     0
  9
$DIMSAH
 70
     0
  9
$DIMBLK1
  1

  9
$DIMBLK2
  1

  9
$DIMSTYLE
  2
ISO-25
  9
$DIMCLRD
 70
     0
  9
$DIMCLRE
 70
     0
  9
$DIMCLRT
 70
     0
  9
$DIMTFAC
 40
1.0
  9
$DIMGAP
 40
0.625
  9
$LUNITS
 70
     2
  9
$LUPREC
 70
     4
  9
$SKETCHINC
 40
1.0
  9
$FILLETRAD
 40
10.0
  9
$AUNITS
 70
     0
  9
$AUPREC
 70
     0
  9
$MENU
  1
.
  9
$ELEVATION
 40
0.0
  9
$PELEVATION
 40
0.0
  9
$THICKNESS
 40
0.0
  9
$LIMCHECK
 70
     0
  9
$BLIPMODE
 70
     0
  9
$CHAMFERA
 40
0.75
  9
$CHAMFERB
 40
0.75
  9
$SKPOLY
 70
     0
  9
$TDCREATE
 40
2453294.4202293628
  9
$TDUPDATE
 40
2453294.559483252
  9
$TDINDWG
 40
0.1392545833
  9
$TDUSRTIMER
 40
0.1392543519
  9
$USRTIMER
 70
     1
  9
$ANGBASE
 50
0.0
  9
$ANGDIR
 70
     0
  9
$PDMODE
 70
     3
  9
$PDSIZE
 40
2.0
  9
$PLINEWID
 40
0.0
  9
$COORDS
 70
     0
  9
$SPLFRAME
 70
     0
  9
$SPLINETYPE
 70
     6
  9
$SPLINESEGS
 70
     8
  9
$ATTDIA
 70
     0
  9
$ATTREQ
 70
     1
  9
$HANDLING
 70
-16383
  9
$HANDSEED
  5
7E1
  9
$SURFTAB1
 70
     6
  9
$SURFTAB2
 70
     6
  9
$SURFTYPE
 70
     6
  9
$SURFU
 70
     6
  9
$SURFV
 70
     6
  9
$UCSNAME
  2

  9
$UCSORG
 10
0.0
 20
0.0
 30
0.0
  9
$UCSXDIR
 10
1.0
 20
0.0
 30
0.0
  9
$UCSYDIR
 10
0.0
 20
1.0
 30
0.0
  9
$PUCSNAME
  2

  9
$PUCSORG
 10
0.0
 20
0.0
 30
0.0
  9
$PUCSXDIR
 10
1.0
 20
0.0
 30
0.0
  9
$PUCSYDIR
 10
0.0
 20
1.0
 30
0.0
  9
$USERI1
 70
     0
  9
$USERI2
 70
     0
  9
$USERI3
 70
     0
  9
$USERI4
 70
     0
  9
$USERI5
 70
     0
  9
$USERR1
 40
0.0
  9
$USERR2
 40
0.0
  9
$USERR3
 40
0.0
  9
$USERR4
 40
0.0
  9
$USERR5
 40
0.0
  9
$WORLDVIEW
 70
     1
  9
$SHADEDGE
 70
     3
  9
$SHADEDIF
 70
    70
  9
$TILEMODE
 70
     1
  9
$MAXACTVP
 70
    64
  9
$PLIMCHECK
 70
     0
  9
$PEXTMIN
 10
28.674485683441159
 20
19.97498331069945
 30
0.0
  9
$PEXTMAX
 10
258.0703711509704
 20
179.77484979629509
 30
0.0
  9
$PLIMMIN
 10
-5.027069091796875
 20
-5.0270833969116211
  9
$PLIMMAX
 10
291.98358154296869
 20
204.98858737945551
  9
$UNITMODE
 70
     0
  9
$VISRETAIN
 70
     1
  9
$PLINEGEN
 70
     0
  9
$PSLTSCALE
 70
     1
  0
ENDSEC
  0
SECTION
  2
TABLES
  0
TABLE
  2
VPORT
 70
    15
  0
VPORT
  2
*ACTIVE
 70
     0
 10
0.0
 20
0.0
 11
1.0
 21
1.0
 12
975.52613176956436
 22
-243.28050519313879
 13
0.0
 23
0.0
 14
10.0
 24
10.0
 15
10.0
 25
10.0
 16
0.0
 26
0.0
 36
1.0
 17
0.0
 27
0.0
 37
0.0
 40
793.89321606416411
 41
1.508135168961201
 42
50.0
 43
0.0
 44
0.0
 50
0.0
 51
0.0
 71
     0
 72
   100
 73
     1
 74
     2
 75
     0
 76
     0
 77
     0
 78
     0
  0
ENDTAB
  0
TABLE
  2
LTYPE
 70
     3
  0
LTYPE
  2
CONTINUOUS
 70
     0
  3
Solid line
 72
    65
 73
     0
 40
0.0
  0
LTYPE
  2
CENTER
 70
     0
  3
Center (.5x) ___ _ ___ _ ___ _ ___ _ ___ _ ___
 72
    65
 73
     4
 40
28.574999999999989
 49
19.050000000000001
 49
-3.1749999999999989
 49
3.1749999999999989
 49
-3.1749999999999989
  0
ENDTAB
  0
TABLE
  2
LAYER
 70
     4
  0
LAYER
  2
0
 70
     0
 62
     7
  6
CONTINUOUS
  0
ENDTAB
  0
TABLE
  2
STYLE
 70
     1
  0
STYLE
  2
STANDARD
 70
     0
 40
0.0
 41
1.0
 50
0.0
 71
     0
 42
2.5
  3
txt
  4

  0
ENDTAB
  0
TABLE
  2
VIEW
 70
     0
  0
ENDTAB
  0
TABLE
  2
UCS
 70
     0
  0
ENDTAB
  0
TABLE
  2
APPID
 70
     1
  0
APPID
  2
ACAD
 70
     0
  0
ENDTAB
  0
TABLE
  2
DIMSTYLE
 70
     2
  0
DIMSTYLE
  2
ISO-25
 70
     0
  3

  4

  5

  6

  7

 40
1.0
 41
2.5
 42
0.625
 43
3.75
 44
1.25
 45
0.0
 46
0.0
 47
0.0
 48
0.0
140
2.5
141
2.5
142
0.0
143
0.03937007874016
144
1.0
145
0.0
146
1.0
147
0.625
 71
     0
 72
     0
 73
     1
 74
     1
 75
     0
 76
     0
 77
     1
 78
     8
170
     0
171
     3
172
     1
173
     0
174
     0
175
     0
176
     0
177
     0
178
     0
  0
ENDTAB
  0
ENDSEC
  0
SECTION
  2
BLOCKS
  0
BLOCK
  8
0
  2
$MODEL_SPACE
 70
     0
 10
0.0
 20
0.0
 30
0.0
  3
$MODEL_SPACE
  1

  0
ENDBLK
  5
21
  8
0
  0
BLOCK
 67
     1
  8
0
  2
$PAPER_SPACE
 70
     0
 10
0.0
 20
0.0
 30
0.0
  3
$PAPER_SPACE
  1

  0
ENDBLK
  5
53
 67
     1
  8
0
  0
ENDSEC
  0
SECTION
  2
ENTITIES
  0
ARC
  5
245
  8
0
 10
1394.7460011805269
 20
-32.660367371632901
 30
0.0
 40
14.00198
 50
270.0
 51
90.0
  0
ARC
  5
249
  8
0
 10
1394.7460011805269
 20
-32.660367371632901
 30
0.0
 40
15.99802
 50
241.07244599999791
 51
118.9568550000055
  0
LINE
  5
24B
  8
0
  6
CENTER
 10
1126.0809676667391
 20
-32.660367371632901
 30
0.0
 11
1413.744021180526
 21
-32.660367371632901
 31
0.0
  0
ARC
  5
24E
  8
0
 10
1394.7460011805269
 20
-32.660367371632901
 30
0.0
 40
14.49802
 50
254.96899200000129
 51
105.0912209999985
  0
ARC
  5
24F
  8
0
 10
1144.7460011805269
 20
-32.660367371632901
 30
0.0
 40
14.49802
 50
74.908779000001417
 51
285.03100799999862
  0
ARC
  5
254
  8
0
 10
1144.7460011805269
 20
-32.660367371632901
 30
0.0
 40
15.99802
 50
61.043144999994453
 51
298.92755400000198
  0
LINE
  5
256
  8
0
 10
1395.0789876667391
 20
-18.662347371632901
 30
0.0
 11
1144.7460011805269
 21
-18.662347371632901
 31
0.0
1001
ACAD
1000
ASC_BOUNDS
1002
{
1070
    19
1002
}
  0
ARC
  5
258
  8
0
 10
1144.7460011805269
 20
-32.660367371632901
 30
0.0
 40
14.00198
 50
90.0
 51
270.0
  0
LINE
  5
259
  8
0
  6
CENTER
 10
1074.2095232887959
 20
131.6762061847657
 30
0.0
 11
1074.2095232887959
 21
21.676206184765761
 31
0.0
  0
LINE
  5
25A
  8
0
 10
1090.2095232887959
 20
46.676206184765761
 30
0.0
 11
1058.2095232887959
 21
46.676206184765761
 31
0.0
1001
ACAD
1000
ASC_BOUNDS
1002
{
1070
    19
1005
0
1005
0
1005
0
1005
0
1005
0
1002
}
  0
LINE
  5
278
  8
0
 10
1058.2095232887959
 20
44.676206184765753
 30
0.0
 11
1058.2095232887959
 21
46.676206184765761
 31
0.0
1001
ACAD
1000
ASC_BOUNDS
1002
{
1070
    19
1002
}
  0
LINE
  5
27B
  8
0
 10
1088.2095232887959
 20
48.676206184765761
 30
0.0
 11
1060.2095232887959
 21
48.676206184765761
 31
0.0
1001
ACAD
1000
ASC_BOUNDS
1002
{
1070
    19
1002
}
  0
LINE
  5
283
  8
0
 10
1058.2095232887959
 20
46.676206184765761
 30
0.0
 11
1060.2095232887959
 21
48.676206184765761
 31
0.0
1001
ACAD
1000
ASC_BOUNDS
1002
{
1070
    19
1002
}
  0
LINE
  5
284
  8
0
 10
1090.2095232887959
 20
46.676206184765761
 30
0.0
 11
1090.2095232887959
 21
44.676206184765753
 31
0.0
1001
ACAD
1000
ASC_BOUNDS
1002
{
1070
    19
1002
}
  0
LINE
  5
285
  8
0
 10
1088.2095232887959
 20
48.676206184765761
 30
0.0
 11
1090.2095232887959
 21
46.676206184765761
 31
0.0
1001
ACAD
1000
ASC_BOUNDS
1002
{
1070
    19
1002
}
  0
LINE
  5
286
  8
0
 10
1090.2095232887959
 20
44.676206184765753
 30
0.0
 11
1058.2095232887959
 21
44.676206184765753
 31
0.0
1001
ACAD
1000
ASC_BOUNDS
1002
{
1070
    19
1005
0
1005
0
1005
0
1005
0
1005
0
1002
}
  0
ARC
  5
29C
  8
0
 10
1074.2095232887959
 20
114.6742261847657
 30
0.0
 40
14.00198
 50
0.0
 51
180.0
  0
LINE
  5
29E
  8
0
 10
1088.2075432887959
 20
48.676206184765761
 30
0.0
 11
1088.2075432887959
 21
114.6742261847657
 31
0.0
1001
ACAD
1000
ASC_BOUNDS
1002
{
1070
    19
1002
}
  0
LINE
  5
29F
  8
0
 10
1060.2075432887959
 20
48.676206184765761
 30
0.0
 11
1060.2075432887959
 21
114.6742261847657
 31
0.0
1001
ACAD
1000
ASC_BOUNDS
1002
{
1070
    19
1002
}
  0
LINE
  5
2A1
  8
0
 10
1380.7460011805269
 20
48.676206184766208
 30
0.0
 11
1380.7460011805269
 21
68.676206184766215
 31
0.0
1001
ACAD
1000
ASC_BOUNDS
1002
{
1070
    19
1002
}
  0
LINE
  5
2A2
  8
0
 10
1408.7460011805269
 20
48.676206184766208
 30
0.0
 11
1408.7460011805269
 21
68.676206184766215
 31
0.0
1001
ACAD
1000
ASC_BOUNDS
1002
{
1070
    19
1002
}
  0
LINE
  5
2A3
  8
0
 10
1348.7460011805269
 20
100.6762061847662
 30
0.0
 11
1190.7460011805269
 21
100.6762061847657
 31
0.0
  0
LINE
  5
2A4
  8
0
 10
1348.7460011805269
 20
128.67620618476619
 30
0.0
 11
1190.7460011805269
 21
128.6762061847657
 31
0.0
  0
ARC
  5
2A5
  8
0
 10
1348.7460011805269
 20
68.676206184766215
 30
0.0
 40
32.0
 50
0.0
 51
90.0
1001
ACAD
1000
ASC_BOUNDS
1002
{
1070
    19
1002
}
  0
ARC
  5
2A6
  8
0
 10
1348.7460011805269
 20
68.676206184766215
 30
0.0
 40
60.0
 50
0.0
 51
90.0
1001
ACAD
1000
ASC_BOUNDS
1002
{
1070
    19
1002
}
  0
LINE
  5
2A7
  8
0
 10
1410.7460011805269
 20
47.176206184766222
 30
0.0
 11
1410.7460011805269
 21
44.676206184766222
 31
0.0
1001
ACAD
1000
ASC_BOUNDS
1002
{
1070
    19
1002
}
  0
LINE
  5
2A8
  8
0
 10
1410.7460011805269
 20
44.676206184766222
 30
0.0
 11
1378.7460011805269
 21
44.676206184766222
 31
0.0
1001
ACAD
1000
ASC_BOUNDS
1002
{
1070
    19
1005
0
1005
0
1005
0
1005
0
1005
0
1002
}
  0
LINE
  5
2A9
  8
0
 10
1378.7460011805269
 20
44.676206184766222
 30
0.0
 11
1378.7460011805269
 21
47.176206184766222
 31
0.0
1001
ACAD
1000
ASC_BOUNDS
1002
{
1070
    19
1002
}
  0
LINE
  5
2B3
  8
0
 10
1409.2460011805269
 20
48.676206184766208
 30
0.0
 11
1382.2460011805269
 21
48.676206184766208
 31
0.0
1001
ACAD
1000
ASC_BOUNDS
1002
{
1070
    19
1002
}
  0
LINE
  5
2B4
  8
0
 10
1382.2460011805269
 20
48.676206184766208
 30
0.0
 11
1380.2460011805269
 21
48.676206184766208
 31
0.0
1001
ACAD
1000
ASC_BOUNDS
1002
{
1070
    19
1002
}
  0
LINE
  5
2B5
  8
0
 10
1410.7460011805269
 20
47.176206184766222
 30
0.0
 11
1409.2460011805269
 21
48.676206184766208
 31
0.0
1001
ACAD
1000
ASC_BOUNDS
1002
{
1070
    19
1005
0
1002
}
  0
LINE
  5
2B6
  8
0
 10
1378.7460011805269
 20
47.176206184766222
 30
0.0
 11
1380.2460011805269
 21
48.676206184766208
 31
0.0
1001
ACAD
1000
ASC_BOUNDS
1002
{
1070
    19
1002
}
  0
LINE
  5
2B7
  8
0
 10
1410.7460011805269
 20
47.176206184766222
 30
0.0
 11
1378.7460011805269
 21
47.176206184766222
 31
0.0
  0
LINE
  5
302
  8
0
 10
1128.7460011805269
 20
47.176206184765753
 30
0.0
 11
1160.7460011805269
 21
47.176206184765753
 31
0.0
  0
LINE
  5
303
  8
0
 10
1160.7460011805269
 20
47.176206184765753
 30
0.0
 11
1159.2460011805269
 21
48.676206184765761
 31
0.0
1001
ACAD
1000
ASC_BOUNDS
1002
{
1070
    19
1005
0
1002
}
  0
LINE
  5
304
  8
0
 10
1128.7460011805269
 20
47.176206184765753
 30
0.0
 11
1130.2460011805269
 21
48.676206184765761
 31
0.0
1001
ACAD
1000
ASC_BOUNDS
1002
{
1070
    19
1005
0
1005
0
1002
}
  0
LINE
  5
305
  8
0
 10
1157.2460011805269
 20
48.676206184765761
 30
0.0
 11
1159.2460011805269
 21
48.676206184765761
 31
0.0
1001
ACAD
1000
ASC_BOUNDS
1002
{
1070
    19
1002
}
  0
LINE
  5
306
  8
0
 10
1130.2460011805269
 20
48.676206184765761
 30
0.0
 11
1157.2460011805269
 21
48.676206184765761
 31
0.0
1001
ACAD
1000
ASC_BOUNDS
1002
{
1070
    19
1002
}
  0
LINE
  5
310
  8
0
 10
1160.7460011805269
 20
44.676206184765753
 30
0.0
 11
1160.7460011805269
 21
47.176206184765753
 31
0.0
1001
ACAD
1000
ASC_BOUNDS
1002
{
1070
    19
1002
}
  0
LINE
  5
311
  8
0
 10
1128.7460011805269
 20
44.676206184765753
 30
0.0
 11
1160.7460011805269
 21
44.676206184765753
 31
0.0
1001
ACAD
1000
ASC_BOUNDS
1002
{
1070
    19
1005
0
1005
0
1005
0
1005
0
1005
0
1002
}
  0
LINE
  5
312
  8
0
 10
1128.7460011805269
 20
47.176206184765753
 30
0.0
 11
1128.7460011805269
 21
44.676206184765753
 31
0.0
1001
ACAD
1000
ASC_BOUNDS
1002
{
1070
    19
1002
}
  0
ARC
  5
313
  8
0
 10
1190.7460011805269
 20
68.676206184765761
 30
0.0
 40
60.0
 50
90.0
 51
180.0
1001
ACAD
1000
ASC_BOUNDS
1002
{
1070
    19
1002
}
  0
ARC
  5
314
  8
0
 10
1190.7460011805269
 20
68.676206184765761
 30
0.0
 40
32.0
 50
90.0
 51
180.0
1001
ACAD
1000
ASC_BOUNDS
1002
{
1070
    19
1002
}
  0
LINE
  5
317
  8
0
 10
1130.7460011805269
 20
48.676206184765761
 30
0.0
 11
1130.7460011805269
 21
68.676206184765761
 31
0.0
1001
ACAD
1000
ASC_BOUNDS
1002
{
1070
    19
1002
}
  0
LINE
  5
318
  8
0
 10
1158.7460011805269
 20
48.676206184765761
 30
0.0
 11
1158.7460011805269
 21
68.676206184765761
 31
0.0
1001
ACAD
1000
ASC_BOUNDS
1002
{
1070
    19
1002
}
  0
ARC
  5
332
  8
0
 10
395.88171005244112
 20
114.6742261847657
 30
0.0
 40
14.00198
 50
0.0
 51
180.0
  0
LINE
  5
333
  8
0
  6
CENTER
 10
395.88171005244112
 20
131.6762061847657
 30
0.0
 11
395.88171005244112
 21
41.676206184765761
 31
0.0
  0
LINE
  5
334
  8
0
 10
409.879730052441
 20
48.676206184765761
 30
0.0
 11
409.879730052441
 21
114.6742261847657
 31
0.0
1001
ACAD
1000
ASC_BOUNDS
1002
{
1070
    19
1002
}
  0
LINE
  5
335
  8
0
 10
381.87973005244112
 20
48.676206184765761
 30
0.0
 11
381.87973005244112
 21
114.6742261847657
 31
0.0
1001
ACAD
1000
ASC_BOUNDS
1002
{
1070
    19
1002
}
  0
LINE
  5
336
  8
0
 10
379.87973005244112
 20
47.176206184765753
 30
0.0
 11
379.87973005244112
 21
44.676206184765753
 31
0.0
1001
ACAD
1000
ASC_BOUNDS
1002
{
1070
    19
1002
}
  0
LINE
  5
337
  8
0
 10
379.87973005244112
 20
44.676206184765753
 30
0.0
 11
411.87973005244112
 21
44.676206184765753
 31
0.0
1001
ACAD
1000
ASC_BOUNDS
1002
{
1070
    19
1005
0
1005
0
1005
0
1005
0
1005
0
1002
}
  0
LINE
  5
338
  8
0
 10
411.87973005244112
 20
44.676206184765753
 30
0.0
 11
411.87973005244112
 21
47.176206184765753
 31
0.0
1001
ACAD
1000
ASC_BOUNDS
1002
{
1070
    19
1002
}
  0
LINE
  5
342
  8
0
 10
381.37973005244112
 20
48.676206184765761
 30
0.0
 11
408.37973005244112
 21
48.676206184765761
 31
0.0
1001
ACAD
1000
ASC_BOUNDS
1002
{
1070
    19
1002
}
  0
LINE
  5
343
  8
0
 10
408.37973005244112
 20
48.676206184765761
 30
0.0
 11
410.379730052441
 21
48.676206184765761
 31
0.0
1001
ACAD
1000
ASC_BOUNDS
1002
{
1070
    19
1002
}
  0
LINE
  5
348
  8
0
 10
379.87973005244112
 20
47.176206184765753
 30
0.0
 11
381.37973005244112
 21
48.676206184765761
 31
0.0
1001
ACAD
1000
ASC_BOUNDS
1002
{
1070
    19
1005
0
1002
}
  0
LINE
  5
349
  8
0
 10
411.87973005244112
 20
47.176206184765753
 30
0.0
 11
410.379730052441
 21
48.676206184765761
 31
0.0
1001
ACAD
1000
ASC_BOUNDS
1002
{
1070
    19
1002
}
  0
LINE
  5
34A
  8
0
 10
379.87973005244112
 20
47.176206184765753
 30
0.0
 11
411.87973005244112
 21
47.176206184765753
 31
0.0
  0
LINE
  5
34C
  8
0
 10
701.73244521113315
 20
48.676206184765761
 30
0.0
 11
701.73244521113315
 21
68.676206184765761
 31
0.0
1001
ACAD
1000
ASC_BOUNDS
1002
{
1070
    19
1002
}
  0
LINE
  5
34D
  8
0
 10
729.73244521113315
 20
48.676206184765761
 30
0.0
 11
729.73244521113315
 21
68.676206184765761
 31
0.0
1001
ACAD
1000
ASC_BOUNDS
1002
{
1070
    19
1002
}
  0
LINE
  5
34E
  8
0
 10
669.73244521113315
 20
100.6762061847657
 30
0.0
 11
511.7324452111331
 21
100.6762061847657
 31
0.0
  0
LINE
  5
34F
  8
0
 10
669.73244521113315
 20
128.6762061847657
 30
0.0
 11
511.7324452111331
 21
128.6762061847657
 31
0.0
  0
ARC
  5
350
  8
0
 10
669.73244521113315
 20
68.676206184765761
 30
0.0
 40
32.0
 50
0.0
 51
90.0
1001
ACAD
1000
ASC_BOUNDS
1002
{
1070
    19
1002
}
  0
ARC
  5
351
  8
0
 10
669.73244521113315
 20
68.676206184765761
 30
0.0
 40
60.0
 50
0.0
 51
90.0
1001
ACAD
1000
ASC_BOUNDS
1002
{
1070
    19
1002
}
  0
LINE
  5
352
  8
0
 10
731.73244521113315
 20
47.176206184765753
 30
0.0
 11
731.73244521113315
 21
44.676206184765753
 31
0.0
1001
ACAD
1000
ASC_BOUNDS
1002
{
1070
    19
1002
}
  0
LINE
  5
353
  8
0
 10
731.73244521113315
 20
44.676206184765753
 30
0.0
 11
699.73244521113315
 21
44.676206184765753
 31
0.0
1001
ACAD
1000
ASC_BOUNDS
1002
{
1070
    19
1005
0
1005
0
1005
0
1005
0
1005
0
1002
}
  0
LINE
  5
354
  8
0
 10
699.73244521113315
 20
44.676206184765753
 30
0.0
 11
699.73244521113315
 21
47.176206184765753
 31
0.0
1001
ACAD
1000
ASC_BOUNDS
1002
{
1070
    19
1002
}
  0
LINE
  5
35E
  8
0
 10
730.23244521113315
 20
48.676206184765761
 30
0.0
 11
703.23244521113315
 21
48.676206184765761
 31
0.0
1001
ACAD
1000
ASC_BOUNDS
1002
{
1070
    19
1002
}
  0
LINE
  5
35F
  8
0
 10
703.23244521113315
 20
48.676206184765761
 30
0.0
 11
701.23244521113315
 21
48.676206184765761
 31
0.0
1001
ACAD
1000
ASC_BOUNDS
1002
{
1070
    19
1002
}
  0
LINE
  5
364
  8
0
 10
731.73244521113315
 20
47.176206184765753
 30
0.0
 11
730.23244521113315
 21
48.676206184765761
 31
0.0
1001
ACAD
1000
ASC_BOUNDS
1002
{
1070
    19
1005
0
1002
}
  0
LINE
  5
365
  8
0
 10
699.73244521113315
 20
47.176206184765753
 30
0.0
 11
701.23244521113315
 21
48.676206184765761
 31
0.0
1001
ACAD
1000
ASC_BOUNDS
1002
{
1070
    19
1002
}
  0
LINE
  5
366
  8
0
 10
731.73244521113315
 20
47.176206184765753
 30
0.0
 11
699.73244521113315
 21
47.176206184765753
 31
0.0
  0
LINE
  5
36B
  8
0
 10
449.7324452111331
 20
47.176206184765753
 30
0.0
 11
481.7324452111331
 21
47.176206184765753
 31
0.0
  0
LINE
  5
36C
  8
0
 10
481.7324452111331
 20
47.176206184765753
 30
0.0
 11
480.2324452111331
 21
48.676206184765761
 31
0.0
1001
ACAD
1000
ASC_BOUNDS
1002
{
1070
    19
1005
0
1002
}
  0
LINE
  5
36D
  8
0
 10
449.7324452111331
 20
47.176206184765753
 30
0.0
 11
451.2324452111331
 21
48.676206184765761
 31
0.0
1001
ACAD
1000
ASC_BOUNDS
1002
{
1070
    19
1005
0
1005
0
1002
}
  0
LINE
  5
372
  8
0
 10
478.2324452111331
 20
48.676206184765761
 30
0.0
 11
480.2324452111331
 21
48.676206184765761
 31
0.0
1001
ACAD
1000
ASC_BOUNDS
1002
{
1070
    19
1002
}
  0
LINE
  5
373
  8
0
 10
451.2324452111331
 20
48.676206184765761
 30
0.0
 11
478.2324452111331
 21
48.676206184765761
 31
0.0
1001
ACAD
1000
ASC_BOUNDS
1002
{
1070
    19
1002
}
  0
LINE
  5
37D
  8
0
 10
481.7324452111331
 20
44.676206184765753
 30
0.0
 11
481.7324452111331
 21
47.176206184765753
 31
0.0
1001
ACAD
1000
ASC_BOUNDS
1002
{
1070
    19
1002
}
  0
LINE
  5
37E
  8
0
 10
449.7324452111331
 20
44.676206184765753
 30
0.0
 11
481.7324452111331
 21
44.676206184765753
 31
0.0
1001
ACAD
1000
ASC_BOUNDS
1002
{
1070
    19
1005
0
1005
0
1005
0
1005
0
1005
0
1002
}
  0
LINE
  5
37F
  8
0
 10
449.7324452111331
 20
47.176206184765753
 30
0.0
 11
449.7324452111331
 21
44.676206184765753
 31
0.0
1001
ACAD
1000
ASC_BOUNDS
1002
{
1070
    19
1002
}
  0
ARC
  5
380
  8
0
 10
511.7324452111331
 20
68.676206184765761
 30
0.0
 40
60.0
 50
90.0
 51
180.0
1001
ACAD
1000
ASC_BOUNDS
1002
{
1070
    19
1002
}
  0
ARC
  5
381
  8
0
 10
511.7324452111331
 20
68.676206184765761
 30
0.0
 40
32.0
 50
90.0
 51
180.0
1001
ACAD
1000
ASC_BOUNDS
1002
{
1070
    19
1002
}
  0
LINE
  5
384
  8
0
 10
451.7324452111331
 20
48.676206184765761
 30
0.0
 11
451.7324452111331
 21
68.676206184765761
 31
0.0
1001
ACAD
1000
ASC_BOUNDS
1002
{
1070
    19
1002
}
  0
LINE
  5
385
  8
0
 10
479.73244521113321
 20
48.676206184765761
 30
0.0
 11
479.73244521113321
 21
68.676206184765761
 31
0.0
1001
ACAD
1000
ASC_BOUNDS
1002
{
1070
    19
1002
}
  0
LINE
  5
4D2
  8
0
 10
1069.2095232887959
 20
44.676206184765753
 30
0.0
 11
1069.2095232887959
 21
25.426206184765761
 31
0.0
  0
LINE
  5
4D4
  8
0
 10
1069.9595232887959
 20
24.676206184765761
 30
0.0
 11
1078.4595232887959
 21
24.676206184765761
 31
0.0
  0
LINE
  5
4D6
  8
0
 10
1079.2095232887959
 20
25.42620618476553
 30
0.0
 11
1079.2095232887959
 21
44.676206184765753
 31
0.0
  0
LINE
  5
4D7
  8
0
 10
1078.4595232887959
 20
24.676206184765761
 30
0.0
 11
1078.4595232887959
 21
43.926206184765761
 31
0.0
  0
LINE
  5
4D8
  8
0
 10
1069.9595232887959
 20
43.926206184765761
 30
0.0
 11
1069.9595232887959
 21
24.676206184765761
 31
0.0
  0
LINE
  5
4D9
  8
0
 10
1069.2095232887959
 20
25.426206184765761
 30
0.0
 11
1079.2095232887959
 21
25.426206184765761
 31
0.0
  0
LINE
  5
4DB
  8
0
 10
1069.9595232887959
 20
24.676206184765761
 30
0.0
 11
1069.2095232887959
 21
25.426206184765761
 31
0.0
  0
LINE
  5
4DC
  8
0
 10
1078.4595232887959
 20
24.676206184765761
 30
0.0
 11
1079.2095232887959
 21
25.426206184765761
 31
0.0
  0
LINE
  5
4DF
  8
0
 10
1078.4595232887959
 20
43.926206184765761
 30
0.0
 11
1069.9595232887959
 21
43.926206184765761
 31
0.0
1001
ACAD
1000
ASC_BOUNDS
1002
{
1070
    19
1005
0
1005
0
1005
0
1005
0
1005
0
1002
}
  0
LINE
  5
4E0
  8
0
 10
1069.9595232887959
 20
43.926206184765761
 30
0.0
 11
1069.2095232887959
 21
44.676206184765753
 31
0.0
  0
LINE
  5
4E1
  8
0
 10
1078.4595232887959
 20
43.926206184765761
 30
0.0
 11
1079.2095232887959
 21
44.676206184765753
 31
0.0
  0
LINE
  5
4E2
  8
0
 10
1148.9979811805269
 20
43.926206184765761
 30
0.0
 11
1140.4979811805269
 21
43.926206184765761
 31
0.0
1001
ACAD
1000
ASC_BOUNDS
1002
{
1070
    19
1005
0
1005
0
1005
0
1005
0
1005
0
1002
}
  0
LINE
  5
4E3
  8
0
 10
1139.7479811805269
 20
25.426206184765761
 30
0.0
 11
1149.7479811805269
 21
25.426206184765761
 31
0.0
  0
LINE
  5
4E4
  8
0
 10
1140.4979811805269
 20
24.676206184765761
 30
0.0
 11
1148.9979811805269
 21
24.676206184765761
 31
0.0
  0
LINE
  5
4E5
  8
0
 10
1140.4979811805269
 20
43.926206184765761
 30
0.0
 11
1140.4979811805269
 21
24.676206184765761
 31
0.0
  0
LINE
  5
4E6
  8
0
 10
1139.7479811805269
 20
44.676206184765753
 30
0.0
 11
1139.7479811805269
 21
25.426206184765761
 31
0.0
  0
LINE
  5
4E7
  8
0
 10
1140.4979811805269
 20
24.676206184765761
 30
0.0
 11
1139.7479811805269
 21
25.426206184765761
 31
0.0
  0
LINE
  5
4E8
  8
0
 10
1140.4979811805269
 20
43.926206184765761
 30
0.0
 11
1139.7479811805269
 21
44.676206184765753
 31
0.0
  0
LINE
  5
4E9
  8
0
 10
1148.9979811805269
 20
24.676206184765761
 30
0.0
 11
1148.9979811805269
 21
43.926206184765761
 31
0.0
  0
LINE
  5
4EA
  8
0
 10
1149.7479811805269
 20
25.42620618476553
 30
0.0
 11
1149.7479811805269
 21
44.676206184765753
 31
0.0
  0
LINE
  5
4EB
  8
0
 10
1148.9979811805269
 20
24.676206184765761
 30
0.0
 11
1149.7479811805269
 21
25.426206184765761
 31
0.0
  0
LINE
  5
4EC
  8
0
 10
1148.9979811805269
 20
43.926206184765761
 30
0.0
 11
1149.7479811805269
 21
44.676206184765753
 31
0.0
  0
LINE
  5
4EE
  8
0
 10
1399.7440211805269
 20
25.426206184766102
 30
0.0
 11
1399.7440211805269
 21
44.676206184766222
 31
0.0
  0
LINE
  5
4EF
  8
0
 10
1398.9940211805269
 20
24.676206184766329
 30
0.0
 11
1398.9940211805269
 21
43.926206184766208
 31
0.0
  0
LINE
  5
4F0
  8
0
 10
1389.7440211805269
 20
44.676206184766222
 30
0.0
 11
1389.7440211805269
 21
25.426206184766212
 31
0.0
  0
LINE
  5
4F1
  8
0
 10
1390.4940211805269
 20
43.926206184766208
 30
0.0
 11
1390.4940211805269
 21
24.676206184766329
 31
0.0
  0
LINE
  5
4F2
  8
0
 10
1390.4940211805269
 20
24.676206184766212
 30
0.0
 11
1398.9940211805269
 21
24.676206184766212
 31
0.0
  0
LINE
  5
4F3
  8
0
 10
1389.7440211805269
 20
25.426206184766212
 30
0.0
 11
1399.7440211805269
 21
25.426206184766212
 31
0.0
  0
LINE
  5
4F4
  8
0
 10
1390.4940211805269
 20
24.676206184766212
 30
0.0
 11
1389.7440211805269
 21
25.426206184766212
 31
0.0
  0
LINE
  5
4F5
  8
0
 10
1398.9940211805269
 20
24.676206184766212
 30
0.0
 11
1399.7440211805269
 21
25.426206184766212
 31
0.0
  0
LINE
  5
4F6
  8
0
 10
1398.9940211805269
 20
43.926206184766208
 30
0.0
 11
1390.4940211805269
 21
43.926206184766208
 31
0.0
1001
ACAD
1000
ASC_BOUNDS
1002
{
1070
    19
1005
0
1005
0
1005
0
1005
0
1005
0
1002
}
  0
LINE
  5
4F7
  8
0
 10
1390.4940211805269
 20
43.926206184766208
 30
0.0
 11
1389.7440211805269
 21
44.676206184766222
 31
0.0
  0
LINE
  5
4F8
  8
0
 10
1398.9940211805269
 20
43.926206184766208
 30
0.0
 11
1399.7440211805269
 21
44.676206184766222
 31
0.0
  0
LINE
  5
4FA
  8
0
  6
CENTER
 10
1348.7460011805269
 20
114.6762061847662
 30
0.0
 11
1190.7460011805269
 21
114.6762061847657
 31
0.0
  0
ARC
  5
4FB
  8
0
  6
CENTER
 10
1190.7460011805269
 20
68.676206184765761
 30
0.0
 40
46.0
 50
90.0
 51
180.0
1001
ACAD
1000
ASC_BOUNDS
1002
{
1070
    19
1002
}
  0
ARC
  5
4FC
  8
0
  6
CENTER
 10
1348.7460011805269
 20
68.676206184766215
 30
0.0
 40
46.0
 50
0.0
 51
90.0
1001
ACAD
1000
ASC_BOUNDS
1002
{
1070
    19
1002
}
  0
LINE
  5
4FD
  8
0
  6
CENTER
 10
1144.7460011805269
 20
21.676206184765761
 30
0.0
 11
1144.7460011805269
 21
68.676206184765761
 31
0.0
1001
ACAD
1000
ASC_BOUNDS
1002
{
1070
    19
1002
}
  0
LINE
  5
4FF
  8
0
  6
CENTER
 10
1394.7460011805269
 20
21.676206184766212
 30
0.0
 11
1394.7460011805269
 21
68.676206184766215
 31
0.0
1001
ACAD
1000
ASC_BOUNDS
1002
{
1070
    19
1002
}
  0
LINE
  5
501
  8
0
 10
1395.0789876667391
 20
-46.658387371632898
 30
0.0
 11
1144.7460011805269
 21
-46.658387371632898
 31
0.0
1001
ACAD
1000
ASC_BOUNDS
1002
{
1070
    19
1002
}
  0
LINE
  5
502
  8
0
  6
CENTER
 10
465.7324452111331
 20
41.676206184765761
 30
0.0
 11
465.7324452111331
 21
68.676206184765761
 31
0.0
1001
ACAD
1000
ASC_BOUNDS
1002
{
1070
    19
1002
}
  0
ARC
  5
503
  8
0
  6
CENTER
 10
511.7324452111331
 20
68.676206184765761
 30
0.0
 40
46.0
 50
90.0
 51
180.0
1001
ACAD
1000
ASC_BOUNDS
1002
{
1070
    19
1002
}
  0
LINE
  5
504
  8
0
  6
CENTER
 10
669.73244521113315
 20
114.6762061847657
 30
0.0
 11
511.7324452111331
 21
114.6762061847657
 31
0.0
  0
ARC
  5
505
  8
0
  6
CENTER
 10
669.73244521113315
 20
68.676206184765761
 30
0.0
 40
46.0
 50
0.0
 51
90.0
1001
ACAD
1000
ASC_BOUNDS
1002
{
1070
    19
1002
}
  0
LINE
  5
506
  8
0
  6
CENTER
 10
715.73244521113315
 20
41.676206184765761
 30
0.0
 11
715.73244521113315
 21
68.676206184765761
 31
0.0
1001
ACAD
1000
ASC_BOUNDS
1002
{
1070
    19
1002
}
  0
LINE
  5
620
  8
0
  6
CENTER
 10
1144.7460011805269
 20
-13.662347371632899
 30
0.0
 11
1144.7460011805269
 21
-51.658387371632898
 31
0.0
  0
LINE
  5
623
  8
0
  6
CENTER
 10
1395.0789876667391
 20
-13.662347371632899
 30
0.0
 11
1395.0789876667391
 21
-51.658387371632898
 31
0.0
  0
LINE
  5
664
  8
0
  6
CENTER
 10
447.06741169734568
 20
-32.660367371632901
 30
0.0
 11
734.73046521113315
 21
-32.660367371632901
 31
0.0
  0
LINE
  5
665
  8
0
 10
716.0654316973455
 20
-46.658387371632898
 30
0.0
 11
465.7324452111331
 21
-46.658387371632898
 31
0.0
1001
ACAD
1000
ASC_BOUNDS
1002
{
1070
    19
1002
}
  0
LINE
  5
666
  8
0
 10
716.0654316973455
 20
-18.662347371632901
 30
0.0
 11
465.7324452111331
 21
-18.662347371632901
 31
0.0
1001
ACAD
1000
ASC_BOUNDS
1002
{
1070
    19
1002
}
  0
LINE
  5
667
  8
0
  6
CENTER
 10
465.7324452111331
 20
-13.662347371632899
 30
0.0
 11
465.7324452111331
 21
-51.658387371632898
 31
0.0
  0
ARC
  5
668
  8
0
 10
465.7324452111331
 20
-32.660367371632901
 30
0.0
 40
14.00198
 50
90.0
 51
270.0
  0
ARC
  5
669
  8
0
 10
465.7324452111331
 20
-32.660367371632901
 30
0.0
 40
14.49802
 50
74.908779000001417
 51
285.03100799999862
  0
ARC
  5
66A
  8
0
 10
465.7324452111331
 20
-32.660367371632901
 30
0.0
 40
15.99802
 50
61.043144999994453
 51
298.92755400000198
  0
LINE
  5
66B
  8
0
  6
CENTER
 10
716.06543169734573
 20
-13.662347371632899
 30
0.0
 11
716.06543169734573
 21
-51.658387371632898
 31
0.0
  0
ARC
  5
66C
  8
0
 10
715.73244521113315
 20
-32.660367371632901
 30
0.0
 40
14.49802
 50
254.96899200000129
 51
105.0912209999985
  0
ARC
  5
66D
  8
0
 10
715.73244521113315
 20
-32.660367371632901
 30
0.0
 40
15.99802
 50
241.07244599999791
 51
118.9568550000055
  0
ARC
  5
66E
  8
0
 10
715.73244521113315
 20
-32.660367371632901
 30
0.0
 40
14.00198
 50
270.0
 51
90.0
  0
ARC
  5
66F
  8
0
 10
1398.7460011805269
 20
-230.40482262545831
 30
0.0
 40
60.0
 50
0.0
 51
90.0
1001
ACAD
1000
ASC_BOUNDS
1002
{
1070
    19
1002
}
  0
ARC
  5
670
  8
0
  6
CENTER
 10
1398.7460011805269
 20
-230.40482262545831
 30
0.0
 40
46.0
 50
0.0
 51
90.0
1001
ACAD
1000
ASC_BOUNDS
1002
{
1070
    19
1002
}
  0
ARC
  5
671
  8
0
 10
1190.7460011805269
 20
-230.40482262545891
 30
0.0
 40
60.0
 50
90.0
 51
180.0
1001
ACAD
1000
ASC_BOUNDS
1002
{
1070
    19
1002
}
  0
ARC
  5
672
  8
0
  6
CENTER
 10
1190.7460011805269
 20
-230.40482262545891
 30
0.0
 40
46.0
 50
90.0
 51
180.0
1001
ACAD
1000
ASC_BOUNDS
1002
{
1070
    19
1002
}
  0
LINE
  5
673
  8
0
  6
CENTER
 10
1126.0809676667391
 20
-331.74139618185751
 30
0.0
 11
1463.744021180526
 21
-331.74139618185751
 31
0.0
  0
LINE
  5
674
  8
0
 10
1445.0789876667391
 20
-345.73941618185751
 30
0.0
 11
1144.7460011805269
 21
-345.73941618185751
 31
0.0
1001
ACAD
1000
ASC_BOUNDS
1002
{
1070
    19
1002
}
  0
LINE
  5
675
  8
0
 10
1445.0789876667391
 20
-317.74337618185751
 30
0.0
 11
1144.7460011805269
 21
-317.74337618185751
 31
0.0
1001
ACAD
1000
ASC_BOUNDS
1002
{
1070
    19
1002
}
  0
LINE
  5
676
  8
0
  6
CENTER
 10
1144.7460011805269
 20
-312.74337618185751
 30
0.0
 11
1144.7460011805269
 21
-350.73941618185751
 31
0.0
  0
ARC
  5
677
  8
0
 10
1144.7460011805269
 20
-331.74139618185751
 30
0.0
 40
14.00198
 50
90.0
 51
270.0
  0
ARC
  5
678
  8
0
 10
1144.7460011805269
 20
-331.74139618185751
 30
0.0
 40
14.49802
 50
74.908779000001417
 51
285.03100799999862
  0
ARC
  5
679
  8
0
 10
1144.7460011805269
 20
-331.74139618185751
 30
0.0
 40
15.99802
 50
61.043144999994453
 51
298.92755400000198
  0
LINE
  5
67A
  8
0
  6
CENTER
 10
1445.0789876667391
 20
-312.74337618185751
 30
0.0
 11
1445.0789876667391
 21
-350.73941618185751
 31
0.0
  0
ARC
  5
67B
  8
0
 10
1444.7460011805269
 20
-331.74139618185751
 30
0.0
 40
14.49802
 50
254.96899200000129
 51
105.0912209999985
  0
ARC
  5
67C
  8
0
 10
1444.7460011805269
 20
-331.74139618185751
 30
0.0
 40
15.99802
 50
241.07244599999791
 51
118.9568550000055
  0
ARC
  5
67D
  8
0
 10
1444.7460011805269
 20
-331.74139618185751
 30
0.0
 40
14.00198
 50
270.0
 51
90.0
  0
ARC
  5
67E
  8
0
 10
1398.7460011805269
 20
-230.40482262545831
 30
0.0
 40
32.0
 50
0.0
 51
90.0
1001
ACAD
1000
ASC_BOUNDS
1002
{
1070
    19
1002
}
  0
LINE
  5
67F
  8
0
 10
1158.7460011805269
 20
-250.40482262545879
 30
0.0
 11
1158.7460011805269
 21
-230.40482262545891
 31
0.0
1001
ACAD
1000
ASC_BOUNDS
1002
{
1070
    19
1002
}
  0
LINE
  5
680
  8
0
 10
1130.7460011805269
 20
-250.40482262545879
 30
0.0
 11
1130.7460011805269
 21
-230.40482262545891
 31
0.0
1001
ACAD
1000
ASC_BOUNDS
1002
{
1070
    19
1002
}
  0
LINE
  5
681
  8
0
  6
CENTER
 10
1144.7460011805269
 20
-277.40482262545879
 30
0.0
 11
1144.7460011805269
 21
-230.40482262545891
 31
0.0
1001
ACAD
1000
ASC_BOUNDS
1002
{
1070
    19
1002
}
  0
LINE
  5
682
  8
0
 10
1148.9979811805269
 20
-274.40482262545868
 30
0.0
 11
1148.9979811805269
 21
-255.15482262545891
 31
0.0
  0
LINE
  5
683
  8
0
 10
1149.7479811805269
 20
-273.65482262545908
 30
0.0
 11
1149.7479811805269
 21
-254.40482262545879
 31
0.0
  0
LINE
  5
684
  8
0
 10
1140.4979811805269
 20
-255.15482262545891
 30
0.0
 11
1140.4979811805269
 21
-274.40482262545868
 31
0.0
  0
LINE
  5
685
  8
0
 10
1139.7479811805269
 20
-254.40482262545879
 30
0.0
 11
1139.7479811805269
 21
-273.65482262545891
 31
0.0
  0
LINE
  5
686
  8
0
 10
1139.7479811805269
 20
-273.65482262545891
 30
0.0
 11
1149.7479811805269
 21
-273.65482262545891
 31
0.0
  0
LINE
  5
687
  8
0
 10
1140.4979811805269
 20
-274.40482262545891
 30
0.0
 11
1148.9979811805269
 21
-274.40482262545891
 31
0.0
  0
LINE
  5
688
  8
0
 10
1140.4979811805269
 20
-274.40482262545891
 30
0.0
 11
1139.7479811805269
 21
-273.65482262545891
 31
0.0
  0
LINE
  5
689
  8
0
 10
1148.9979811805269
 20
-274.40482262545891
 30
0.0
 11
1149.7479811805269
 21
-273.65482262545891
 31
0.0
  0
LINE
  5
68A
  8
0
 10
1128.7460011805269
 20
-251.90482262545891
 30
0.0
 11
1160.7460011805269
 21
-251.90482262545891
 31
0.0
  0
LINE
  5
68B
  8
0
 10
1130.2460011805269
 20
-250.40482262545879
 30
0.0
 11
1157.2460011805269
 21
-250.40482262545879
 31
0.0
1001
ACAD
1000
ASC_BOUNDS
1002
{
1070
    19
1002
}
  0
LINE
  5
68C
  8
0
 10
1128.7460011805269
 20
-254.40482262545879
 30
0.0
 11
1160.7460011805269
 21
-254.40482262545879
 31
0.0
1001
ACAD
1000
ASC_BOUNDS
1002
{
1070
    19
1005
0
1005
0
1005
0
1005
0
1005
0
1002
}
  0
LINE
  5
68D
  8
0
 10
1148.9979811805269
 20
-255.15482262545891
 30
0.0
 11
1140.4979811805269
 21
-255.15482262545891
 31
0.0
1001
ACAD
1000
ASC_BOUNDS
1002
{
1070
    19
1005
0
1005
0
1005
0
1005
0
1005
0
1002
}
  0
LINE
  5
68E
  8
0
 10
1128.7460011805269
 20
-251.90482262545891
 30
0.0
 11
1130.2460011805269
 21
-250.40482262545879
 31
0.0
1001
ACAD
1000
ASC_BOUNDS
1002
{
1070
    19
1005
0
1005
0
1002
}
  0
LINE
  5
68F
  8
0
 10
1128.7460011805269
 20
-251.90482262545891
 30
0.0
 11
1128.7460011805269
 21
-254.40482262545879
 31
0.0
1001
ACAD
1000
ASC_BOUNDS
1002
{
1070
    19
1002
}
  0
LINE
  5
690
  8
0
 10
1140.4979811805269
 20
-255.15482262545891
 30
0.0
 11
1139.7479811805269
 21
-254.40482262545879
 31
0.0
  0
LINE
  5
691
  8
0
 10
1160.7460011805269
 20
-251.90482262545891
 30
0.0
 11
1159.2460011805269
 21
-250.40482262545879
 31
0.0
1001
ACAD
1000
ASC_BOUNDS
1002
{
1070
    19
1005
0
1002
}
  0
LINE
  5
692
  8
0
 10
1160.7460011805269
 20
-254.40482262545879
 30
0.0
 11
1160.7460011805269
 21
-251.90482262545891
 31
0.0
1001
ACAD
1000
ASC_BOUNDS
1002
{
1070
    19
1002
}
  0
LINE
  5
693
  8
0
 10
1148.9979811805269
 20
-255.15482262545891
 30
0.0
 11
1149.7479811805269
 21
-254.40482262545879
 31
0.0
  0
LINE
  5
694
  8
0
 10
1157.2460011805269
 20
-250.40482262545879
 30
0.0
 11
1159.2460011805269
 21
-250.40482262545879
 31
0.0
1001
ACAD
1000
ASC_BOUNDS
1002
{
1070
    19
1002
}
  0
LINE
  5
695
  8
0
 10
1398.7460011805269
 20
-198.40482262545831
 30
0.0
 11
1190.7460011805269
 21
-198.40482262545891
 31
0.0
  0
LINE
  5
696
  8
0
  6
CENTER
 10
1398.7460011805269
 20
-184.40482262545831
 30
0.0
 11
1190.7460011805269
 21
-184.40482262545891
 31
0.0
  0
ARC
  5
697
  8
0
 10
1190.7460011805269
 20
-230.40482262545891
 30
0.0
 40
32.0
 50
90.0
 51
180.0
1001
ACAD
1000
ASC_BOUNDS
1002
{
1070
    19
1002
}
  0
LINE
  5
698
  8
0
 10
1430.7460011805269
 20
-250.40482262545831
 30
0.0
 11
1430.7460011805269
 21
-230.40482262545831
 31
0.0
1001
ACAD
1000
ASC_BOUNDS
1002
{
1070
    19
1002
}
  0
LINE
  5
699
  8
0
 10
1458.7460011805269
 20
-250.40482262545831
 30
0.0
 11
1458.7460011805269
 21
-230.40482262545831
 31
0.0
1001
ACAD
1000
ASC_BOUNDS
1002
{
1070
    19
1002
}
  0
LINE
  5
69A
  8
0
  6
CENTER
 10
1444.7460011805269
 20
-277.40482262545828
 30
0.0
 11
1444.7460011805269
 21
-230.40482262545831
 31
0.0
1001
ACAD
1000
ASC_BOUNDS
1002
{
1070
    19
1002
}
  0
LINE
  5
69B
  8
0
 10
1449.7440211805269
 20
-273.65482262545851
 30
0.0
 11
1449.7440211805269
 21
-254.40482262545831
 31
0.0
  0
LINE
  5
69C
  8
0
 10
1448.9940211805269
 20
-274.40482262545828
 30
0.0
 11
1448.9940211805269
 21
-255.15482262545831
 31
0.0
  0
LINE
  5
69D
  8
0
 10
1439.7440211805269
 20
-254.40482262545831
 30
0.0
 11
1439.7440211805269
 21
-273.65482262545828
 31
0.0
  0
LINE
  5
69E
  8
0
 10
1440.4940211805269
 20
-255.15482262545831
 30
0.0
 11
1440.4940211805269
 21
-274.40482262545828
 31
0.0
  0
LINE
  5
69F
  8
0
 10
1440.4940211805269
 20
-274.40482262545828
 30
0.0
 11
1448.9940211805269
 21
-274.40482262545828
 31
0.0
  0
LINE
  5
6A0
  8
0
 10
1439.7440211805269
 20
-273.65482262545828
 30
0.0
 11
1449.7440211805269
 21
-273.65482262545828
 31
0.0
  0
LINE
  5
6A1
  8
0
 10
1440.4940211805269
 20
-274.40482262545828
 30
0.0
 11
1439.7440211805269
 21
-273.65482262545828
 31
0.0
  0
LINE
  5
6A2
  8
0
 10
1448.9940211805269
 20
-274.40482262545828
 30
0.0
 11
1449.7440211805269
 21
-273.65482262545828
 31
0.0
  0
LINE
  5
6A3
  8
0
 10
1448.9940211805269
 20
-255.15482262545831
 30
0.0
 11
1440.4940211805269
 21
-255.15482262545831
 31
0.0
1001
ACAD
1000
ASC_BOUNDS
1002
{
1070
    19
1005
0
1005
0
1005
0
1005
0
1005
0
1002
}
  0
LINE
  5
6A4
  8
0
 10
1460.7460011805269
 20
-254.40482262545831
 30
0.0
 11
1428.7460011805269
 21
-254.40482262545831
 31
0.0
1001
ACAD
1000
ASC_BOUNDS
1002
{
1070
    19
1005
0
1005
0
1005
0
1005
0
1005
0
1002
}
  0
LINE
  5
6A5
  8
0
 10
1459.2460011805269
 20
-250.40482262545831
 30
0.0
 11
1432.246001180526
 21
-250.40482262545831
 31
0.0
1001
ACAD
1000
ASC_BOUNDS
1002
{
1070
    19
1002
}
  0
LINE
  5
6A6
  8
0
 10
1460.7460011805269
 20
-251.90482262545831
 30
0.0
 11
1428.7460011805269
 21
-251.90482262545831
 31
0.0
  0
LINE
  5
6A7
  8
0
 10
1428.7460011805269
 20
-251.90482262545831
 30
0.0
 11
1430.2460011805269
 21
-250.40482262545831
 31
0.0
1001
ACAD
1000
ASC_BOUNDS
1002
{
1070
    19
1002
}
  0
LINE
  5
6A8
  8
0
 10
1440.4940211805269
 20
-255.15482262545831
 30
0.0
 11
1439.7440211805269
 21
-254.40482262545831
 31
0.0
  0
LINE
  5
6A9
  8
0
 10
1428.7460011805269
 20
-254.40482262545831
 30
0.0
 11
1428.7460011805269
 21
-251.90482262545831
 31
0.0
1001
ACAD
1000
ASC_BOUNDS
1002
{
1070
    19
1002
}
  0
LINE
  5
6AA
  8
0
 10
1432.246001180526
 20
-250.40482262545831
 30
0.0
 11
1430.2460011805269
 21
-250.40482262545831
 31
0.0
1001
ACAD
1000
ASC_BOUNDS
1002
{
1070
    19
1002
}
  0
LINE
  5
6AB
  8
0
 10
1460.7460011805269
 20
-251.90482262545831
 30
0.0
 11
1459.2460011805269
 21
-250.40482262545831
 31
0.0
1001
ACAD
1000
ASC_BOUNDS
1002
{
1070
    19
1005
0
1002
}
  0
LINE
  5
6AC
  8
0
 10
1448.9940211805269
 20
-255.15482262545831
 30
0.0
 11
1449.7440211805269
 21
-254.40482262545831
 31
0.0
  0
LINE
  5
6AD
  8
0
 10
1460.7460011805269
 20
-251.90482262545831
 30
0.0
 11
1460.7460011805269
 21
-254.40482262545831
 31
0.0
1001
ACAD
1000
ASC_BOUNDS
1002
{
1070
    19
1002
}
  0
LINE
  5
6AE
  8
0
 10
1398.7460011805269
 20
-170.40482262545839
 30
0.0
 11
1190.7460011805269
 21
-170.40482262545891
 31
0.0
  0
ARC
  5
6AF
  8
0
 10
719.73244521113315
 20
-230.40482262545891
 30
0.0
 40
60.0
 50
0.0
 51
90.0
1001
ACAD
1000
ASC_BOUNDS
1002
{
1070
    19
1002
}
  0
ARC
  5
6B0
  8
0
 10
511.7324452111331
 20
-230.40482262545891
 30
0.0
 40
60.0
 50
90.0
 51
180.0
1001
ACAD
1000
ASC_BOUNDS
1002
{
1070
    19
1002
}
  0
ARC
  5
6B1
  8
0
  6
CENTER
 10
511.7324452111331
 20
-230.40482262545891
 30
0.0
 40
46.0
 50
90.0
 51
180.0
1001
ACAD
1000
ASC_BOUNDS
1002
{
1070
    19
1002
}
  0
ARC
  5
6B2
  8
0
  6
CENTER
 10
719.73244521113315
 20
-230.40482262545891
 30
0.0
 40
46.0
 50
0.0
 51
90.0
1001
ACAD
1000
ASC_BOUNDS
1002
{
1070
    19
1002
}
  0
LINE
  5
6B3
  8
0
  6
CENTER
 10
447.06741169734568
 20
-331.74139618185751
 30
0.0
 11
784.73046521113315
 21
-331.74139618185751
 31
0.0
  0
LINE
  5
6B4
  8
0
 10
766.0654316973455
 20
-345.73941618185751
 30
0.0
 11
465.7324452111331
 21
-345.73941618185751
 31
0.0
1001
ACAD
1000
ASC_BOUNDS
1002
{
1070
    19
1002
}
  0
LINE
  5
6B5
  8
0
 10
766.0654316973455
 20
-317.74337618185751
 30
0.0
 11
465.7324452111331
 21
-317.74337618185751
 31
0.0
1001
ACAD
1000
ASC_BOUNDS
1002
{
1070
    19
1002
}
  0
LINE
  5
6B6
  8
0
  6
CENTER
 10
465.7324452111331
 20
-312.74337618185751
 30
0.0
 11
465.7324452111331
 21
-350.73941618185751
 31
0.0
  0
ARC
  5
6B7
  8
0
 10
465.7324452111331
 20
-331.74139618185751
 30
0.0
 40
14.00198
 50
90.0
 51
270.0
  0
ARC
  5
6B8
  8
0
 10
465.7324452111331
 20
-331.74139618185751
 30
0.0
 40
14.49802
 50
74.908779000001417
 51
285.03100799999862
  0
ARC
  5
6B9
  8
0
 10
465.7324452111331
 20
-331.74139618185751
 30
0.0
 40
15.99802
 50
61.043144999994453
 51
298.92755400000198
  0
LINE
  5
6BA
  8
0
  6
CENTER
 10
766.06543169734573
 20
-312.74337618185751
 30
0.0
 11
766.06543169734573
 21
-350.73941618185751
 31
0.0
  0
ARC
  5
6BB
  8
0
 10
765.73244521113315
 20
-331.74139618185751
 30
0.0
 40
14.49802
 50
254.96899200000129
 51
105.0912209999985
  0
ARC
  5
6BC
  8
0
 10
765.73244521113315
 20
-331.74139618185751
 30
0.0
 40
15.99802
 50
241.07244599999791
 51
118.9568550000055
  0
ARC
  5
6BD
  8
0
 10
765.73244521113315
 20
-331.74139618185751
 30
0.0
 40
14.00198
 50
270.0
 51
90.0
  0
LINE
  5
6BE
  8
0
 10
719.73244521113315
 20
-198.40482262545891
 30
0.0
 11
511.7324452111331
 21
-198.40482262545891
 31
0.0
  0
LINE
  5
6BF
  8
0
  6
CENTER
 10
719.73244521113315
 20
-184.40482262545891
 30
0.0
 11
511.7324452111331
 21
-184.40482262545891
 31
0.0
  0
LINE
  5
6C0
  8
0
  6
CENTER
 10
465.7324452111331
 20
-257.40482262545891
 30
0.0
 11
465.7324452111331
 21
-230.40482262545891
 31
0.0
1001
ACAD
1000
ASC_BOUNDS
1002
{
1070
    19
1002
}
  0
LINE
  5
6C1
  8
0
 10
451.7324452111331
 20
-250.40482262545879
 30
0.0
 11
451.7324452111331
 21
-230.40482262545891
 31
0.0
1001
ACAD
1000
ASC_BOUNDS
1002
{
1070
    19
1002
}
  0
LINE
  5
6C2
  8
0
 10
479.73244521113321
 20
-250.40482262545879
 30
0.0
 11
479.73244521113321
 21
-230.40482262545891
 31
0.0
1001
ACAD
1000
ASC_BOUNDS
1002
{
1070
    19
1002
}
  0
LINE
  5
6C3
  8
0
 10
449.7324452111331
 20
-251.90482262545891
 30
0.0
 11
481.7324452111331
 21
-251.90482262545891
 31
0.0
  0
LINE
  5
6C4
  8
0
 10
451.2324452111331
 20
-250.40482262545879
 30
0.0
 11
478.2324452111331
 21
-250.40482262545879
 31
0.0
1001
ACAD
1000
ASC_BOUNDS
1002
{
1070
    19
1002
}
  0
LINE
  5
6C5
  8
0
 10
449.7324452111331
 20
-254.40482262545879
 30
0.0
 11
481.7324452111331
 21
-254.40482262545879
 31
0.0
1001
ACAD
1000
ASC_BOUNDS
1002
{
1070
    19
1005
0
1005
0
1005
0
1005
0
1005
0
1002
}
  0
LINE
  5
6C6
  8
0
 10
449.7324452111331
 20
-251.90482262545891
 30
0.0
 11
451.2324452111331
 21
-250.40482262545879
 31
0.0
1001
ACAD
1000
ASC_BOUNDS
1002
{
1070
    19
1005
0
1005
0
1002
}
  0
LINE
  5
6C7
  8
0
 10
449.7324452111331
 20
-251.90482262545891
 30
0.0
 11
449.7324452111331
 21
-254.40482262545879
 31
0.0
1001
ACAD
1000
ASC_BOUNDS
1002
{
1070
    19
1002
}
  0
LINE
  5
6C8
  8
0
 10
481.7324452111331
 20
-251.90482262545891
 30
0.0
 11
480.2324452111331
 21
-250.40482262545879
 31
0.0
1001
ACAD
1000
ASC_BOUNDS
1002
{
1070
    19
1005
0
1002
}
  0
LINE
  5
6C9
  8
0
 10
481.7324452111331
 20
-254.40482262545879
 30
0.0
 11
481.7324452111331
 21
-251.90482262545891
 31
0.0
1001
ACAD
1000
ASC_BOUNDS
1002
{
1070
    19
1002
}
  0
LINE
  5
6CA
  8
0
 10
478.2324452111331
 20
-250.40482262545879
 30
0.0
 11
480.2324452111331
 21
-250.40482262545879
 31
0.0
1001
ACAD
1000
ASC_BOUNDS
1002
{
1070
    19
1002
}
  0
ARC
  5
6CB
  8
0
 10
511.7324452111331
 20
-230.40482262545891
 30
0.0
 40
32.0
 50
90.0
 51
180.0
1001
ACAD
1000
ASC_BOUNDS
1002
{
1070
    19
1002
}
  0
LINE
  5
6CC
  8
0
  6
CENTER
 10
765.73244521113315
 20
-257.40482262545891
 30
0.0
 11
765.73244521113315
 21
-230.40482262545891
 31
0.0
1001
ACAD
1000
ASC_BOUNDS
1002
{
1070
    19
1002
}
  0
LINE
  5
6CD
  8
0
 10
751.73244521113315
 20
-250.40482262545879
 30
0.0
 11
751.73244521113315
 21
-230.40482262545891
 31
0.0
1001
ACAD
1000
ASC_BOUNDS
1002
{
1070
    19
1002
}
  0
LINE
  5
6CE
  8
0
 10
779.73244521113315
 20
-250.40482262545879
 30
0.0
 11
779.73244521113315
 21
-230.40482262545891
 31
0.0
1001
ACAD
1000
ASC_BOUNDS
1002
{
1070
    19
1002
}
  0
LINE
  5
6CF
  8
0
 10
781.73244521113315
 20
-254.40482262545879
 30
0.0
 11
749.73244521113315
 21
-254.40482262545879
 31
0.0
1001
ACAD
1000
ASC_BOUNDS
1002
{
1070
    19
1005
0
1005
0
1005
0
1005
0
1005
0
1002
}
  0
LINE
  5
6D0
  8
0
 10
780.23244521113315
 20
-250.40482262545879
 30
0.0
 11
753.23244521113315
 21
-250.40482262545879
 31
0.0
1001
ACAD
1000
ASC_BOUNDS
1002
{
1070
    19
1002
}
  0
LINE
  5
6D1
  8
0
 10
781.73244521113315
 20
-251.90482262545891
 30
0.0
 11
749.73244521113315
 21
-251.90482262545891
 31
0.0
  0
LINE
  5
6D2
  8
0
 10
749.73244521113315
 20
-251.90482262545891
 30
0.0
 11
751.23244521113315
 21
-250.40482262545879
 31
0.0
1001
ACAD
1000
ASC_BOUNDS
1002
{
1070
    19
1002
}
  0
LINE
  5
6D3
  8
0
 10
749.73244521113315
 20
-254.40482262545879
 30
0.0
 11
749.73244521113315
 21
-251.90482262545891
 31
0.0
1001
ACAD
1000
ASC_BOUNDS
1002
{
1070
    19
1002
}
  0
LINE
  5
6D4
  8
0
 10
753.23244521113315
 20
-250.40482262545879
 30
0.0
 11
751.23244521113315
 21
-250.40482262545879
 31
0.0
1001
ACAD
1000
ASC_BOUNDS
1002
{
1070
    19
1002
}
  0
LINE
  5
6D5
  8
0
 10
781.73244521113315
 20
-251.90482262545891
 30
0.0
 11
780.23244521113315
 21
-250.40482262545879
 31
0.0
1001
ACAD
1000
ASC_BOUNDS
1002
{
1070
    19
1005
0
1002
}
  0
LINE
  5
6D6
  8
0
 10
781.73244521113315
 20
-251.90482262545891
 30
0.0
 11
781.73244521113315
 21
-254.40482262545879
 31
0.0
1001
ACAD
1000
ASC_BOUNDS
1002
{
1070
    19
1002
}
  0
ARC
  5
6D7
  8
0
 10
719.73244521113315
 20
-230.40482262545891
 30
0.0
 40
32.0
 50
0.0
 51
90.0
1001
ACAD
1000
ASC_BOUNDS
1002
{
1070
    19
1002
}
  0
LINE
  5
6D8
  8
0
 10
719.73244521113315
 20
-170.40482262545891
 30
0.0
 11
511.7324452111331
 21
-170.40482262545891
 31
0.0
  0
LINE
  5
6D9
  8
0
  6
CENTER
 10
866.06543169734584
 20
-589.67025503899004
 30
0.0
 11
866.06543169734584
 21
-627.66629503899003
 31
0.0
  0
LINE
  5
6DA
  8
0
  6
CENTER
 10
465.7324452111331
 20
-589.67025503899004
 30
0.0
 11
465.7324452111331
 21
-627.66629503899003
 31
0.0
  0
LINE
  5
6DB
  8
0
  6
CENTER
 10
447.06741169734568
 20
-608.66827503899003
 30
0.0
 11
884.73046521113315
 21
-608.66827503899003
 31
0.0
  0
LINE
  5
6DC
  8
0
 10
866.06543169734539
 20
-622.66629503899003
 30
0.0
 11
465.7324452111331
 21
-622.66629503899003
 31
0.0
1001
ACAD
1000
ASC_BOUNDS
1002
{
1070
    19
1002
}
  0
LINE
  5
6DD
  8
0
 10
866.06543169734539
 20
-594.67025503899004
 30
0.0
 11
465.7324452111331
 21
-594.67025503899004
 31
0.0
1001
ACAD
1000
ASC_BOUNDS
1002
{
1070
    19
1002
}
  0
ARC
  5
6DE
  8
0
 10
465.7324452111331
 20
-608.66827503899003
 30
0.0
 40
15.99802
 50
61.043144999994453
 51
298.92755400000198
  0
ARC
  5
6DF
  8
0
 10
465.7324452111331
 20
-608.66827503899003
 30
0.0
 40
14.49802
 50
74.908779000001417
 51
285.03100799999862
  0
ARC
  5
6E0
  8
0
 10
465.7324452111331
 20
-608.66827503899003
 30
0.0
 40
14.00198
 50
90.0
 51
270.0
  0
ARC
  5
6E1
  8
0
 10
865.73244521113315
 20
-608.66827503899003
 30
0.0
 40
15.99802
 50
241.07244599999791
 51
118.9568550000055
  0
ARC
  5
6E2
  8
0
 10
865.73244521113315
 20
-608.66827503899003
 30
0.0
 40
14.49802
 50
254.96899200000129
 51
105.0912209999985
  0
ARC
  5
6E3
  8
0
 10
865.73244521113315
 20
-608.66827503899003
 30
0.0
 40
14.00198
 50
270.0
 51
90.0
  0
ARC
  5
6E4
  8
0
 10
819.73244521113315
 20
-507.33170148259143
 30
0.0
 40
60.0
 50
0.0
 51
90.0
1001
ACAD
1000
ASC_BOUNDS
1002
{
1070
    19
1002
}
  0
ARC
  5
6E5
  8
0
  6
CENTER
 10
819.73244521113315
 20
-507.33170148259143
 30
0.0
 40
46.0
 50
0.0
 51
90.0
1001
ACAD
1000
ASC_BOUNDS
1002
{
1070
    19
1002
}
  0
ARC
  5
6E6
  8
0
 10
819.73244521113315
 20
-507.33170148259143
 30
0.0
 40
32.0
 50
0.0
 51
90.0
1001
ACAD
1000
ASC_BOUNDS
1002
{
1070
    19
1002
}
  0
ARC
  5
6E7
  8
0
 10
511.7324452111331
 20
-507.33170148259143
 30
0.0
 40
32.0
 50
90.0
 51
180.0
1001
ACAD
1000
ASC_BOUNDS
1002
{
1070
    19
1002
}
  0
ARC
  5
6E8
  8
0
  6
CENTER
 10
511.7324452111331
 20
-507.33170148259143
 30
0.0
 40
46.0
 50
90.0
 51
180.0
1001
ACAD
1000
ASC_BOUNDS
1002
{
1070
    19
1002
}
  0
ARC
  5
6E9
  8
0
 10
511.7324452111331
 20
-507.33170148259143
 30
0.0
 40
60.0
 50
90.0
 51
180.0
1001
ACAD
1000
ASC_BOUNDS
1002
{
1070
    19
1002
}
  0
LINE
  5
6EA
  8
0
 10
449.7324452111331
 20
-531.33170148259126
 30
0.0
 11
481.7324452111331
 21
-531.33170148259126
 31
0.0
1001
ACAD
1000
ASC_BOUNDS
1002
{
1070
    19
1005
0
1005
0
1005
0
1005
0
1005
0
1002
}
  0
LINE
  5
6EB
  8
0
 10
451.2324452111331
 20
-527.33170148259126
 30
0.0
 11
478.2324452111331
 21
-527.33170148259126
 31
0.0
1001
ACAD
1000
ASC_BOUNDS
1002
{
1070
    19
1002
}
  0
LINE
  5
6EC
  8
0
 10
449.7324452111331
 20
-528.83170148259126
 30
0.0
 11
481.7324452111331
 21
-528.83170148259126
 31
0.0
  0
LINE
  5
6ED
  8
0
 10
451.7324452111331
 20
-527.33170148259126
 30
0.0
 11
451.7324452111331
 21
-507.33170148259143
 31
0.0
1001
ACAD
1000
ASC_BOUNDS
1002
{
1070
    19
1002
}
  0
LINE
  5
6EE
  8
0
  6
CENTER
 10
465.7324452111331
 20
-534.33170148259126
 30
0.0
 11
465.7324452111331
 21
-507.33170148259143
 31
0.0
1001
ACAD
1000
ASC_BOUNDS
1002
{
1070
    19
1002
}
  0
LINE
  5
6EF
  8
0
 10
449.7324452111331
 20
-528.83170148259126
 30
0.0
 11
451.2324452111331
 21
-527.33170148259126
 31
0.0
1001
ACAD
1000
ASC_BOUNDS
1002
{
1070
    19
1005
0
1005
0
1002
}
  0
LINE
  5
6F0
  8
0
 10
449.7324452111331
 20
-528.83170148259126
 30
0.0
 11
449.7324452111331
 21
-531.33170148259126
 31
0.0
1001
ACAD
1000
ASC_BOUNDS
1002
{
1070
    19
1002
}
  0
LINE
  5
6F1
  8
0
 10
479.73244521113321
 20
-527.33170148259126
 30
0.0
 11
479.73244521113321
 21
-507.33170148259143
 31
0.0
1001
ACAD
1000
ASC_BOUNDS
1002
{
1070
    19
1002
}
  0
LINE
  5
6F2
  8
0
 10
481.7324452111331
 20
-528.83170148259126
 30
0.0
 11
480.2324452111331
 21
-527.33170148259126
 31
0.0
1001
ACAD
1000
ASC_BOUNDS
1002
{
1070
    19
1005
0
1002
}
  0
LINE
  5
6F3
  8
0
 10
481.7324452111331
 20
-531.33170148259126
 30
0.0
 11
481.7324452111331
 21
-528.83170148259126
 31
0.0
1001
ACAD
1000
ASC_BOUNDS
1002
{
1070
    19
1002
}
  0
LINE
  5
6F4
  8
0
 10
478.2324452111331
 20
-527.33170148259126
 30
0.0
 11
480.2324452111331
 21
-527.33170148259126
 31
0.0
1001
ACAD
1000
ASC_BOUNDS
1002
{
1070
    19
1002
}
  0
LINE
  5
6F5
  8
0
 10
849.73244521113315
 20
-528.83170148259126
 30
0.0
 11
851.23244521113315
 21
-527.33170148259126
 31
0.0
1001
ACAD
1000
ASC_BOUNDS
1002
{
1070
    19
1002
}
  0
LINE
  5
6F6
  8
0
 10
881.73244521113315
 20
-531.33170148259126
 30
0.0
 11
849.73244521113315
 21
-531.33170148259126
 31
0.0
1001
ACAD
1000
ASC_BOUNDS
1002
{
1070
    19
1005
0
1005
0
1005
0
1005
0
1005
0
1002
}
  0
LINE
  5
6F7
  8
0
 10
881.73244521113315
 20
-528.83170148259126
 30
0.0
 11
849.73244521113315
 21
-528.83170148259126
 31
0.0
  0
LINE
  5
6F8
  8
0
 10
849.73244521113315
 20
-531.33170148259126
 30
0.0
 11
849.73244521113315
 21
-528.83170148259126
 31
0.0
1001
ACAD
1000
ASC_BOUNDS
1002
{
1070
    19
1002
}
  0
LINE
  5
6F9
  8
0
  6
CENTER
 10
865.73244521113315
 20
-534.33170148259126
 30
0.0
 11
865.73244521113315
 21
-507.33170148259143
 31
0.0
1001
ACAD
1000
ASC_BOUNDS
1002
{
1070
    19
1002
}
  0
LINE
  5
6FA
  8
0
 10
851.73244521113315
 20
-527.33170148259126
 30
0.0
 11
851.73244521113315
 21
-507.33170148259143
 31
0.0
1001
ACAD
1000
ASC_BOUNDS
1002
{
1070
    19
1002
}
  0
LINE
  5
6FB
  8
0
 10
879.73244521113315
 20
-527.33170148259126
 30
0.0
 11
879.73244521113315
 21
-507.33170148259143
 31
0.0
1001
ACAD
1000
ASC_BOUNDS
1002
{
1070
    19
1002
}
  0
LINE
  5
6FC
  8
0
 10
881.73244521113315
 20
-528.83170148259126
 30
0.0
 11
880.23244521113315
 21
-527.33170148259126
 31
0.0
1001
ACAD
1000
ASC_BOUNDS
1002
{
1070
    19
1005
0
1002
}
  0
LINE
  5
6FD
  8
0
 10
881.73244521113315
 20
-528.83170148259126
 30
0.0
 11
881.73244521113315
 21
-531.33170148259126
 31
0.0
1001
ACAD
1000
ASC_BOUNDS
1002
{
1070
    19
1002
}
  0
LINE
  5
6FE
  8
0
 10
880.23244521113315
 20
-527.33170148259126
 30
0.0
 11
853.23244521113315
 21
-527.33170148259126
 31
0.0
1001
ACAD
1000
ASC_BOUNDS
1002
{
1070
    19
1002
}
  0
LINE
  5
6FF
  8
0
 10
853.23244521113315
 20
-527.33170148259126
 30
0.0
 11
851.23244521113315
 21
-527.33170148259126
 31
0.0
1001
ACAD
1000
ASC_BOUNDS
1002
{
1070
    19
1002
}
  0
LINE
  5
700
  8
0
 10
819.73244521113315
 20
-475.33170148259131
 30
0.0
 11
511.7324452111331
 21
-475.33170148259131
 31
0.0
  0
LINE
  5
701
  8
0
  6
CENTER
 10
819.73244521113315
 20
-461.33170148259143
 30
0.0
 11
511.7324452111331
 21
-461.33170148259143
 31
0.0
  0
LINE
  5
702
  8
0
 10
819.73244521113315
 20
-447.33170148259131
 30
0.0
 11
511.7324452111331
 21
-447.33170148259131
 31
0.0
  0
LINE
  5
703
  8
0
  6
CENTER
 10
1545.0789876667391
 20
-589.67025503899004
 30
0.0
 11
1545.0789876667391
 21
-627.66629503899003
 31
0.0
  0
LINE
  5
704
  8
0
  6
CENTER
 10
1144.7460011805269
 20
-589.67025503899004
 30
0.0
 11
1144.7460011805269
 21
-627.66629503899003
 31
0.0
  0
LINE
  5
705
  8
0
  6
CENTER
 10
1126.0809676667391
 20
-608.66827503899003
 30
0.0
 11
1563.7440211805269
 21
-608.66827503899003
 31
0.0
  0
LINE
  5
706
  8
0
 10
1545.0789876667391
 20
-622.66629503899003
 30
0.0
 11
1144.7460011805269
 21
-622.66629503899003
 31
0.0
1001
ACAD
1000
ASC_BOUNDS
1002
{
1070
    19
1002
}
  0
LINE
  5
707
  8
0
 10
1545.0789876667391
 20
-594.67025503899004
 30
0.0
 11
1144.7460011805269
 21
-594.67025503899004
 31
0.0
1001
ACAD
1000
ASC_BOUNDS
1002
{
1070
    19
1002
}
  0
ARC
  5
708
  8
0
 10
1144.7460011805269
 20
-608.66827503899003
 30
0.0
 40
15.99802
 50
61.043144999994453
 51
298.92755400000198
  0
ARC
  5
709
  8
0
 10
1144.7460011805269
 20
-608.66827503899003
 30
0.0
 40
14.49802
 50
74.908779000001417
 51
285.03100799999862
  0
ARC
  5
70A
  8
0
 10
1144.7460011805269
 20
-608.66827503899003
 30
0.0
 40
14.00198
 50
90.0
 51
270.0
  0
ARC
  5
70B
  8
0
 10
1544.746001180526
 20
-608.66827503899003
 30
0.0
 40
14.49802
 50
254.96899200000129
 51
105.0912209999985
  0
ARC
  5
70C
  8
0
 10
1544.746001180526
 20
-608.66827503899003
 30
0.0
 40
15.99802
 50
241.07244599999791
 51
118.9568550000055
  0
ARC
  5
70D
  8
0
 10
1544.746001180526
 20
-608.66827503899003
 30
0.0
 40
14.00198
 50
270.0
 51
90.0
  0
ARC
  5
70E
  8
0
 10
1498.7460011805269
 20
-507.3317014825908
 30
0.0
 40
60.0
 50
0.0
 51
90.0
1001
ACAD
1000
ASC_BOUNDS
1002
{
1070
    19
1002
}
  0
ARC
  5
70F
  8
0
  6
CENTER
 10
1498.7460011805269
 20
-507.3317014825908
 30
0.0
 40
46.0
 50
0.0
 51
90.0
1001
ACAD
1000
ASC_BOUNDS
1002
{
1070
    19
1002
}
  0
ARC
  5
710
  8
0
 10
1498.7460011805269
 20
-507.3317014825908
 30
0.0
 40
32.0
 50
0.0
 51
90.0
1001
ACAD
1000
ASC_BOUNDS
1002
{
1070
    19
1002
}
  0
ARC
  5
711
  8
0
 10
1190.7460011805269
 20
-507.33170148259143
 30
0.0
 40
32.0
 50
90.0
 51
180.0
1001
ACAD
1000
ASC_BOUNDS
1002
{
1070
    19
1002
}
  0
ARC
  5
712
  8
0
  6
CENTER
 10
1190.7460011805269
 20
-507.33170148259143
 30
0.0
 40
46.0
 50
90.0
 51
180.0
1001
ACAD
1000
ASC_BOUNDS
1002
{
1070
    19
1002
}
  0
ARC
  5
713
  8
0
 10
1190.7460011805269
 20
-507.33170148259143
 30
0.0
 40
60.0
 50
90.0
 51
180.0
1001
ACAD
1000
ASC_BOUNDS
1002
{
1070
    19
1002
}
  0
LINE
  5
714
  8
0
 10
1139.7479811805269
 20
-531.33170148259126
 30
0.0
 11
1139.7479811805269
 21
-550.58170148259137
 31
0.0
  0
LINE
  5
715
  8
0
 10
1140.4979811805269
 20
-532.08170148259126
 30
0.0
 11
1140.4979811805269
 21
-551.33170148259126
 31
0.0
  0
LINE
  5
716
  8
0
 10
1149.7479811805269
 20
-550.5817014825916
 30
0.0
 11
1149.7479811805269
 21
-531.33170148259126
 31
0.0
  0
LINE
  5
717
  8
0
 10
1148.9979811805269
 20
-551.33170148259126
 30
0.0
 11
1148.9979811805269
 21
-532.08170148259126
 31
0.0
  0
LINE
  5
718
  8
0
  6
CENTER
 10
1144.7460011805269
 20
-554.33170148259126
 30
0.0
 11
1144.7460011805269
 21
-507.33170148259143
 31
0.0
1001
ACAD
1000
ASC_BOUNDS
1002
{
1070
    19
1002
}
  0
LINE
  5
719
  8
0
 10
1140.4979811805269
 20
-551.33170148259126
 30
0.0
 11
1148.9979811805269
 21
-551.33170148259126
 31
0.0
  0
LINE
  5
71A
  8
0
 10
1139.7479811805269
 20
-550.58170148259137
 30
0.0
 11
1149.7479811805269
 21
-550.58170148259137
 31
0.0
  0
LINE
  5
71B
  8
0
 10
1140.4979811805269
 20
-551.33170148259126
 30
0.0
 11
1139.7479811805269
 21
-550.58170148259137
 31
0.0
  0
LINE
  5
71C
  8
0
 10
1148.9979811805269
 20
-551.33170148259126
 30
0.0
 11
1149.7479811805269
 21
-550.58170148259137
 31
0.0
  0
LINE
  5
71D
  8
0
 10
1130.7460011805269
 20
-527.33170148259126
 30
0.0
 11
1130.7460011805269
 21
-507.33170148259143
 31
0.0
1001
ACAD
1000
ASC_BOUNDS
1002
{
1070
    19
1002
}
  0
LINE
  5
71E
  8
0
 10
1158.7460011805269
 20
-527.33170148259126
 30
0.0
 11
1158.7460011805269
 21
-507.33170148259143
 31
0.0
1001
ACAD
1000
ASC_BOUNDS
1002
{
1070
    19
1002
}
  0
LINE
  5
71F
  8
0
 10
1148.9979811805269
 20
-532.08170148259126
 30
0.0
 11
1140.4979811805269
 21
-532.08170148259126
 31
0.0
1001
ACAD
1000
ASC_BOUNDS
1002
{
1070
    19
1005
0
1005
0
1005
0
1005
0
1005
0
1002
}
  0
LINE
  5
720
  8
0
 10
1128.7460011805269
 20
-531.33170148259126
 30
0.0
 11
1160.7460011805269
 21
-531.33170148259126
 31
0.0
1001
ACAD
1000
ASC_BOUNDS
1002
{
1070
    19
1005
0
1005
0
1005
0
1005
0
1005
0
1002
}
  0
LINE
  5
721
  8
0
 10
1130.2460011805269
 20
-527.33170148259126
 30
0.0
 11
1157.2460011805269
 21
-527.33170148259126
 31
0.0
1001
ACAD
1000
ASC_BOUNDS
1002
{
1070
    19
1002
}
  0
LINE
  5
722
  8
0
 10
1128.7460011805269
 20
-528.83170148259126
 30
0.0
 11
1160.7460011805269
 21
-528.83170148259126
 31
0.0
  0
LINE
  5
723
  8
0
 10
1128.7460011805269
 20
-528.83170148259126
 30
0.0
 11
1130.2460011805269
 21
-527.33170148259126
 31
0.0
1001
ACAD
1000
ASC_BOUNDS
1002
{
1070
    19
1005
0
1005
0
1002
}
  0
LINE
  5
724
  8
0
 10
1128.7460011805269
 20
-528.83170148259126
 30
0.0
 11
1128.7460011805269
 21
-531.33170148259126
 31
0.0
1001
ACAD
1000
ASC_BOUNDS
1002
{
1070
    19
1002
}
  0
LINE
  5
725
  8
0
 10
1140.4979811805269
 20
-532.08170148259126
 30
0.0
 11
1139.7479811805269
 21
-531.33170148259126
 31
0.0
  0
LINE
  5
726
  8
0
 10
1160.7460011805269
 20
-528.83170148259126
 30
0.0
 11
1159.2460011805269
 21
-527.33170148259126
 31
0.0
1001
ACAD
1000
ASC_BOUNDS
1002
{
1070
    19
1005
0
1002
}
  0
LINE
  5
727
  8
0
 10
1148.9979811805269
 20
-532.08170148259126
 30
0.0
 11
1149.7479811805269
 21
-531.33170148259126
 31
0.0
  0
LINE
  5
728
  8
0
 10
1160.7460011805269
 20
-531.33170148259126
 30
0.0
 11
1160.7460011805269
 21
-528.83170148259126
 31
0.0
1001
ACAD
1000
ASC_BOUNDS
1002
{
1070
    19
1002
}
  0
LINE
  5
729
  8
0
 10
1157.2460011805269
 20
-527.33170148259126
 30
0.0
 11
1159.2460011805269
 21
-527.33170148259126
 31
0.0
1001
ACAD
1000
ASC_BOUNDS
1002
{
1070
    19
1002
}
  0
LINE
  5
72A
  8
0
  6
CENTER
 10
1544.7460011805269
 20
-554.33170148259092
 30
0.0
 11
1544.746001180526
 21
-507.3317014825908
 31
0.0
1001
ACAD
1000
ASC_BOUNDS
1002
{
1070
    19
1002
}
  0
LINE
  5
72B
  8
0
 10
1549.7440211805269
 20
-550.58170148259114
 30
0.0
 11
1549.7440211805269
 21
-531.33170148259092
 31
0.0
  0
LINE
  5
72C
  8
0
 10
1548.9940211805269
 20
-551.3317014825908
 30
0.0
 11
1548.9940211805269
 21
-532.08170148259092
 31
0.0
  0
LINE
  5
72D
  8
0
 10
1539.7440211805269
 20
-531.33170148259092
 30
0.0
 11
1539.7440211805269
 21
-550.5817014825908
 31
0.0
  0
LINE
  5
72E
  8
0
 10
1540.4940211805269
 20
-532.08170148259092
 30
0.0
 11
1540.4940211805269
 21
-551.3317014825908
 31
0.0
  0
LINE
  5
72F
  8
0
 10
1540.4940211805269
 20
-551.33170148259092
 30
0.0
 11
1548.9940211805269
 21
-551.33170148259092
 31
0.0
  0
LINE
  5
730
  8
0
 10
1539.7440211805269
 20
-550.5817014825908
 30
0.0
 11
1549.7440211805269
 21
-550.5817014825908
 31
0.0
  0
LINE
  5
731
  8
0
 10
1540.4940211805269
 20
-551.33170148259092
 30
0.0
 11
1539.7440211805269
 21
-550.5817014825908
 31
0.0
  0
LINE
  5
732
  8
0
 10
1548.9940211805269
 20
-551.33170148259092
 30
0.0
 11
1549.7440211805269
 21
-550.5817014825908
 31
0.0
  0
LINE
  5
733
  8
0
 10
1530.7460011805269
 20
-527.3317014825908
 30
0.0
 11
1530.7460011805269
 21
-507.3317014825908
 31
0.0
1001
ACAD
1000
ASC_BOUNDS
1002
{
1070
    19
1002
}
  0
LINE
  5
734
  8
0
 10
1558.746001180526
 20
-527.3317014825908
 30
0.0
 11
1558.746001180526
 21
-507.3317014825908
 31
0.0
1001
ACAD
1000
ASC_BOUNDS
1002
{
1070
    19
1002
}
  0
LINE
  5
735
  8
0
 10
1560.746001180526
 20
-528.83170148259092
 30
0.0
 11
1559.2460011805269
 21
-527.3317014825908
 31
0.0
1001
ACAD
1000
ASC_BOUNDS
1002
{
1070
    19
1005
0
1002
}
  0
LINE
  5
736
  8
0
 10
1528.746001180526
 20
-528.83170148259092
 30
0.0
 11
1530.246001180526
 21
-527.3317014825908
 31
0.0
1001
ACAD
1000
ASC_BOUNDS
1002
{
1070
    19
1002
}
  0
LINE
  5
737
  8
0
 10
1548.9940211805269
 20
-532.08170148259092
 30
0.0
 11
1540.4940211805269
 21
-532.08170148259092
 31
0.0
1001
ACAD
1000
ASC_BOUNDS
1002
{
1070
    19
1005
0
1005
0
1005
0
1005
0
1005
0
1002
}
  0
LINE
  5
738
  8
0
 10
1560.746001180526
 20
-531.33170148259092
 30
0.0
 11
1528.746001180526
 21
-531.33170148259092
 31
0.0
1001
ACAD
1000
ASC_BOUNDS
1002
{
1070
    19
1005
0
1005
0
1005
0
1005
0
1005
0
1002
}
  0
LINE
  5
739
  8
0
 10
1560.746001180526
 20
-528.83170148259092
 30
0.0
 11
1528.746001180526
 21
-528.83170148259092
 31
0.0
  0
LINE
  5
73A
  8
0
 10
1540.4940211805269
 20
-532.08170148259092
 30
0.0
 11
1539.7440211805269
 21
-531.33170148259092
 31
0.0
  0
LINE
  5
73B
  8
0
 10
1528.746001180526
 20
-531.33170148259092
 30
0.0
 11
1528.746001180526
 21
-528.83170148259092
 31
0.0
1001
ACAD
1000
ASC_BOUNDS
1002
{
1070
    19
1002
}
  0
LINE
  5
73C
  8
0
 10
1560.746001180526
 20
-528.83170148259092
 30
0.0
 11
1560.746001180526
 21
-531.33170148259092
 31
0.0
1001
ACAD
1000
ASC_BOUNDS
1002
{
1070
    19
1002
}
  0
LINE
  5
73D
  8
0
 10
1548.9940211805269
 20
-532.08170148259092
 30
0.0
 11
1549.7440211805269
 21
-531.33170148259092
 31
0.0
  0
LINE
  5
73E
  8
0
 10
1559.2460011805269
 20
-527.3317014825908
 30
0.0
 11
1532.2460011805269
 21
-527.3317014825908
 31
0.0
1001
ACAD
1000
ASC_BOUNDS
1002
{
1070
    19
1002
}
  0
LINE
  5
73F
  8
0
 10
1532.2460011805269
 20
-527.3317014825908
 30
0.0
 11
1530.246001180526
 21
-527.3317014825908
 31
0.0
1001
ACAD
1000
ASC_BOUNDS
1002
{
1070
    19
1002
}
  0
LINE
  5
740
  8
0
 10
1498.7460011805269
 20
-475.3317014825908
 30
0.0
 11
1190.7460011805269
 21
-475.33170148259131
 31
0.0
  0
LINE
  5
741
  8
0
  6
CENTER
 10
1498.7460011805269
 20
-461.3317014825908
 30
0.0
 11
1190.7460011805269
 21
-461.33170148259143
 31
0.0
  0
LINE
  5
742
  8
0
 10
1498.7460011805269
 20
-447.33170148259092
 30
0.0
 11
1190.7460011805269
 21
-447.33170148259131
 31
0.0
  0
VIEWPORT
  5
8D
 67
     1
  8
0
 10
143.47825622558591
 20
99.980751991271987
 30
0.0
 40
339.12752973873143
 41
222.1965796813964
 68
     1
 69
     1
1001
ACAD
1000
MVIEW
1002
{
1070
    16
1010
0.0
1020
0.0
1030
0.0
1010
0.0
1020
0.0
1030
1.0
1040
0.0
1040
222.1965796813964
1040
143.47825622558591
1040
99.980751991271987
1040
50.0
1040
0.0
1040
0.0
1070
     0
1070
   100
1070
     1
1070
     1
1070
     0
1070
     0
1070
     0
1070
     0
1040
0.0
1040
0.0
1040
0.0
1040
10.0
1040
10.0
1040
10.0
1040
10.0
1070
     0
1002
{
1002
}
1002
}
  0
VIEWPORT
  5
8F
 67
     1
  8
0
 10
143.37242841720581
 20
99.874916553497314
 30
0.0
 40
229.3958854675293
 41
159.79986648559569
 68
     2
 69
     2
1001
ACAD
1000
MVIEW
1002
{
1070
    16
1010
0.0
1020
0.0
1030
0.0
1010
0.0
1020
0.0
1030
1.0
1040
0.0
1040
300.10452961672468
1040
210.0
1040
148.5
1040
50.0
1040
0.0
1040
0.0
1070
     0
1070
   100
1070
     1
1070
     2
1070
     0
1070
     0
1070
     0
1070
     0
1040
0.0
1040
0.0
1040
0.0
1040
10.0
1040
10.0
1040
10.0
1040
10.0
1070
     0
1002
{
1002
}
1002
}
  0
ENDSEC
  0
EOF
