  0
SECTION
  2
HEADER
  9
$ACADVER
  1
AC1009
  9
$INSBASE
 10
0.0
 20
0.0
 30
0.0
  9
$EXTMIN
 10
118.45764
 20
-42.898722
 30
0.0
  9
$EXTMAX
 10
569.219893
 20
253.418305
 30
0.0
  9
$LIMMIN
 10
0.0
 20
0.0
  9
$LIMMAX
 10
12.0
 20
9.0
  9
$ORTHOMODE
 70
     1
  9
$REGENMODE
 70
     1
  9
$FILLMODE
 70
     1
  9
$QTEXTMODE
 70
     0
  9
$MIRRTEXT
 70
     1
  9
$DRAGMODE
 70
     2
  9
$LTSCALE
 40
7.0
  9
$OSMODE
 70
     0
  9
$ATTMODE
 70
     1
  9
$TEXTSIZE
 40
0.2
  9
$TRACEWID
 40
0.05
  9
$TEXTSTYLE
  7
STANDARD
  9
$CLAYER
  8
0
  9
$CELTYPE
  6
BYLAYER
  9
$CECOLOR
 62
   256
  9
$DIMSCALE
 40
1.0
  9
$DIMASZ
 40
2.5
  9
$DIMEXO
 40
0.0
  9
$DIMDLI
 40
5.0
  9
$DIMRND
 40
0.0
  9
$DIMDLE
 40
0.0
  9
$DIMEXE
 40
1.0
  9
$DIMTP
 40
0.0
  9
$DIMTM
 40
0.0
  9
$DIMTXT
 40
2.5
  9
$DIMCEN
 40
0.09
  9
$DIMTSZ
 40
0.0
  9
$DIMTOL
 70
     0
  9
$DIMLIM
 70
     0
  9
$DIMTIH
 70
     0
  9
$DIMTOH
 70
     0
  9
$DIMSE1
 70
     0
  9
$DIMSE2
 70
     0
  9
$DIMTAD
 70
     1
  9
$DIMZIN
 70
     0
  9
$DIMBLK
  1

  9
$DIMASO
 70
     0
  9
$DIMSHO
 70
     0
  9
$DIMPOST
  1

  9
$DIMAPOST
  1

  9
$DIMALT
 70
     0
  9
$DIMALTD
 70
     2
  9
$DIMALTF
 40
25.4
  9
$DIMLFAC
 40
1.0
  9
$DIMTOFL
 70
     1
  9
$DIMTVP
 40
0.0
  9
$DIMTIX
 70
     0
  9
$DIMSOXD
 70
     0
  9
$DIMSAH
 70
     0
  9
$DIMBLK1
  1

  9
$DIMBLK2
  1

  9
$DIMSTYLE
  2
*UNNAMED
  9
$DIMCLRD
 70
     0
  9
$DIMCLRE
 70
     0
  9
$DIMCLRT
 70
     0
  9
$DIMTFAC
 40
1.0
  9
$DIMGAP
 40
0.09
  9
$LUNITS
 70
     2
  9
$LUPREC
 70
     4
  9
$SKETCHINC
 40
0.1
  9
$FILLETRAD
 40
22.5
  9
$AUNITS
 70
     0
  9
$AUPREC
 70
     0
  9
$MENU
  1
wiberger
  9
$ELEVATION
 40
0.0
  9
$PELEVATION
 40
0.0
  9
$THICKNESS
 40
0.0
  9
$LIMCHECK
 70
     0
  9
$BLIPMODE
 70
     1
  9
$CHAMFERA
 40
0.5
  9
$CHAMFERB
 40
0.5
  9
$SKPOLY
 70
     0
  9
$TDCREATE
 40
2450190.562620717
  9
$TDUPDATE
 40
2450218.524443055
  9
$TDINDWG
 40
0.0076056713
  9
$TDUSRTIMER
 40
0.0076056713
  9
$USRTIMER
 70
     1
  9
$ANGBASE
 50
0.0
  9
$ANGDIR
 70
     0
  9
$PDMODE
 70
     0
  9
$PDSIZE
 40
0.0
  9
$PLINEWID
 40
0.0
  9
$COORDS
 70
     2
  9
$SPLFRAME
 70
     0
  9
$SPLINETYPE
 70
     6
  9
$SPLINESEGS
 70
     8
  9
$ATTDIA
 70
     0
  9
$ATTREQ
 70
     1
  9
$HANDLING
 70
     0
  9
$HANDSEED
  5
0
  9
$SURFTAB1
 70
     6
  9
$SURFTAB2
 70
     6
  9
$SURFTYPE
 70
     6
  9
$SURFU
 70
     6
  9
$SURFV
 70
     6
  9
$UCSNAME
  2

  9
$UCSORG
 10
0.0
 20
0.0
 30
0.0
  9
$UCSXDIR
 10
1.0
 20
0.0
 30
0.0
  9
$UCSYDIR
 10
0.0
 20
1.0
 30
0.0
  9
$PUCSNAME
  2

  9
$PUCSORG
 10
0.0
 20
0.0
 30
0.0
  9
$PUCSXDIR
 10
1.0
 20
0.0
 30
0.0
  9
$PUCSYDIR
 10
0.0
 20
1.0
 30
0.0
  9
$USERI1
 70
     0
  9
$USERI2
 70
     0
  9
$USERI3
 70
     0
  9
$USERI4
 70
     0
  9
$USERI5
 70
     0
  9
$USERR1
 40
0.0
  9
$USERR2
 40
0.0
  9
$USERR3
 40
0.0
  9
$USERR4
 40
0.0
  9
$USERR5
 40
0.0
  9
$WORLDVIEW
 70
     1
  9
$SHADEDGE
 70
     3
  9
$SHADEDIF
 70
    70
  9
$TILEMODE
 70
     1
  9
$MAXACTVP
 70
    16
  9
$PINSBASE
 10
0.0
 20
0.0
 30
0.0
  9
$PLIMCHECK
 70
     0
  9
$PEXTMIN
 10
1.000000E+20
 20
1.000000E+20
 30
1.000000E+20
  9
$PEXTMAX
 10
-1.000000E+20
 20
-1.000000E+20
 30
-1.000000E+20
  9
$PLIMMIN
 10
0.0
 20
0.0
  9
$PLIMMAX
 10
12.0
 20
9.0
  9
$UNITMODE
 70
     0
  9
$VISRETAIN
 70
     0
  9
$PLINEGEN
 70
     0
  9
$PSLTSCALE
 70
     0
  9
$TREEDEPTH
 70
  3020
  9
$DWGCODEPAGE
  3
undefined
  0
ENDSEC
  0
SECTION
  2
TABLES
  0
TABLE
  2
VPORT
 70
     2
  0
VPORT
  2
*ACTIVE
 70
     0
 10
0.0
 20
0.0
 11
1.0
 21
1.0
 12
412.445355
 22
108.213184
 13
0.0
 23
0.0
 14
1.0
 24
1.0
 15
0.0
 25
0.0
 16
0.0
 26
0.0
 36
1.0
 17
0.0
 27
0.0
 37
0.0
 40
360.994397
 41
1.767507
 42
50.0
 43
0.0
 44
0.0
 50
0.0
 51
0.0
 71
     0
 72
   100
 73
     1
 74
     0
 75
     0
 76
     0
 77
     0
 78
     0
  0
ENDTAB
  0
TABLE
  2
LTYPE
 70
     2
  0
LTYPE
  2
CONTINUOUS
 70
    64
  3
Solid line
 72
    65
 73
     0
 40
0.0
  0
LTYPE
  2
CENTER
 70
    64
  3
____ _ ____ _ ____ _ ____ _ ____ _ ____ _ ____
 72
    65
 73
     4
 40
2.0
 49
1.25
 49
-0.25
 49
0.25
 49
-0.25
  0
ENDTAB
  0
TABLE
  2
LAYER
 70
     1
  0
LAYER
  2
0
 70
    64
 62
     7
  6
CONTINUOUS
  0
ENDTAB
  0
TABLE
  2
STYLE
 70
     1
  0
STYLE
  2
STANDARD
 70
     0
 40
0.0
 41
1.0
 50
0.0
 71
     0
 42
0.2
  3
txt
  4

  0
ENDTAB
  0
TABLE
  2
VIEW
 70
     0
  0
ENDTAB
  0
TABLE
  2
UCS
 70
     0
  0
ENDTAB
  0
TABLE
  2
APPID
 70
     1
  0
APPID
  2
ACAD
 70
    64
  0
ENDTAB
  0
TABLE
  2
DIMSTYLE
 70
     0
  0
ENDTAB
  0
ENDSEC
  0
SECTION
  2
BLOCKS
  0
BLOCK
  8
0
  2
*X0
 70
    65
 10
0.0
 20
0.0
 30
0.0
  3
*X
  0
LINE
  8
0
 62
     0
 10
-159.311946
 20
-3.748454
 30
0.0
 11
-156.811946
 21
-1.248454
 31
0.0
  0
LINE
  8
0
 62
     0
 10
-128.010196
 20
27.553295
 30
0.0
 11
-118.010196
 21
37.553295
 31
0.0
  0
LINE
  8
0
 62
     0
 10
-159.311946
 20
-0.21292
 30
0.0
 11
-156.811946
 21
2.28708
 31
0.0
  0
LINE
  8
0
 62
     0
 10
-131.54573
 20
27.553295
 30
0.0
 11
-121.54573
 21
37.553295
 31
0.0
  0
LINE
  8
0
 62
     0
 10
-166.811946
 20
-4.177386
 30
0.0
 11
-164.311946
 21
-1.677386
 31
0.0
  0
LINE
  8
0
 62
     0
 10
-135.081264
 20
27.553295
 30
0.0
 11
-125.081264
 21
37.553295
 31
0.0
  0
LINE
  8
0
 62
     0
 10
-159.311946
 20
3.322614
 30
0.0
 11
-156.811946
 21
5.822614
 31
0.0
  0
LINE
  8
0
 62
     0
 10
-166.811946
 20
-0.641852
 30
0.0
 11
-164.311946
 21
1.858148
 31
0.0
  0
LINE
  8
0
 62
     0
 10
-138.616798
 20
27.553295
 30
0.0
 11
-128.616798
 21
37.553295
 31
0.0
  0
LINE
  8
0
 62
     0
 10
-159.311946
 20
6.858148
 30
0.0
 11
-156.811946
 21
9.358148
 31
0.0
  0
LINE
  8
0
 62
     0
 10
-166.811946
 20
2.893682
 30
0.0
 11
-164.311946
 21
5.393682
 31
0.0
  0
LINE
  8
0
 62
     0
 10
-142.152332
 20
27.553295
 30
0.0
 11
-132.152332
 21
37.553295
 31
0.0
  0
LINE
  8
0
 62
     0
 10
-159.991139
 20
9.714488
 30
0.0
 11
-156.811946
 21
12.893682
 31
0.0
  0
LINE
  8
0
 62
     0
 10
-166.811946
 20
6.429216
 30
0.0
 11
-163.911946
 21
9.329216
 31
0.0
  0
LINE
  8
0
 62
     0
 10
-145.77362
 20
27.467542
 30
0.0
 11
-135.687866
 21
37.553295
 31
0.0
  0
LINE
  8
0
 62
     0
 10
-163.381767
 20
9.859394
 30
0.0
 11
-156.726192
 21
16.51497
 31
0.0
  0
LINE
  8
0
 62
     0
 10
-166.811946
 20
9.96475
 30
0.0
 11
-154.545846
 21
22.230849
 31
0.0
  0
LINE
  8
0
 62
     0
 10
-151.489499
 20
25.287196
 30
0.0
 11
-139.2234
 21
37.553295
 31
0.0
  0
LINE
  8
0
 62
     0
 10
-166.811946
 20
13.500284
 30
0.0
 11
-142.758934
 21
37.553295
 31
0.0
  0
LINE
  8
0
 62
     0
 10
-166.715713
 20
17.13205
 30
0.0
 11
-146.390701
 21
37.457062
 31
0.0
  0
LINE
  8
0
 62
     0
 10
-165.862335
 20
21.520962
 30
0.0
 11
-150.779612
 21
36.603685
 31
0.0
  0
LINE
  8
0
 62
     0
 10
-162.142455
 20
28.776376
 30
0.0
 11
-158.035027
 21
32.883804
 31
0.0
  0
LINE
  8
0
 62
     0
 10
-124.474663
 20
27.553295
 30
0.0
 11
-117.811946
 21
34.216012
 31
0.0
  0
LINE
  8
0
 62
     0
 10
-120.939129
 20
27.553295
 30
0.0
 11
-117.811946
 21
30.680478
 31
0.0
  0
ENDBLK
  8
0
  0
BLOCK
  8
0
  2
*X1
 70
    65
 10
0.0
 20
0.0
 30
0.0
  3
*X
  0
LINE
  8
0
 62
     0
 10
-164.058831
 20
-9.889437
 30
0.0
 11
-164.479393
 21
-9.468875
 31
0.0
  0
LINE
  8
0
 62
     0
 10
-164.893607
 20
-10.468875
 30
0.0
 11
-165.893607
 21
-9.468875
 31
0.0
  0
LINE
  8
0
 62
     0
 10
-166.358831
 20
-9.003651
 30
0.0
 11
-166.893607
 21
-8.468875
 31
0.0
  0
LINE
  8
0
 62
     0
 10
-166.30782
 20
-10.468875
 30
0.0
 11
-168.30782
 21
-8.468875
 31
0.0
  0
LINE
  8
0
 62
     0
 10
-167.722034
 20
-10.468875
 30
0.0
 11
-168.858831
 21
-9.332078
 31
0.0
  0
LINE
  8
0
 62
     0
 10
-157.822539
 20
-10.468875
 30
0.0
 11
-158.658831
 21
-9.632583
 31
0.0
  0
LINE
  8
0
 62
     0
 10
-156.408326
 20
-10.468875
 30
0.0
 11
-157.408326
 21
-9.468875
 31
0.0
  0
LINE
  8
0
 62
     0
 10
-154.994112
 20
-10.468875
 30
0.0
 11
-156.358831
 21
-9.104156
 31
0.0
  0
LINE
  8
0
 62
     0
 10
-153.858831
 20
-10.189942
 30
0.0
 11
-155.579898
 21
-8.468875
 31
0.0
  0
ENDBLK
  8
0
  0
BLOCK
  8
0
  2
*X2
 70
    65
 10
0.0
 20
0.0
 30
0.0
  3
*X
  0
LINE
  8
0
 62
     0
 10
-153.044505
 20
97.978402
 30
0.0
 11
-150.581872
 21
100.441036
 31
0.0
  0
LINE
  8
0
 62
     0
 10
-121.044505
 20
129.978402
 30
0.0
 11
-111.044505
 21
139.978402
 31
0.0
  0
LINE
  8
0
 62
     0
 10
-153.081872
 20
101.47657
 30
0.0
 11
-150.581872
 21
103.97657
 31
0.0
  0
LINE
  8
0
 62
     0
 10
-124.580039
 20
129.978402
 30
0.0
 11
-114.580039
 21
139.978402
 31
0.0
  0
LINE
  8
0
 62
     0
 10
-160.115573
 20
97.978402
 30
0.0
 11
-158.081872
 21
100.012103
 31
0.0
  0
LINE
  8
0
 62
     0
 10
-128.115573
 20
129.978402
 30
0.0
 11
-118.115573
 21
139.978402
 31
0.0
  0
LINE
  8
0
 62
     0
 10
-153.081872
 20
105.012103
 30
0.0
 11
-150.581872
 21
107.512103
 31
0.0
  0
LINE
  8
0
 62
     0
 10
-160.581872
 20
101.047637
 30
0.0
 11
-158.081872
 21
103.547637
 31
0.0
  0
LINE
  8
0
 62
     0
 10
-131.651107
 20
129.978402
 30
0.0
 11
-121.651107
 21
139.978402
 31
0.0
  0
LINE
  8
0
 62
     0
 10
-153.081872
 20
108.547637
 30
0.0
 11
-150.581872
 21
111.047637
 31
0.0
  0
LINE
  8
0
 62
     0
 10
-160.581872
 20
104.583171
 30
0.0
 11
-158.081872
 21
107.083171
 31
0.0
  0
LINE
  8
0
 62
     0
 10
-135.186641
 20
129.978402
 30
0.0
 11
-125.186641
 21
139.978402
 31
0.0
  0
LINE
  8
0
 62
     0
 10
-153.481872
 20
111.683171
 30
0.0
 11
-150.581872
 21
114.583171
 31
0.0
  0
LINE
  8
0
 62
     0
 10
-160.581872
 20
108.118705
 30
0.0
 11
-157.681872
 21
111.018705
 31
0.0
  0
LINE
  8
0
 62
     0
 10
-138.739485
 20
129.961092
 30
0.0
 11
-128.722174
 21
139.978402
 31
0.0
  0
LINE
  8
0
 62
     0
 10
-155.536141
 20
113.164436
 30
0.0
 11
-150.564562
 21
118.136015
 31
0.0
  0
LINE
  8
0
 62
     0
 10
-160.581872
 20
111.654239
 30
0.0
 11
-149.353068
 21
122.883043
 31
0.0
  0
LINE
  8
0
 62
     0
 10
-143.486512
 20
128.749598
 30
0.0
 11
-132.257708
 21
139.978402
 31
0.0
  0
LINE
  8
0
 62
     0
 10
-160.581872
 20
115.189773
 30
0.0
 11
-135.793242
 21
139.978402
 31
0.0
  0
LINE
  8
0
 62
     0
 10
-160.545231
 20
118.761948
 30
0.0
 11
-139.365417
 21
139.941762
 31
0.0
  0
LINE
  8
0
 62
     0
 10
-159.911017
 20
122.931695
 30
0.0
 11
-143.535164
 21
139.307548
 31
0.0
  0
LINE
  8
0
 62
     0
 10
-157.451684
 20
128.926562
 30
0.0
 11
-149.530031
 21
136.848215
 31
0.0
  0
LINE
  8
0
 62
     0
 10
-117.508971
 20
129.978402
 30
0.0
 11
-107.508971
 21
139.978402
 31
0.0
  0
LINE
  8
0
 62
     0
 10
-113.973437
 20
129.978402
 30
0.0
 11
-105.581872
 21
138.369968
 31
0.0
  0
LINE
  8
0
 62
     0
 10
-110.437903
 20
129.978402
 30
0.0
 11
-105.581872
 21
134.834434
 31
0.0
  0
LINE
  8
0
 62
     0
 10
-106.902369
 20
129.978402
 30
0.0
 11
-105.581872
 21
131.2989
 31
0.0
  0
ENDBLK
  8
0
  0
BLOCK
  8
0
  2
*X3
 70
    65
 10
0.0
 20
0.0
 30
0.0
  3
*X
  0
LINE
  8
0
 62
     0
 10
-136.008192
 20
238.758402
 30
0.0
 11
-126.008192
 21
248.758402
 31
0.0
  0
LINE
  8
0
 62
     0
 10
-171.543726
 20
206.758402
 30
0.0
 11
-170.170096
 21
208.132032
 31
0.0
  0
LINE
  8
0
 62
     0
 10
-139.543726
 20
238.758402
 30
0.0
 11
-129.543726
 21
248.758402
 31
0.0
  0
LINE
  8
0
 62
     0
 10
-172.670096
 20
209.167566
 30
0.0
 11
-170.170096
 21
211.667566
 31
0.0
  0
LINE
  8
0
 62
     0
 10
-143.079259
 20
238.758402
 30
0.0
 11
-133.079259
 21
248.758402
 31
0.0
  0
LINE
  8
0
 62
     0
 10
-178.614793
 20
206.758402
 30
0.0
 11
-177.670096
 21
207.7031
 31
0.0
  0
LINE
  8
0
 62
     0
 10
-146.614793
 20
238.758402
 30
0.0
 11
-136.614793
 21
248.758402
 31
0.0
  0
LINE
  8
0
 62
     0
 10
-172.670096
 20
212.7031
 30
0.0
 11
-170.170096
 21
215.2031
 31
0.0
  0
LINE
  8
0
 62
     0
 10
-180.170096
 20
208.738634
 30
0.0
 11
-177.670096
 21
211.238634
 31
0.0
  0
LINE
  8
0
 62
     0
 10
-150.150327
 20
238.758402
 30
0.0
 11
-140.150327
 21
248.758402
 31
0.0
  0
LINE
  8
0
 62
     0
 10
-172.670096
 20
216.238634
 30
0.0
 11
-170.170096
 21
218.738634
 31
0.0
  0
LINE
  8
0
 62
     0
 10
-180.170096
 20
212.274168
 30
0.0
 11
-177.670096
 21
214.774168
 31
0.0
  0
LINE
  8
0
 62
     0
 10
-153.685861
 20
238.758402
 30
0.0
 11
-143.685861
 21
248.758402
 31
0.0
  0
LINE
  8
0
 62
     0
 10
-173.070096
 20
219.374168
 30
0.0
 11
-170.170096
 21
222.274168
 31
0.0
  0
LINE
  8
0
 62
     0
 10
-180.170096
 20
215.809702
 30
0.0
 11
-177.670096
 21
218.309702
 31
0.0
  0
LINE
  8
0
 62
     0
 10
-157.221395
 20
238.758402
 30
0.0
 11
-147.221395
 21
248.758402
 31
0.0
  0
LINE
  8
0
 62
     0
 10
-174.433965
 20
221.545833
 30
0.0
 11
-170.170096
 21
225.809702
 31
0.0
  0
LINE
  8
0
 62
     0
 10
-180.170096
 20
219.345236
 30
0.0
 11
-169.633363
 21
229.881968
 31
0.0
  0
LINE
  8
0
 62
     0
 10
-161.293661
 20
238.22167
 30
0.0
 11
-150.756929
 21
248.758402
 31
0.0
  0
LINE
  8
0
 62
     0
 10
-180.170096
 20
222.880769
 30
0.0
 11
-154.292463
 21
248.758402
 31
0.0
  0
LINE
  8
0
 62
     0
 10
-180.169538
 20
226.416861
 30
0.0
 11
-157.828555
 21
248.757844
 31
0.0
  0
LINE
  8
0
 62
     0
 10
-179.80014
 20
230.321793
 30
0.0
 11
-161.733486
 21
248.388447
 31
0.0
  0
LINE
  8
0
 62
     0
 10
-178.206626
 20
235.450841
 30
0.0
 11
-166.862534
 21
246.794933
 31
0.0
  0
LINE
  8
0
 62
     0
 10
-132.472658
 20
238.758402
 30
0.0
 11
-122.472658
 21
248.758402
 31
0.0
  0
LINE
  8
0
 62
     0
 10
-128.937124
 20
238.758402
 30
0.0
 11
-118.937124
 21
248.758402
 31
0.0
  0
LINE
  8
0
 62
     0
 10
-125.40159
 20
238.758402
 30
0.0
 11
-115.40159
 21
248.758402
 31
0.0
  0
LINE
  8
0
 62
     0
 10
-121.866056
 20
238.758402
 30
0.0
 11
-115.170096
 21
245.454363
 31
0.0
  0
LINE
  8
0
 62
     0
 10
-118.330522
 20
238.758402
 30
0.0
 11
-115.170096
 21
241.918829
 31
0.0
  0
ENDBLK
  8
0
  0
BLOCK
  8
0
  2
*X4
 70
    65
 10
0.0
 20
0.0
 30
0.0
  3
*X
  0
LINE
  8
0
 62
     0
 10
250.153039
 20
27.414402
 30
0.0
 11
260.153039
 21
37.414402
 31
0.0
  0
LINE
  8
0
 62
     0
 10
246.617505
 20
27.414402
 30
0.0
 11
256.617505
 21
37.414402
 31
0.0
  0
LINE
  8
0
 62
     0
 10
243.081971
 20
27.414402
 30
0.0
 11
253.081971
 21
37.414402
 31
0.0
  0
LINE
  8
0
 62
     0
 10
239.546437
 20
27.414402
 30
0.0
 11
249.546437
 21
37.414402
 31
0.0
  0
LINE
  8
0
 62
     0
 10
204.010903
 20
-4.585598
 30
0.0
 11
205.031802
 21
-3.564698
 31
0.0
  0
LINE
  8
0
 62
     0
 10
236.010903
 20
27.414402
 30
0.0
 11
246.010903
 21
37.414402
 31
0.0
  0
LINE
  8
0
 62
     0
 10
202.531802
 20
-2.529165
 30
0.0
 11
205.031802
 21
-0.029165
 31
0.0
  0
LINE
  8
0
 62
     0
 10
232.475369
 20
27.414402
 30
0.0
 11
242.475369
 21
37.414402
 31
0.0
  0
LINE
  8
0
 62
     0
 10
196.939835
 20
-4.585598
 30
0.0
 11
197.531802
 21
-3.993631
 31
0.0
  0
LINE
  8
0
 62
     0
 10
228.939835
 20
27.414402
 30
0.0
 11
238.939835
 21
37.414402
 31
0.0
  0
LINE
  8
0
 62
     0
 10
202.531802
 20
1.006369
 30
0.0
 11
205.031802
 21
3.506369
 31
0.0
  0
LINE
  8
0
 62
     0
 10
195.031802
 20
-2.958097
 30
0.0
 11
197.531802
 21
-0.458097
 31
0.0
  0
LINE
  8
0
 62
     0
 10
225.404301
 20
27.414402
 30
0.0
 11
235.404301
 21
37.414402
 31
0.0
  0
LINE
  8
0
 62
     0
 10
202.531802
 20
4.541903
 30
0.0
 11
205.031802
 21
7.041903
 31
0.0
  0
LINE
  8
0
 62
     0
 10
195.031802
 20
0.577437
 30
0.0
 11
197.531802
 21
3.077437
 31
0.0
  0
LINE
  8
0
 62
     0
 10
221.868767
 20
27.414402
 30
0.0
 11
231.868767
 21
37.414402
 31
0.0
  0
LINE
  8
0
 62
     0
 10
202.131802
 20
7.677437
 30
0.0
 11
205.031802
 21
10.577437
 31
0.0
  0
LINE
  8
0
 62
     0
 10
195.031802
 20
4.112971
 30
0.0
 11
197.531802
 21
6.612971
 31
0.0
  0
LINE
  8
0
 62
     0
 10
218.333233
 20
27.414402
 30
0.0
 11
228.333233
 21
37.414402
 31
0.0
  0
LINE
  8
0
 62
     0
 10
200.991555
 20
10.072724
 30
0.0
 11
205.031802
 21
14.112971
 31
0.0
  0
LINE
  8
0
 62
     0
 10
195.031802
 20
7.648505
 30
0.0
 11
205.430832
 21
18.047535
 31
0.0
  0
LINE
  8
0
 62
     0
 10
214.39867
 20
27.015373
 30
0.0
 11
224.797699
 21
37.414402
 31
0.0
  0
LINE
  8
0
 62
     0
 10
195.031802
 20
11.184039
 30
0.0
 11
221.262166
 21
37.414402
 31
0.0
  0
LINE
  8
0
 62
     0
 10
195.031802
 20
14.719573
 30
0.0
 11
217.726632
 21
37.414402
 31
0.0
  0
LINE
  8
0
 62
     0
 10
195.32762
 20
18.550925
 30
0.0
 11
213.89528
 21
37.118585
 31
0.0
  0
LINE
  8
0
 62
     0
 10
196.729424
 20
23.488263
 30
0.0
 11
208.957941
 21
35.71678
 31
0.0
  0
LINE
  8
0
 62
     0
 10
253.688572
 20
27.414402
 30
0.0
 11
263.688572
 21
37.414402
 31
0.0
  0
LINE
  8
0
 62
     0
 10
257.224106
 20
27.414402
 30
0.0
 11
267.224106
 21
37.414402
 31
0.0
  0
LINE
  8
0
 62
     0
 10
260.75964
 20
27.414402
 30
0.0
 11
270.75964
 21
37.414402
 31
0.0
  0
LINE
  8
0
 62
     0
 10
264.295174
 20
27.414402
 30
0.0
 11
274.295174
 21
37.414402
 31
0.0
  0
LINE
  8
0
 62
     0
 10
267.830708
 20
27.414402
 30
0.0
 11
277.830708
 21
37.414402
 31
0.0
  0
LINE
  8
0
 62
     0
 10
271.366242
 20
27.414402
 30
0.0
 11
281.366242
 21
37.414402
 31
0.0
  0
LINE
  8
0
 62
     0
 10
274.901776
 20
27.414402
 30
0.0
 11
284.901776
 21
37.414402
 31
0.0
  0
LINE
  8
0
 62
     0
 10
278.43731
 20
27.414402
 30
0.0
 11
288.43731
 21
37.414402
 31
0.0
  0
LINE
  8
0
 62
     0
 10
281.972844
 20
27.414402
 30
0.0
 11
290.031802
 21
35.473361
 31
0.0
  0
LINE
  8
0
 62
     0
 10
285.508378
 20
27.414402
 30
0.0
 11
290.031802
 21
31.937827
 31
0.0
  0
LINE
  8
0
 62
     0
 10
289.043911
 20
27.414402
 30
0.0
 11
290.031802
 21
28.402293
 31
0.0
  0
ENDBLK
  8
0
  0
BLOCK
  8
0
  2
*X5
 70
    65
 10
0.0
 20
0.0
 30
0.0
  3
*X
  0
LINE
  8
0
 62
     0
 10
246.651021
 20
129.978402
 30
0.0
 11
256.651021
 21
139.978402
 31
0.0
  0
LINE
  8
0
 62
     0
 10
243.115487
 20
129.978402
 30
0.0
 11
253.115487
 21
139.978402
 31
0.0
  0
LINE
  8
0
 62
     0
 10
239.579954
 20
129.978402
 30
0.0
 11
249.579954
 21
139.978402
 31
0.0
  0
LINE
  8
0
 62
     0
 10
236.04442
 20
129.978402
 30
0.0
 11
246.04442
 21
139.978402
 31
0.0
  0
LINE
  8
0
 62
     0
 10
232.508886
 20
129.978402
 30
0.0
 11
242.508886
 21
139.978402
 31
0.0
  0
LINE
  8
0
 62
     0
 10
228.973352
 20
129.978402
 30
0.0
 11
238.973352
 21
139.978402
 31
0.0
  0
LINE
  8
0
 62
     0
 10
193.437818
 20
97.978402
 30
0.0
 11
195.913094
 21
100.453679
 31
0.0
  0
LINE
  8
0
 62
     0
 10
225.437818
 20
129.978402
 30
0.0
 11
235.437818
 21
139.978402
 31
0.0
  0
LINE
  8
0
 62
     0
 10
193.413094
 20
101.489213
 30
0.0
 11
195.913094
 21
103.989213
 31
0.0
  0
LINE
  8
0
 62
     0
 10
221.902284
 20
129.978402
 30
0.0
 11
231.902284
 21
139.978402
 31
0.0
  0
LINE
  8
0
 62
     0
 10
186.36675
 20
97.978402
 30
0.0
 11
188.413094
 21
100.024746
 31
0.0
  0
LINE
  8
0
 62
     0
 10
218.36675
 20
129.978402
 30
0.0
 11
228.36675
 21
139.978402
 31
0.0
  0
LINE
  8
0
 62
     0
 10
193.413094
 20
105.024746
 30
0.0
 11
195.913094
 21
107.524746
 31
0.0
  0
LINE
  8
0
 62
     0
 10
185.913094
 20
101.06028
 30
0.0
 11
188.413094
 21
103.56028
 31
0.0
  0
LINE
  8
0
 62
     0
 10
214.831216
 20
129.978402
 30
0.0
 11
224.831216
 21
139.978402
 31
0.0
  0
LINE
  8
0
 62
     0
 10
193.413094
 20
108.56028
 30
0.0
 11
195.913094
 21
111.06028
 31
0.0
  0
LINE
  8
0
 62
     0
 10
185.913094
 20
104.595814
 30
0.0
 11
188.413094
 21
107.095814
 31
0.0
  0
LINE
  8
0
 62
     0
 10
211.295682
 20
129.978402
 30
0.0
 11
221.295682
 21
139.978402
 31
0.0
  0
LINE
  8
0
 62
     0
 10
193.013094
 20
111.695814
 30
0.0
 11
195.913094
 21
114.595814
 31
0.0
  0
LINE
  8
0
 62
     0
 10
185.913094
 20
108.131348
 30
0.0
 11
188.813094
 21
111.031348
 31
0.0
  0
LINE
  8
0
 62
     0
 10
207.742128
 20
129.960382
 30
0.0
 11
217.760148
 21
139.978402
 31
0.0
  0
LINE
  8
0
 62
     0
 10
190.950809
 20
113.169063
 30
0.0
 11
195.931115
 21
118.149369
 31
0.0
  0
LINE
  8
0
 62
     0
 10
185.913094
 20
111.666882
 30
0.0
 11
197.153608
 21
122.907396
 31
0.0
  0
LINE
  8
0
 62
     0
 10
202.984101
 20
128.737889
 30
0.0
 11
214.224614
 21
139.978402
 31
0.0
  0
LINE
  8
0
 62
     0
 10
185.913094
 20
115.202416
 30
0.0
 11
210.689081
 21
139.978402
 31
0.0
  0
LINE
  8
0
 62
     0
 10
185.950505
 20
118.775361
 30
0.0
 11
207.116136
 21
139.940991
 31
0.0
  0
LINE
  8
0
 62
     0
 10
186.588168
 20
122.948558
 30
0.0
 11
202.942939
 21
139.303329
 31
0.0
  0
LINE
  8
0
 62
     0
 10
189.061635
 20
128.957558
 30
0.0
 11
196.933938
 21
136.829862
 31
0.0
  0
LINE
  8
0
 62
     0
 10
250.186555
 20
129.978402
 30
0.0
 11
260.186555
 21
139.978402
 31
0.0
  0
LINE
  8
0
 62
     0
 10
253.722089
 20
129.978402
 30
0.0
 11
263.722089
 21
139.978402
 31
0.0
  0
LINE
  8
0
 62
     0
 10
257.257623
 20
129.978402
 30
0.0
 11
267.257623
 21
139.978402
 31
0.0
  0
LINE
  8
0
 62
     0
 10
260.793157
 20
129.978402
 30
0.0
 11
270.793157
 21
139.978402
 31
0.0
  0
LINE
  8
0
 62
     0
 10
264.328691
 20
129.978402
 30
0.0
 11
274.328691
 21
139.978402
 31
0.0
  0
LINE
  8
0
 62
     0
 10
267.864225
 20
129.978402
 30
0.0
 11
277.864225
 21
139.978402
 31
0.0
  0
LINE
  8
0
 62
     0
 10
271.399759
 20
129.978402
 30
0.0
 11
281.399759
 21
139.978402
 31
0.0
  0
LINE
  8
0
 62
     0
 10
274.935293
 20
129.978402
 30
0.0
 11
284.935293
 21
139.978402
 31
0.0
  0
LINE
  8
0
 62
     0
 10
278.470826
 20
129.978402
 30
0.0
 11
288.470826
 21
139.978402
 31
0.0
  0
LINE
  8
0
 62
     0
 10
282.00636
 20
129.978402
 30
0.0
 11
290.913094
 21
138.885136
 31
0.0
  0
LINE
  8
0
 62
     0
 10
285.541894
 20
129.978402
 30
0.0
 11
290.913094
 21
135.349602
 31
0.0
  0
LINE
  8
0
 62
     0
 10
289.077428
 20
129.978402
 30
0.0
 11
290.913094
 21
131.814068
 31
0.0
  0
ENDBLK
  8
0
  0
BLOCK
  8
0
  2
*X6
 70
    65
 10
0.0
 20
0.0
 30
0.0
  3
*X
  0
LINE
  8
0
 62
     0
 10
235.222869
 20
238.758402
 30
0.0
 11
245.222869
 21
248.758402
 31
0.0
  0
LINE
  8
0
 62
     0
 10
231.687335
 20
238.758402
 30
0.0
 11
241.687335
 21
248.758402
 31
0.0
  0
LINE
  8
0
 62
     0
 10
228.151801
 20
238.758402
 30
0.0
 11
238.151801
 21
248.758402
 31
0.0
  0
LINE
  8
0
 62
     0
 10
224.616267
 20
238.758402
 30
0.0
 11
234.616267
 21
248.758402
 31
0.0
  0
LINE
  8
0
 62
     0
 10
221.080733
 20
238.758402
 30
0.0
 11
231.080733
 21
248.758402
 31
0.0
  0
LINE
  8
0
 62
     0
 10
217.545199
 20
238.758402
 30
0.0
 11
227.545199
 21
248.758402
 31
0.0
  0
LINE
  8
0
 62
     0
 10
214.009665
 20
238.758402
 30
0.0
 11
224.009665
 21
248.758402
 31
0.0
  0
LINE
  8
0
 62
     0
 10
210.474131
 20
238.758402
 30
0.0
 11
220.474131
 21
248.758402
 31
0.0
  0
LINE
  8
0
 62
     0
 10
206.938597
 20
238.758402
 30
0.0
 11
216.938597
 21
248.758402
 31
0.0
  0
LINE
  8
0
 62
     0
 10
171.403063
 20
206.758402
 30
0.0
 11
171.729227
 21
207.084566
 31
0.0
  0
LINE
  8
0
 62
     0
 10
203.403063
 20
238.758402
 30
0.0
 11
213.403063
 21
248.758402
 31
0.0
  0
LINE
  8
0
 62
     0
 10
169.229227
 20
208.1201
 30
0.0
 11
171.729227
 21
210.6201
 31
0.0
  0
LINE
  8
0
 62
     0
 10
199.867529
 20
238.758402
 30
0.0
 11
209.867529
 21
248.758402
 31
0.0
  0
LINE
  8
0
 62
     0
 10
169.229227
 20
211.655634
 30
0.0
 11
171.729227
 21
214.155634
 31
0.0
  0
LINE
  8
0
 62
     0
 10
196.331996
 20
238.758402
 30
0.0
 11
206.331996
 21
248.758402
 31
0.0
  0
LINE
  8
0
 62
     0
 10
161.729227
 20
207.691168
 30
0.0
 11
164.229227
 21
210.191168
 31
0.0
  0
LINE
  8
0
 62
     0
 10
192.796462
 20
238.758402
 30
0.0
 11
202.796462
 21
248.758402
 31
0.0
  0
LINE
  8
0
 62
     0
 10
169.229227
 20
215.191168
 30
0.0
 11
171.729227
 21
217.691168
 31
0.0
  0
LINE
  8
0
 62
     0
 10
161.729227
 20
211.226702
 30
0.0
 11
164.229227
 21
213.726702
 31
0.0
  0
LINE
  8
0
 62
     0
 10
189.260928
 20
238.758402
 30
0.0
 11
199.260928
 21
248.758402
 31
0.0
  0
LINE
  8
0
 62
     0
 10
169.229227
 20
218.726702
 30
0.0
 11
171.729227
 21
221.226702
 31
0.0
  0
LINE
  8
0
 62
     0
 10
161.729227
 20
214.762236
 30
0.0
 11
164.229227
 21
217.262236
 31
0.0
  0
LINE
  8
0
 62
     0
 10
185.725394
 20
238.758402
 30
0.0
 11
195.725394
 21
248.758402
 31
0.0
  0
LINE
  8
0
 62
     0
 10
168.129425
 20
221.162434
 30
0.0
 11
171.729227
 21
224.762236
 31
0.0
  0
LINE
  8
0
 62
     0
 10
161.729227
 20
218.29777
 30
0.0
 11
171.93195
 21
228.500492
 31
0.0
  0
LINE
  8
0
 62
     0
 10
181.987137
 20
238.55568
 30
0.0
 11
192.18986
 21
248.758402
 31
0.0
  0
LINE
  8
0
 62
     0
 10
161.729227
 20
221.833304
 30
0.0
 11
188.654326
 21
248.758402
 31
0.0
  0
LINE
  8
0
 62
     0
 10
161.729227
 20
225.368838
 30
0.0
 11
185.118792
 21
248.758402
 31
0.0
  0
LINE
  8
0
 62
     0
 10
161.907137
 20
229.082281
 30
0.0
 11
181.405348
 21
248.580493
 31
0.0
  0
LINE
  8
0
 62
     0
 10
162.998785
 20
233.709463
 30
0.0
 11
176.778167
 21
247.488845
 31
0.0
  0
LINE
  8
0
 62
     0
 10
238.758402
 20
238.758402
 30
0.0
 11
248.758402
 21
248.758402
 31
0.0
  0
LINE
  8
0
 62
     0
 10
242.293936
 20
238.758402
 30
0.0
 11
252.293936
 21
248.758402
 31
0.0
  0
LINE
  8
0
 62
     0
 10
245.82947
 20
238.758402
 30
0.0
 11
255.82947
 21
248.758402
 31
0.0
  0
LINE
  8
0
 62
     0
 10
249.365004
 20
238.758402
 30
0.0
 11
259.365004
 21
248.758402
 31
0.0
  0
LINE
  8
0
 62
     0
 10
252.900538
 20
238.758402
 30
0.0
 11
262.900538
 21
248.758402
 31
0.0
  0
LINE
  8
0
 62
     0
 10
256.436072
 20
238.758402
 30
0.0
 11
266.436072
 21
248.758402
 31
0.0
  0
LINE
  8
0
 62
     0
 10
259.971606
 20
238.758402
 30
0.0
 11
269.971606
 21
248.758402
 31
0.0
  0
LINE
  8
0
 62
     0
 10
263.50714
 20
238.758402
 30
0.0
 11
273.50714
 21
248.758402
 31
0.0
  0
LINE
  8
0
 62
     0
 10
267.042674
 20
238.758402
 30
0.0
 11
277.042674
 21
248.758402
 31
0.0
  0
LINE
  8
0
 62
     0
 10
270.578208
 20
238.758402
 30
0.0
 11
280.578208
 21
248.758402
 31
0.0
  0
LINE
  8
0
 62
     0
 10
274.113741
 20
238.758402
 30
0.0
 11
284.113741
 21
248.758402
 31
0.0
  0
LINE
  8
0
 62
     0
 10
277.649275
 20
238.758402
 30
0.0
 11
284.229227
 21
245.338354
 31
0.0
  0
LINE
  8
0
 62
     0
 10
281.184809
 20
238.758402
 30
0.0
 11
284.229227
 21
241.802821
 31
0.0
  0
ENDBLK
  8
0
  0
ENDSEC
  0
SECTION
  2
ENTITIES
  0
LINE
  8
0
  6
CENTER
 10
128.117542
 20
-8.726305
 30
0.0
 11
128.117542
 21
16.665992
 31
0.0
  0
LINE
  8
0
  6
CENTER
 10
216.117542
 20
-8.726305
 30
0.0
 11
216.117542
 21
16.665992
 31
0.0
  0
LINE
  8
0
 10
123.117542
 20
-4.446705
 30
0.0
 11
133.117542
 21
-4.446705
 31
0.0
  0
LINE
  8
0
 10
145.617542
 20
37.553295
 30
0.0
 11
198.617542
 21
37.553295
 31
0.0
  0
LINE
  8
0
 10
145.617542
 20
27.553295
 30
0.0
 11
198.617542
 21
27.553295
 31
0.0
  0
LINE
  8
0
 10
123.117542
 20
-4.446705
 30
0.0
 11
123.117542
 21
15.053295
 31
0.0
  0
LINE
  8
0
 10
133.117542
 20
-4.446705
 30
0.0
 11
133.117542
 21
15.053295
 31
0.0
  0
LINE
  8
0
 10
211.117542
 20
-3.446705
 30
0.0
 11
211.117542
 21
15.053295
 31
0.0
  0
LINE
  8
0
 10
221.117542
 20
-3.446705
 30
0.0
 11
221.117542
 21
15.053295
 31
0.0
  0
ARC
  8
0
 10
145.617542
 20
15.053295
 30
0.0
 40
12.5
 50
90.0
 51
180.0
  0
ARC
  8
0
 10
198.617542
 20
15.053295
 30
0.0
 40
12.5
 50
0.0
 51
90.0
  0
ARC
  8
0
 10
145.617542
 20
15.053295
 30
0.0
 40
22.5
 50
90.0
 51
180.0
  0
ARC
  8
0
 10
198.617542
 20
15.053295
 30
0.0
 40
22.5
 50
0.0
 51
90.0
  0
LINE
  8
0
  6
CENTER
 10
172.117542
 20
-8.726305
 30
0.0
 11
172.117542
 21
40.346448
 31
0.0
  0
LINE
  8
0
 10
120.617542
 20
-5.446705
 30
0.0
 11
120.617542
 21
-3.946705
 31
0.0
  0
LINE
  8
0
 10
135.617542
 20
-5.446705
 30
0.0
 11
135.617542
 21
-3.946705
 31
0.0
  0
LINE
  8
0
 10
120.617542
 20
-5.446705
 30
0.0
 11
135.617542
 21
-5.446705
 31
0.0
  0
LINE
  8
0
 10
121.117542
 20
-3.446705
 30
0.0
 11
123.117542
 21
-3.446705
 31
0.0
  0
LINE
  8
0
 10
133.117542
 20
-3.446705
 30
0.0
 11
135.117542
 21
-3.446705
 31
0.0
  0
LINE
  8
0
 10
120.617542
 20
-3.946705
 30
0.0
 11
121.117542
 21
-3.446705
 31
0.0
  0
LINE
  8
0
 10
135.117542
 20
-3.446705
 30
0.0
 11
135.617542
 21
-3.946705
 31
0.0
  0
LINE
  8
0
 10
223.117542
 20
-3.446705
 30
0.0
 11
223.617542
 21
-3.946705
 31
0.0
  0
LINE
  8
0
 10
208.617542
 20
-3.946705
 30
0.0
 11
209.117542
 21
-3.446705
 31
0.0
  0
LINE
  8
0
 10
209.117542
 20
-3.446705
 30
0.0
 11
223.117542
 21
-3.446705
 31
0.0
  0
LINE
  8
0
 10
208.617542
 20
-5.446705
 30
0.0
 11
223.617542
 21
-5.446705
 31
0.0
  0
LINE
  8
0
 10
223.617542
 20
-5.446705
 30
0.0
 11
223.617542
 21
-3.946705
 31
0.0
  0
LINE
  8
0
 10
208.617542
 20
-5.446705
 30
0.0
 11
208.617542
 21
-3.946705
 31
0.0
  0
LINE
  8
0
 10
223.617542
 20
-3.946705
 30
0.0
 11
208.617542
 21
-3.946705
 31
0.0
  0
LINE
  8
0
 10
125.617542
 20
7.553295
 30
0.0
 11
130.617542
 21
7.553295
 31
0.0
  0
LINE
  8
0
 10
125.417542
 20
-5.446705
 30
0.0
 11
125.417542
 21
-4.446705
 31
0.0
  0
LINE
  8
0
 10
130.817542
 20
-5.446705
 30
0.0
 11
130.817542
 21
-4.446705
 31
0.0
  0
LINE
  8
0
 10
125.617542
 20
-4.446705
 30
0.0
 11
125.617542
 21
7.553295
 31
0.0
  0
LINE
  8
0
 10
130.617542
 20
-4.446705
 30
0.0
 11
130.617542
 21
7.553295
 31
0.0
  0
LINE
  8
0
 10
126.017542
 20
-4.446705
 30
0.0
 11
126.017542
 21
9.553295
 31
0.0
  0
LINE
  8
0
 10
130.217542
 20
-4.446705
 30
0.0
 11
130.217542
 21
9.553295
 31
0.0
  0
LINE
  8
0
 10
126.017542
 20
9.553295
 30
0.0
 11
130.217542
 21
9.553295
 31
0.0
  0
LINE
  8
0
 10
126.017542
 20
9.553295
 30
0.0
 11
128.117542
 21
10.765731
 31
0.0
  0
LINE
  8
0
 10
130.217542
 20
9.553295
 30
0.0
 11
128.117542
 21
10.765731
 31
0.0
  0
ARC
  8
0
 10
128.117542
 20
-35.259829
 30
0.0
 40
7.5
 50
41.810315
 51
318.189685
  0
ARC
  8
0
 10
128.117542
 20
-35.259829
 30
0.0
 40
7.0
 50
45.584691
 51
314.415309
  0
ARC
  8
0
 10
216.117542
 20
-35.259829
 30
0.0
 40
7.0
 50
225.584691
 51
134.415309
  0
ARC
  8
0
 10
216.117542
 20
-35.259829
 30
0.0
 40
7.5
 50
221.810315
 51
138.189685
  0
ARC
  8
0
 10
128.117542
 20
-35.259829
 30
0.0
 40
5.0
 50
90.0
 51
270.0
  0
ARC
  8
0
 10
216.117542
 20
-35.259829
 30
0.0
 40
5.0
 50
269.999997
 51
90.000003
  0
LINE
  8
0
 10
128.117542
 20
-30.259829
 30
0.0
 11
216.117542
 21
-30.259829
 31
0.0
  0
LINE
  8
0
 10
128.117542
 20
-40.259829
 30
0.0
 11
216.117542
 21
-40.259829
 31
0.0
  0
LINE
  8
0
 10
255.571893
 20
-3.946705
 30
0.0
 11
240.571893
 21
-3.946705
 31
0.0
  0
LINE
  8
0
 10
240.571893
 20
-5.446705
 30
0.0
 11
240.571893
 21
-3.946705
 31
0.0
  0
LINE
  8
0
 10
255.571893
 20
-5.446705
 30
0.0
 11
255.571893
 21
-3.946705
 31
0.0
  0
LINE
  8
0
 10
240.571893
 20
-5.446705
 30
0.0
 11
255.571893
 21
-5.446705
 31
0.0
  0
LINE
  8
0
 10
241.071893
 20
-3.446705
 30
0.0
 11
255.071893
 21
-3.446705
 31
0.0
  0
LINE
  8
0
 10
240.571893
 20
-3.946705
 30
0.0
 11
241.071893
 21
-3.446705
 31
0.0
  0
LINE
  8
0
 10
255.071893
 20
-3.446705
 30
0.0
 11
255.571893
 21
-3.946705
 31
0.0
  0
LINE
  8
0
 10
253.071893
 20
-3.446705
 30
0.0
 11
253.071893
 21
32.553295
 31
0.0
  0
LINE
  8
0
 10
243.071893
 20
-3.446705
 30
0.0
 11
243.071893
 21
32.553295
 31
0.0
  0
ARC
  8
0
 10
248.071893
 20
32.553295
 30
0.0
 40
5.0
 50
0.000004
 51
179.999996
  0
ARC
  8
0
 10
260.071893
 20
134.978402
 30
0.0
 40
5.0
 50
0.000004
 51
179.999996
  0
LINE
  8
0
 10
255.071893
 20
98.978402
 30
0.0
 11
255.071893
 21
134.978402
 31
0.0
  0
LINE
  8
0
 10
265.071893
 20
98.978402
 30
0.0
 11
265.071893
 21
134.978402
 31
0.0
  0
LINE
  8
0
 10
267.071893
 20
98.978402
 30
0.0
 11
267.571893
 21
98.478402
 31
0.0
  0
LINE
  8
0
 10
252.571893
 20
98.478402
 30
0.0
 11
253.071893
 21
98.978402
 31
0.0
  0
LINE
  8
0
 10
253.071893
 20
98.978402
 30
0.0
 11
267.071893
 21
98.978402
 31
0.0
  0
LINE
  8
0
 10
252.571893
 20
96.978402
 30
0.0
 11
267.571893
 21
96.978402
 31
0.0
  0
LINE
  8
0
 10
267.571893
 20
96.978402
 30
0.0
 11
267.571893
 21
98.478402
 31
0.0
  0
LINE
  8
0
 10
252.571893
 20
96.978402
 30
0.0
 11
252.571893
 21
98.478402
 31
0.0
  0
LINE
  8
0
 10
267.571893
 20
98.478402
 30
0.0
 11
252.571893
 21
98.478402
 31
0.0
  0
LINE
  8
0
 10
128.117542
 20
62.165278
 30
0.0
 11
228.117542
 21
62.165278
 31
0.0
  0
LINE
  8
0
 10
128.117542
 20
72.165278
 30
0.0
 11
228.117542
 21
72.165278
 31
0.0
  0
ARC
  8
0
 10
228.117542
 20
67.165278
 30
0.0
 40
5.0
 50
269.999997
 51
90.000003
  0
ARC
  8
0
 10
128.117542
 20
67.165278
 30
0.0
 40
5.0
 50
90.0
 51
270.0
  0
ARC
  8
0
 10
228.117542
 20
67.165278
 30
0.0
 40
7.5
 50
221.810315
 51
138.189685
  0
ARC
  8
0
 10
228.117542
 20
67.165278
 30
0.0
 40
7.0
 50
225.584691
 51
134.415309
  0
ARC
  8
0
 10
128.117542
 20
67.165278
 30
0.0
 40
7.0
 50
45.584691
 51
314.415309
  0
ARC
  8
0
 10
128.117542
 20
67.165278
 30
0.0
 40
7.5
 50
41.810315
 51
318.189685
  0
LINE
  8
0
 10
130.217542
 20
111.978402
 30
0.0
 11
128.117542
 21
113.190838
 31
0.0
  0
LINE
  8
0
 10
126.017542
 20
111.978402
 30
0.0
 11
128.117542
 21
113.190838
 31
0.0
  0
LINE
  8
0
 10
126.017542
 20
111.978402
 30
0.0
 11
130.217542
 21
111.978402
 31
0.0
  0
LINE
  8
0
 10
130.217542
 20
97.978402
 30
0.0
 11
130.217542
 21
111.978402
 31
0.0
  0
LINE
  8
0
 10
126.017542
 20
97.978402
 30
0.0
 11
126.017542
 21
111.978402
 31
0.0
  0
LINE
  8
0
 10
130.617542
 20
97.978402
 30
0.0
 11
130.617542
 21
109.978402
 31
0.0
  0
LINE
  8
0
 10
125.617542
 20
97.978402
 30
0.0
 11
125.617542
 21
109.978402
 31
0.0
  0
LINE
  8
0
 10
130.817542
 20
96.978402
 30
0.0
 11
130.817542
 21
97.978402
 31
0.0
  0
LINE
  8
0
 10
125.417542
 20
96.978402
 30
0.0
 11
125.417542
 21
97.978402
 31
0.0
  0
LINE
  8
0
 10
125.617542
 20
109.978402
 30
0.0
 11
130.617542
 21
109.978402
 31
0.0
  0
LINE
  8
0
 10
235.617542
 20
98.478402
 30
0.0
 11
220.617542
 21
98.478402
 31
0.0
  0
LINE
  8
0
 10
220.617542
 20
96.978402
 30
0.0
 11
220.617542
 21
98.478402
 31
0.0
  0
LINE
  8
0
 10
235.617542
 20
96.978402
 30
0.0
 11
235.617542
 21
98.478402
 31
0.0
  0
LINE
  8
0
 10
220.617542
 20
96.978402
 30
0.0
 11
235.617542
 21
96.978402
 31
0.0
  0
LINE
  8
0
 10
221.117542
 20
98.978402
 30
0.0
 11
235.117542
 21
98.978402
 31
0.0
  0
LINE
  8
0
 10
220.617542
 20
98.478402
 30
0.0
 11
221.117542
 21
98.978402
 31
0.0
  0
LINE
  8
0
 10
235.117542
 20
98.978402
 30
0.0
 11
235.617542
 21
98.478402
 31
0.0
  0
LINE
  8
0
 10
135.117542
 20
98.978402
 30
0.0
 11
135.617542
 21
98.478402
 31
0.0
  0
LINE
  8
0
 10
120.617542
 20
98.478402
 30
0.0
 11
121.117542
 21
98.978402
 31
0.0
  0
LINE
  8
0
 10
133.117542
 20
98.978402
 30
0.0
 11
135.117542
 21
98.978402
 31
0.0
  0
LINE
  8
0
 10
121.117542
 20
98.978402
 30
0.0
 11
123.117542
 21
98.978402
 31
0.0
  0
LINE
  8
0
 10
120.617542
 20
96.978402
 30
0.0
 11
135.617542
 21
96.978402
 31
0.0
  0
LINE
  8
0
 10
135.617542
 20
96.978402
 30
0.0
 11
135.617542
 21
98.478402
 31
0.0
  0
LINE
  8
0
 10
120.617542
 20
96.978402
 30
0.0
 11
120.617542
 21
98.478402
 31
0.0
  0
LINE
  8
0
  6
CENTER
 10
178.117542
 20
93.698802
 30
0.0
 11
178.117542
 21
142.771555
 31
0.0
  0
ARC
  8
0
 10
210.617542
 20
117.478402
 30
0.0
 40
22.5
 50
0.0
 51
90.0
  0
ARC
  8
0
 10
145.617542
 20
117.478402
 30
0.0
 40
22.5
 50
90.0
 51
180.0
  0
ARC
  8
0
 10
210.617542
 20
117.478402
 30
0.0
 40
12.5
 50
0.0
 51
90.0
  0
ARC
  8
0
 10
145.617542
 20
117.478402
 30
0.0
 40
12.5
 50
90.0
 51
180.0
  0
LINE
  8
0
 10
233.117542
 20
98.978402
 30
0.0
 11
233.117542
 21
117.478402
 31
0.0
  0
LINE
  8
0
 10
223.117542
 20
98.978402
 30
0.0
 11
223.117542
 21
117.478402
 31
0.0
  0
LINE
  8
0
 10
133.117542
 20
97.978402
 30
0.0
 11
133.117542
 21
117.478402
 31
0.0
  0
LINE
  8
0
 10
123.117542
 20
97.978402
 30
0.0
 11
123.117542
 21
117.478402
 31
0.0
  0
LINE
  8
0
 10
145.617542
 20
129.978402
 30
0.0
 11
210.617542
 21
129.978402
 31
0.0
  0
LINE
  8
0
 10
145.617542
 20
139.978402
 30
0.0
 11
210.617542
 21
139.978402
 31
0.0
  0
LINE
  8
0
 10
123.117542
 20
97.978402
 30
0.0
 11
133.117542
 21
97.978402
 31
0.0
  0
LINE
  8
0
  6
CENTER
 10
228.117542
 20
93.698802
 30
0.0
 11
228.117542
 21
119.091099
 31
0.0
  0
LINE
  8
0
  6
CENTER
 10
128.117542
 20
93.698802
 30
0.0
 11
128.117542
 21
119.091099
 31
0.0
  0
LINE
  8
0
  6
CENTER
 10
128.117542
 20
202.478802
 30
0.0
 11
128.117542
 21
227.871099
 31
0.0
  0
LINE
  8
0
  6
CENTER
 10
248.117542
 20
202.478802
 30
0.0
 11
248.117542
 21
227.871099
 31
0.0
  0
LINE
  8
0
 10
123.117542
 20
206.758402
 30
0.0
 11
133.117542
 21
206.758402
 31
0.0
  0
LINE
  8
0
 10
145.617542
 20
248.758402
 30
0.0
 11
230.617542
 21
248.758402
 31
0.0
  0
LINE
  8
0
 10
145.617542
 20
238.758402
 30
0.0
 11
230.617542
 21
238.758402
 31
0.0
  0
LINE
  8
0
 10
123.117542
 20
206.758402
 30
0.0
 11
123.117542
 21
226.258402
 31
0.0
  0
LINE
  8
0
 10
133.117542
 20
206.758402
 30
0.0
 11
133.117542
 21
226.258402
 31
0.0
  0
LINE
  8
0
 10
243.117542
 20
207.758402
 30
0.0
 11
243.117542
 21
226.258402
 31
0.0
  0
LINE
  8
0
 10
253.117542
 20
207.758402
 30
0.0
 11
253.117542
 21
226.258402
 31
0.0
  0
ARC
  8
0
 10
145.617542
 20
226.258402
 30
0.0
 40
12.5
 50
90.0
 51
180.0
  0
ARC
  8
0
 10
230.617542
 20
226.258402
 30
0.0
 40
12.5
 50
0.0
 51
90.0
  0
ARC
  8
0
 10
145.617542
 20
226.258402
 30
0.0
 40
22.5
 50
90.0
 51
180.0
  0
ARC
  8
0
 10
230.617542
 20
226.258402
 30
0.0
 40
22.5
 50
0.0
 51
90.0
  0
LINE
  8
0
  6
CENTER
 10
188.117542
 20
202.478802
 30
0.0
 11
188.117542
 21
251.551555
 31
0.0
  0
LINE
  8
0
 10
120.617542
 20
205.758402
 30
0.0
 11
120.617542
 21
207.258402
 31
0.0
  0
LINE
  8
0
 10
135.617542
 20
205.758402
 30
0.0
 11
135.617542
 21
207.258402
 31
0.0
  0
LINE
  8
0
 10
120.617542
 20
205.758402
 30
0.0
 11
135.617542
 21
205.758402
 31
0.0
  0
LINE
  8
0
 10
121.117542
 20
207.758402
 30
0.0
 11
123.117542
 21
207.758402
 31
0.0
  0
LINE
  8
0
 10
133.117542
 20
207.758402
 30
0.0
 11
135.117542
 21
207.758402
 31
0.0
  0
LINE
  8
0
 10
120.617542
 20
207.258402
 30
0.0
 11
121.117542
 21
207.758402
 31
0.0
  0
LINE
  8
0
 10
135.117542
 20
207.758402
 30
0.0
 11
135.617542
 21
207.258402
 31
0.0
  0
LINE
  8
0
 10
255.117542
 20
207.758402
 30
0.0
 11
255.617542
 21
207.258402
 31
0.0
  0
LINE
  8
0
 10
240.617542
 20
207.258402
 30
0.0
 11
241.117542
 21
207.758402
 31
0.0
  0
LINE
  8
0
 10
241.117542
 20
207.758402
 30
0.0
 11
255.117542
 21
207.758402
 31
0.0
  0
LINE
  8
0
 10
240.617542
 20
205.758402
 30
0.0
 11
255.617542
 21
205.758402
 31
0.0
  0
LINE
  8
0
 10
255.617542
 20
205.758402
 30
0.0
 11
255.617542
 21
207.258402
 31
0.0
  0
LINE
  8
0
 10
240.617542
 20
205.758402
 30
0.0
 11
240.617542
 21
207.258402
 31
0.0
  0
LINE
  8
0
 10
255.617542
 20
207.258402
 30
0.0
 11
240.617542
 21
207.258402
 31
0.0
  0
LINE
  8
0
 10
125.617542
 20
218.758402
 30
0.0
 11
130.617542
 21
218.758402
 31
0.0
  0
LINE
  8
0
 10
125.417542
 20
205.758402
 30
0.0
 11
125.417542
 21
206.758402
 31
0.0
  0
LINE
  8
0
 10
130.817542
 20
205.758402
 30
0.0
 11
130.817542
 21
206.758402
 31
0.0
  0
LINE
  8
0
 10
125.617542
 20
206.758402
 30
0.0
 11
125.617542
 21
218.758402
 31
0.0
  0
LINE
  8
0
 10
130.617542
 20
206.758402
 30
0.0
 11
130.617542
 21
218.758402
 31
0.0
  0
LINE
  8
0
 10
126.017542
 20
206.758402
 30
0.0
 11
126.017542
 21
220.758402
 31
0.0
  0
LINE
  8
0
 10
130.217542
 20
206.758402
 30
0.0
 11
130.217542
 21
220.758402
 31
0.0
  0
LINE
  8
0
 10
126.017542
 20
220.758402
 30
0.0
 11
130.217542
 21
220.758402
 31
0.0
  0
LINE
  8
0
 10
126.017542
 20
220.758402
 30
0.0
 11
128.117542
 21
221.970838
 31
0.0
  0
LINE
  8
0
 10
130.217542
 20
220.758402
 30
0.0
 11
128.117542
 21
221.970838
 31
0.0
  0
ARC
  8
0
 10
128.117542
 20
175.945278
 30
0.0
 40
7.5
 50
41.810315
 51
318.189685
  0
ARC
  8
0
 10
128.117542
 20
175.945278
 30
0.0
 40
7.0
 50
45.584691
 51
314.415309
  0
ARC
  8
0
 10
248.117542
 20
175.945278
 30
0.0
 40
7.0
 50
225.584691
 51
134.415309
  0
ARC
  8
0
 10
248.117542
 20
175.945278
 30
0.0
 40
7.5
 50
221.810315
 51
138.189685
  0
ARC
  8
0
 10
128.117542
 20
175.945278
 30
0.0
 40
5.0
 50
90.0
 51
270.0
  0
ARC
  8
0
 10
248.117542
 20
175.945278
 30
0.0
 40
5.0
 50
269.999997
 51
90.000003
  0
LINE
  8
0
 10
128.117542
 20
180.945278
 30
0.0
 11
248.117542
 21
180.945278
 31
0.0
  0
LINE
  8
0
 10
128.120542
 20
170.945278
 30
0.0
 11
128.124542
 21
170.945278
 31
0.0
  0
LINE
  8
0
 10
280.467893
 20
207.258402
 30
0.0
 11
265.467893
 21
207.258402
 31
0.0
  0
LINE
  8
0
 10
265.467893
 20
205.758402
 30
0.0
 11
265.467893
 21
207.258402
 31
0.0
  0
LINE
  8
0
 10
280.467893
 20
205.758402
 30
0.0
 11
280.467893
 21
207.258402
 31
0.0
  0
LINE
  8
0
 10
265.467893
 20
205.758402
 30
0.0
 11
280.467893
 21
205.758402
 31
0.0
  0
LINE
  8
0
 10
265.967893
 20
207.758402
 30
0.0
 11
279.967893
 21
207.758402
 31
0.0
  0
LINE
  8
0
 10
265.467893
 20
207.258402
 30
0.0
 11
265.967893
 21
207.758402
 31
0.0
  0
LINE
  8
0
 10
279.967893
 20
207.758402
 30
0.0
 11
280.467893
 21
207.258402
 31
0.0
  0
LINE
  8
0
 10
277.967893
 20
207.758402
 30
0.0
 11
277.967893
 21
243.758402
 31
0.0
  0
LINE
  8
0
 10
267.967893
 20
207.758402
 30
0.0
 11
267.967893
 21
243.758402
 31
0.0
  0
ARC
  8
0
 10
272.967893
 20
243.758402
 30
0.0
 40
5.0
 50
0.000004
 51
179.999996
  0
LINE
  8
0
  6
CENTER
 10
300.981542
 20
-8.865198
 30
0.0
 11
300.981542
 21
16.527099
 31
0.0
  0
LINE
  8
0
  6
CENTER
 10
480.981542
 20
-8.865198
 30
0.0
 11
480.981542
 21
16.527099
 31
0.0
  0
LINE
  8
0
 10
295.981542
 20
-4.585598
 30
0.0
 11
305.981542
 21
-4.585598
 31
0.0
  0
LINE
  8
0
 10
318.481542
 20
37.414402
 30
0.0
 11
463.481542
 21
37.414402
 31
0.0
  0
LINE
  8
0
 10
318.481542
 20
27.414402
 30
0.0
 11
463.481542
 21
27.414402
 31
0.0
  0
LINE
  8
0
 10
295.981542
 20
-4.585598
 30
0.0
 11
295.981542
 21
14.914402
 31
0.0
  0
LINE
  8
0
 10
305.981542
 20
-4.585598
 30
0.0
 11
305.981542
 21
14.914402
 31
0.0
  0
LINE
  8
0
 10
475.981542
 20
-3.585598
 30
0.0
 11
475.981542
 21
14.914402
 31
0.0
  0
LINE
  8
0
 10
485.981542
 20
-3.585598
 30
0.0
 11
485.981542
 21
14.914402
 31
0.0
  0
ARC
  8
0
 10
318.481542
 20
14.914402
 30
0.0
 40
12.5
 50
90.0
 51
180.0
  0
ARC
  8
0
 10
463.481542
 20
14.914402
 30
0.0
 40
12.5
 50
0.0
 51
90.0
  0
ARC
  8
0
 10
318.481542
 20
14.914402
 30
0.0
 40
22.5
 50
90.0
 51
180.0
  0
ARC
  8
0
 10
463.481542
 20
14.914402
 30
0.0
 40
22.5
 50
0.0
 51
90.0
  0
LINE
  8
0
  6
CENTER
 10
390.981542
 20
-8.865198
 30
0.0
 11
390.981542
 21
40.207555
 31
0.0
  0
LINE
  8
0
 10
293.481542
 20
-5.585598
 30
0.0
 11
293.481542
 21
-4.085598
 31
0.0
  0
LINE
  8
0
 10
308.481542
 20
-5.585598
 30
0.0
 11
308.481542
 21
-4.085598
 31
0.0
  0
LINE
  8
0
 10
293.481542
 20
-5.585598
 30
0.0
 11
308.481542
 21
-5.585598
 31
0.0
  0
LINE
  8
0
 10
293.981542
 20
-3.585598
 30
0.0
 11
295.981542
 21
-3.585598
 31
0.0
  0
LINE
  8
0
 10
305.981542
 20
-3.585598
 30
0.0
 11
307.981542
 21
-3.585598
 31
0.0
  0
LINE
  8
0
 10
293.481542
 20
-4.085598
 30
0.0
 11
293.981542
 21
-3.585598
 31
0.0
  0
LINE
  8
0
 10
307.981542
 20
-3.585598
 30
0.0
 11
308.481542
 21
-4.085598
 31
0.0
  0
LINE
  8
0
 10
487.981542
 20
-3.585598
 30
0.0
 11
488.481542
 21
-4.085598
 31
0.0
  0
LINE
  8
0
 10
473.481542
 20
-4.085598
 30
0.0
 11
473.981542
 21
-3.585598
 31
0.0
  0
LINE
  8
0
 10
473.981542
 20
-3.585598
 30
0.0
 11
487.981542
 21
-3.585598
 31
0.0
  0
LINE
  8
0
 10
473.481542
 20
-5.585598
 30
0.0
 11
488.481542
 21
-5.585598
 31
0.0
  0
LINE
  8
0
 10
488.481542
 20
-5.585598
 30
0.0
 11
488.481542
 21
-4.085598
 31
0.0
  0
LINE
  8
0
 10
473.481542
 20
-5.585598
 30
0.0
 11
473.481542
 21
-4.085598
 31
0.0
  0
LINE
  8
0
 10
488.481542
 20
-4.085598
 30
0.0
 11
473.481542
 21
-4.085598
 31
0.0
  0
LINE
  8
0
 10
298.481542
 20
7.414402
 30
0.0
 11
303.481542
 21
7.414402
 31
0.0
  0
LINE
  8
0
 10
298.281542
 20
-5.585598
 30
0.0
 11
298.281542
 21
-4.585598
 31
0.0
  0
LINE
  8
0
 10
303.681542
 20
-5.585598
 30
0.0
 11
303.681542
 21
-4.585598
 31
0.0
  0
LINE
  8
0
 10
298.481542
 20
-4.585598
 30
0.0
 11
298.481542
 21
7.414402
 31
0.0
  0
LINE
  8
0
 10
303.481542
 20
-4.585598
 30
0.0
 11
303.481542
 21
7.414402
 31
0.0
  0
LINE
  8
0
 10
298.881542
 20
-4.585598
 30
0.0
 11
298.881542
 21
9.414402
 31
0.0
  0
LINE
  8
0
 10
303.081542
 20
-4.585598
 30
0.0
 11
303.081542
 21
9.414402
 31
0.0
  0
LINE
  8
0
 10
298.881542
 20
9.414402
 30
0.0
 11
303.081542
 21
9.414402
 31
0.0
  0
LINE
  8
0
 10
298.881542
 20
9.414402
 30
0.0
 11
300.981542
 21
10.626838
 31
0.0
  0
LINE
  8
0
 10
303.081542
 20
9.414402
 30
0.0
 11
300.981542
 21
10.626838
 31
0.0
  0
ARC
  8
0
 10
300.981542
 20
-35.398722
 30
0.0
 40
7.5
 50
41.810315
 51
318.189685
  0
ARC
  8
0
 10
300.981542
 20
-35.398722
 30
0.0
 40
7.0
 50
45.584691
 51
314.415309
  0
ARC
  8
0
 10
480.981542
 20
-35.398722
 30
0.0
 40
7.0
 50
225.584691
 51
134.415309
  0
ARC
  8
0
 10
480.981542
 20
-35.398722
 30
0.0
 40
7.5
 50
221.810315
 51
138.189685
  0
ARC
  8
0
 10
300.981542
 20
-35.398722
 30
0.0
 40
5.0
 50
90.0
 51
270.0
  0
ARC
  8
0
 10
480.981542
 20
-35.398722
 30
0.0
 40
5.0
 50
269.999997
 51
90.000003
  0
LINE
  8
0
 10
300.981542
 20
-30.398722
 30
0.0
 11
480.981542
 21
-30.398722
 31
0.0
  0
LINE
  8
0
 10
300.981542
 20
-40.398722
 30
0.0
 11
480.981542
 21
-40.398722
 31
0.0
  0
LINE
  8
0
 10
520.435893
 20
-4.085598
 30
0.0
 11
505.435893
 21
-4.085598
 31
0.0
  0
LINE
  8
0
 10
505.435893
 20
-5.585598
 30
0.0
 11
505.435893
 21
-4.085598
 31
0.0
  0
LINE
  8
0
 10
520.435893
 20
-5.585598
 30
0.0
 11
520.435893
 21
-4.085598
 31
0.0
  0
LINE
  8
0
 10
505.435893
 20
-5.585598
 30
0.0
 11
520.435893
 21
-5.585598
 31
0.0
  0
LINE
  8
0
 10
505.935893
 20
-3.585598
 30
0.0
 11
519.935893
 21
-3.585598
 31
0.0
  0
LINE
  8
0
 10
505.435893
 20
-4.085598
 30
0.0
 11
505.935893
 21
-3.585598
 31
0.0
  0
LINE
  8
0
 10
519.935893
 20
-3.585598
 30
0.0
 11
520.435893
 21
-4.085598
 31
0.0
  0
LINE
  8
0
 10
517.935893
 20
-3.585598
 30
0.0
 11
517.935893
 21
32.414402
 31
0.0
  0
LINE
  8
0
 10
507.935893
 20
-3.585598
 30
0.0
 11
507.935893
 21
32.414402
 31
0.0
  0
ARC
  8
0
 10
512.935893
 20
32.414402
 30
0.0
 40
5.0
 50
0.000004
 51
179.999996
  0
LINE
  8
0
  6
CENTER
 10
300.981542
 20
93.698802
 30
0.0
 11
300.981542
 21
119.091099
 31
0.0
  0
LINE
  8
0
  6
CENTER
 10
500.981542
 20
93.698802
 30
0.0
 11
500.981542
 21
119.091099
 31
0.0
  0
LINE
  8
0
 10
295.981542
 20
97.978402
 30
0.0
 11
305.981542
 21
97.978402
 31
0.0
  0
LINE
  8
0
 10
318.481542
 20
139.978402
 30
0.0
 11
483.481542
 21
139.978402
 31
0.0
  0
LINE
  8
0
 10
318.481542
 20
129.978402
 30
0.0
 11
483.481542
 21
129.978402
 31
0.0
  0
LINE
  8
0
 10
295.981542
 20
97.978402
 30
0.0
 11
295.981542
 21
117.478402
 31
0.0
  0
LINE
  8
0
 10
305.981542
 20
97.978402
 30
0.0
 11
305.981542
 21
117.478402
 31
0.0
  0
LINE
  8
0
 10
495.981542
 20
98.978402
 30
0.0
 11
495.981542
 21
117.478402
 31
0.0
  0
LINE
  8
0
 10
505.981542
 20
98.978402
 30
0.0
 11
505.981542
 21
117.478402
 31
0.0
  0
ARC
  8
0
 10
318.481542
 20
117.478402
 30
0.0
 40
12.5
 50
90.0
 51
180.0
  0
ARC
  8
0
 10
483.481542
 20
117.478402
 30
0.0
 40
12.5
 50
0.0
 51
90.0
  0
ARC
  8
0
 10
318.481542
 20
117.478402
 30
0.0
 40
22.5
 50
90.0
 51
180.0
  0
ARC
  8
0
 10
483.481542
 20
117.478402
 30
0.0
 40
22.5
 50
0.0
 51
90.0
  0
LINE
  8
0
  6
CENTER
 10
400.981542
 20
93.698802
 30
0.0
 11
400.981542
 21
142.771555
 31
0.0
  0
LINE
  8
0
 10
293.481542
 20
96.978402
 30
0.0
 11
293.481542
 21
98.478402
 31
0.0
  0
LINE
  8
0
 10
308.481542
 20
96.978402
 30
0.0
 11
308.481542
 21
98.478402
 31
0.0
  0
LINE
  8
0
 10
293.481542
 20
96.978402
 30
0.0
 11
308.481542
 21
96.978402
 31
0.0
  0
LINE
  8
0
 10
293.981542
 20
98.978402
 30
0.0
 11
295.981542
 21
98.978402
 31
0.0
  0
LINE
  8
0
 10
305.981542
 20
98.978402
 30
0.0
 11
307.981542
 21
98.978402
 31
0.0
  0
LINE
  8
0
 10
293.481542
 20
98.478402
 30
0.0
 11
293.981542
 21
98.978402
 31
0.0
  0
LINE
  8
0
 10
307.981542
 20
98.978402
 30
0.0
 11
308.481542
 21
98.478402
 31
0.0
  0
LINE
  8
0
 10
507.981542
 20
98.978402
 30
0.0
 11
508.481542
 21
98.478402
 31
0.0
  0
LINE
  8
0
 10
493.481542
 20
98.478402
 30
0.0
 11
493.981542
 21
98.978402
 31
0.0
  0
LINE
  8
0
 10
493.981542
 20
98.978402
 30
0.0
 11
507.981542
 21
98.978402
 31
0.0
  0
LINE
  8
0
 10
493.481542
 20
96.978402
 30
0.0
 11
508.481542
 21
96.978402
 31
0.0
  0
LINE
  8
0
 10
508.481542
 20
96.978402
 30
0.0
 11
508.481542
 21
98.478402
 31
0.0
  0
LINE
  8
0
 10
493.481542
 20
96.978402
 30
0.0
 11
493.481542
 21
98.478402
 31
0.0
  0
LINE
  8
0
 10
508.481542
 20
98.478402
 30
0.0
 11
493.481542
 21
98.478402
 31
0.0
  0
LINE
  8
0
 10
298.481542
 20
109.978402
 30
0.0
 11
303.481542
 21
109.978402
 31
0.0
  0
LINE
  8
0
 10
298.281542
 20
96.978402
 30
0.0
 11
298.281542
 21
97.978402
 31
0.0
  0
LINE
  8
0
 10
303.681542
 20
96.978402
 30
0.0
 11
303.681542
 21
97.978402
 31
0.0
  0
LINE
  8
0
 10
298.481542
 20
97.978402
 30
0.0
 11
298.481542
 21
109.978402
 31
0.0
  0
LINE
  8
0
 10
303.481542
 20
97.978402
 30
0.0
 11
303.481542
 21
109.978402
 31
0.0
  0
LINE
  8
0
 10
298.881542
 20
97.978402
 30
0.0
 11
298.881542
 21
111.978402
 31
0.0
  0
LINE
  8
0
 10
303.081542
 20
97.978402
 30
0.0
 11
303.081542
 21
111.978402
 31
0.0
  0
LINE
  8
0
 10
298.881542
 20
111.978402
 30
0.0
 11
303.081542
 21
111.978402
 31
0.0
  0
LINE
  8
0
 10
298.881542
 20
111.978402
 30
0.0
 11
300.981542
 21
113.190838
 31
0.0
  0
LINE
  8
0
 10
303.081542
 20
111.978402
 30
0.0
 11
300.981542
 21
113.190838
 31
0.0
  0
ARC
  8
0
 10
303.053542
 20
67.165278
 30
0.0
 40
7.5
 50
41.810315
 51
318.189685
  0
ARC
  8
0
 10
303.053542
 20
67.165278
 30
0.0
 40
7.0
 50
45.584691
 51
314.415309
  0
ARC
  8
0
 10
503.053542
 20
67.165278
 30
0.0
 40
7.0
 50
225.584691
 51
134.415309
  0
ARC
  8
0
 10
503.053542
 20
67.165278
 30
0.0
 40
7.5
 50
221.810315
 51
138.189685
  0
ARC
  8
0
 10
303.053542
 20
67.165278
 30
0.0
 40
5.0
 50
90.0
 51
270.0
  0
ARC
  8
0
 10
503.053542
 20
67.165278
 30
0.0
 40
5.0
 50
269.999997
 51
90.000003
  0
LINE
  8
0
 10
303.053542
 20
72.165278
 30
0.0
 11
503.053542
 21
72.165278
 31
0.0
  0
LINE
  8
0
 10
303.053542
 20
62.165278
 30
0.0
 11
503.053542
 21
62.165278
 31
0.0
  0
LINE
  8
0
 10
540.435893
 20
98.478402
 30
0.0
 11
525.435893
 21
98.478402
 31
0.0
  0
LINE
  8
0
 10
525.435893
 20
96.978402
 30
0.0
 11
525.435893
 21
98.478402
 31
0.0
  0
LINE
  8
0
 10
540.435893
 20
96.978402
 30
0.0
 11
540.435893
 21
98.478402
 31
0.0
  0
LINE
  8
0
 10
525.435893
 20
96.978402
 30
0.0
 11
540.435893
 21
96.978402
 31
0.0
  0
LINE
  8
0
 10
525.935893
 20
98.978402
 30
0.0
 11
539.935893
 21
98.978402
 31
0.0
  0
LINE
  8
0
 10
525.435893
 20
98.478402
 30
0.0
 11
525.935893
 21
98.978402
 31
0.0
  0
LINE
  8
0
 10
539.935893
 20
98.978402
 30
0.0
 11
540.435893
 21
98.478402
 31
0.0
  0
LINE
  8
0
 10
537.935893
 20
98.978402
 30
0.0
 11
537.935893
 21
134.978402
 31
0.0
  0
LINE
  8
0
 10
527.935893
 20
98.978402
 30
0.0
 11
527.935893
 21
134.978402
 31
0.0
  0
ARC
  8
0
 10
532.935893
 20
134.978402
 30
0.0
 40
5.0
 50
0.000004
 51
179.999996
  0
LINE
  8
0
  6
CENTER
 10
300.981542
 20
202.478802
 30
0.0
 11
300.981542
 21
227.871099
 31
0.0
  0
LINE
  8
0
  6
CENTER
 10
535.981542
 20
202.478802
 30
0.0
 11
535.981542
 21
227.871099
 31
0.0
  0
LINE
  8
0
 10
295.981542
 20
206.758402
 30
0.0
 11
305.981542
 21
206.758402
 31
0.0
  0
LINE
  8
0
 10
318.481542
 20
248.758402
 30
0.0
 11
518.481542
 21
248.758402
 31
0.0
  0
LINE
  8
0
 10
318.481542
 20
238.758402
 30
0.0
 11
518.481542
 21
238.758402
 31
0.0
  0
LINE
  8
0
 10
295.981542
 20
206.758402
 30
0.0
 11
295.981542
 21
226.258402
 31
0.0
  0
LINE
  8
0
 10
305.981542
 20
206.758402
 30
0.0
 11
305.981542
 21
226.258402
 31
0.0
  0
LINE
  8
0
 10
530.981542
 20
207.758402
 30
0.0
 11
530.981542
 21
226.258402
 31
0.0
  0
LINE
  8
0
 10
540.981542
 20
207.758402
 30
0.0
 11
540.981542
 21
226.258402
 31
0.0
  0
ARC
  8
0
 10
318.481542
 20
226.258402
 30
0.0
 40
12.5
 50
90.0
 51
180.0
  0
ARC
  8
0
 10
518.481542
 20
226.258402
 30
0.0
 40
12.5
 50
0.0
 51
90.0
  0
ARC
  8
0
 10
318.481542
 20
226.258402
 30
0.0
 40
22.5
 50
90.0
 51
180.0
  0
ARC
  8
0
 10
518.481542
 20
226.258402
 30
0.0
 40
22.5
 50
0.0
 51
90.0
  0
LINE
  8
0
  6
CENTER
 10
418.481542
 20
202.478802
 30
0.0
 11
418.481542
 21
251.551555
 31
0.0
  0
LINE
  8
0
 10
293.481542
 20
205.758402
 30
0.0
 11
293.481542
 21
207.258402
 31
0.0
  0
LINE
  8
0
 10
308.481542
 20
205.758402
 30
0.0
 11
308.481542
 21
207.258402
 31
0.0
  0
LINE
  8
0
 10
293.481542
 20
205.758402
 30
0.0
 11
308.481542
 21
205.758402
 31
0.0
  0
LINE
  8
0
 10
293.981542
 20
207.758402
 30
0.0
 11
295.981542
 21
207.758402
 31
0.0
  0
LINE
  8
0
 10
305.981542
 20
207.758402
 30
0.0
 11
307.981542
 21
207.758402
 31
0.0
  0
LINE
  8
0
 10
293.481542
 20
207.258402
 30
0.0
 11
293.981542
 21
207.758402
 31
0.0
  0
LINE
  8
0
 10
307.981542
 20
207.758402
 30
0.0
 11
308.481542
 21
207.258402
 31
0.0
  0
LINE
  8
0
 10
542.981542
 20
207.758402
 30
0.0
 11
543.481542
 21
207.258402
 31
0.0
  0
LINE
  8
0
 10
528.481542
 20
207.258402
 30
0.0
 11
528.981542
 21
207.758402
 31
0.0
  0
LINE
  8
0
 10
528.981542
 20
207.758402
 30
0.0
 11
542.981542
 21
207.758402
 31
0.0
  0
LINE
  8
0
 10
528.481542
 20
205.758402
 30
0.0
 11
543.481542
 21
205.758402
 31
0.0
  0
LINE
  8
0
 10
543.481542
 20
205.758402
 30
0.0
 11
543.481542
 21
207.258402
 31
0.0
  0
LINE
  8
0
 10
528.481542
 20
205.758402
 30
0.0
 11
528.481542
 21
207.258402
 31
0.0
  0
LINE
  8
0
 10
543.481542
 20
207.258402
 30
0.0
 11
528.481542
 21
207.258402
 31
0.0
  0
LINE
  8
0
 10
298.481542
 20
218.758402
 30
0.0
 11
303.481542
 21
218.758402
 31
0.0
  0
LINE
  8
0
 10
298.281542
 20
205.758402
 30
0.0
 11
298.281542
 21
206.758402
 31
0.0
  0
LINE
  8
0
 10
303.681542
 20
205.758402
 30
0.0
 11
303.681542
 21
206.758402
 31
0.0
  0
LINE
  8
0
 10
298.481542
 20
206.758402
 30
0.0
 11
298.481542
 21
218.758402
 31
0.0
  0
LINE
  8
0
 10
303.481542
 20
206.758402
 30
0.0
 11
303.481542
 21
218.758402
 31
0.0
  0
LINE
  8
0
 10
298.881542
 20
206.758402
 30
0.0
 11
298.881542
 21
220.758402
 31
0.0
  0
LINE
  8
0
 10
303.081542
 20
206.758402
 30
0.0
 11
303.081542
 21
220.758402
 31
0.0
  0
LINE
  8
0
 10
298.881542
 20
220.758402
 30
0.0
 11
303.081542
 21
220.758402
 31
0.0
  0
LINE
  8
0
 10
298.881542
 20
220.758402
 30
0.0
 11
300.981542
 21
221.970838
 31
0.0
  0
LINE
  8
0
 10
303.081542
 20
220.758402
 30
0.0
 11
300.981542
 21
221.970838
 31
0.0
  0
ARC
  8
0
 10
300.981542
 20
175.945278
 30
0.0
 40
7.5
 50
41.810315
 51
318.189685
  0
ARC
  8
0
 10
300.981542
 20
175.945278
 30
0.0
 40
7.0
 50
45.584691
 51
314.415309
  0
ARC
  8
0
 10
535.981542
 20
175.945278
 30
0.0
 40
7.0
 50
225.584691
 51
134.415309
  0
ARC
  8
0
 10
535.981542
 20
175.945278
 30
0.0
 40
7.5
 50
221.810315
 51
138.189685
  0
ARC
  8
0
 10
300.981542
 20
175.945278
 30
0.0
 40
5.0
 50
90.0
 51
270.0
  0
ARC
  8
0
 10
535.981542
 20
175.945278
 30
0.0
 40
5.0
 50
269.999997
 51
90.000003
  0
LINE
  8
0
 10
300.981542
 20
180.945278
 30
0.0
 11
535.981542
 21
180.945278
 31
0.0
  0
LINE
  8
0
 10
300.981542
 20
170.945278
 30
0.0
 11
535.981542
 21
170.945278
 31
0.0
  0
LINE
  8
0
 10
569.219893
 20
207.258402
 30
0.0
 11
554.219893
 21
207.258402
 31
0.0
  0
LINE
  8
0
 10
554.219893
 20
205.758402
 30
0.0
 11
554.219893
 21
207.258402
 31
0.0
  0
LINE
  8
0
 10
569.219893
 20
205.758402
 30
0.0
 11
569.219893
 21
207.258402
 31
0.0
  0
LINE
  8
0
 10
554.219893
 20
205.758402
 30
0.0
 11
569.219893
 21
205.758402
 31
0.0
  0
LINE
  8
0
 10
554.719893
 20
207.758402
 30
0.0
 11
568.719893
 21
207.758402
 31
0.0
  0
LINE
  8
0
 10
554.219893
 20
207.258402
 30
0.0
 11
554.719893
 21
207.758402
 31
0.0
  0
LINE
  8
0
 10
568.719893
 20
207.758402
 30
0.0
 11
569.219893
 21
207.258402
 31
0.0
  0
LINE
  8
0
 10
566.719893
 20
207.758402
 30
0.0
 11
566.719893
 21
243.758402
 31
0.0
  0
LINE
  8
0
 10
556.719893
 20
207.758402
 30
0.0
 11
556.719893
 21
243.758402
 31
0.0
  0
ARC
  8
0
 10
561.719893
 20
243.758402
 30
0.0
 40
5.0
 50
0.000004
 51
179.999996
  0
INSERT
  8
0
  2
*X0
 10
289.929488
 20
0.0
 30
0.0
  0
INSERT
  8
0
  2
*X1
 10
289.476374
 20
5.02217
 30
0.0
  0
INSERT
  8
0
  2
*X1
 10
289.476374
 20
107.447277
 30
0.0
  0
INSERT
  8
0
  2
*X1
 10
289.476374
 20
216.227277
 30
0.0
  0
INSERT
  8
0
  2
*X1
 10
462.340374
 20
4.883277
 30
0.0
  0
INSERT
  8
0
  2
*X1
 10
462.340374
 20
107.447277
 30
0.0
  0
INSERT
  8
0
  2
*X1
 10
462.340374
 20
216.227277
 30
0.0
  0
INSERT
  8
0
  2
*X2
 10
283.699414
 20
0.0
 30
0.0
  0
INSERT
  8
0
  2
*X3
 10
303.287638
 20
0.0
 30
0.0
  0
INSERT
  8
0
  2
*X4
 10
100.94974
 20
0.0
 30
0.0
  0
INSERT
  8
0
  2
*X5
 10
110.068448
 20
0.0
 30
0.0
  0
INSERT
  8
0
  2
*X6
 10
134.252315
 20
0.0
 30
0.0
  0
LINE
  8
0
 10
128.117542
 20
170.945278
 30
0.0
 11
248.117542
 21
170.945278
 31
0.0
  0
LINE
  8
0
 10
128.138542
 20
170.945278
 30
0.0
 11
128.147242
 21
170.945278
 31
0.0
  0
LINE
  8
0
 10
128.127542
 20
170.945278
 30
0.0
 11
128.135542
 21
170.945278
 31
0.0
  0
ENDSEC
  0
EOF
