  0
SECTION
  2
HEADER
  9
$ACADVER
  1
AC1009
  9
$INSBASE
 10
0.0
 20
0.0
 30
0.0
  9
$EXTMIN
 10
144.9197399161288
 20
126.11261070160261
 30
-0.0000000000112498
  9
$EXTMAX
 10
296.26098716196242
 20
206.1905828611815
 30
0.0000000000002956
  9
$LIMMIN
 10
0.0
 20
0.0
  9
$LIMMAX
 10
420.0
 20
297.0
  9
$ORTHOMODE
 70
     1
  9
$REGENMODE
 70
     1
  9
$FILLMODE
 70
     1
  9
$QTEXTMODE
 70
     0
  9
$MIRRTEXT
 70
     1
  9
$DRAGMODE
 70
     2
  9
$LTSCALE
 40
1.0
  9
$OSMODE
 70
    40
  9
$ATTMODE
 70
     1
  9
$TEXTSIZE
 40
2.5
  9
$TRACEWID
 40
1.0
  9
$TEXTSTYLE
  7
STANDARD
  9
$CLAYER
  8
0
  9
$CELTYPE
  6
BYLAYER
  9
$CECOLOR
 62
   256
  9
$DIMSCALE
 40
1.0
  9
$DIMASZ
 40
2.5
  9
$DIMEXO
 40
0.625
  9
$DIMDLI
 40
3.75
  9
$DIMRND
 40
0.0
  9
$DIMDLE
 40
0.0
  9
$DIMEXE
 40
1.25
  9
$DIMTP
 40
0.0
  9
$DIMTM
 40
0.0
  9
$DIMTXT
 40
2.5
  9
$DIMCEN
 40
2.5
  9
$DIMTSZ
 40
0.0
  9
$DIMTOL
 70
     0
  9
$DIMLIM
 70
     0
  9
$DIMTIH
 70
     1
  9
$DIMTOH
 70
     1
  9
$DIMSE1
 70
     0
  9
$DIMSE2
 70
     0
  9
$DIMTAD
 70
     1
  9
$DIMZIN
 70
     8
  9
$DIMBLK
  1

  9
$DIMASO
 70
     1
  9
$DIMSHO
 70
     1
  9
$DIMPOST
  1

  9
$DIMAPOST
  1

  9
$DIMALT
 70
     0
  9
$DIMALTD
 70
     3
  9
$DIMALTF
 40
0.03937007874016
  9
$DIMLFAC
 40
1.0
  9
$DIMTOFL
 70
     1
  9
$DIMTVP
 40
0.0
  9
$DIMTIX
 70
     0
  9
$DIMSOXD
 70
     0
  9
$DIMSAH
 70
     0
  9
$DIMBLK1
  1

  9
$DIMBLK2
  1

  9
$DIMSTYLE
  2
ISO-25
  9
$DIMCLRD
 70
     0
  9
$DIMCLRE
 70
     0
  9
$DIMCLRT
 70
     0
  9
$DIMTFAC
 40
1.0
  9
$DIMGAP
 40
0.625
  9
$LUNITS
 70
     2
  9
$LUPREC
 70
     4
  9
$SKETCHINC
 40
1.0
  9
$FILLETRAD
 40
10.0
  9
$AUNITS
 70
     0
  9
$AUPREC
 70
     0
  9
$MENU
  1
.
  9
$ELEVATION
 40
0.0
  9
$PELEVATION
 40
0.0
  9
$THICKNESS
 40
0.0
  9
$LIMCHECK
 70
     0
  9
$BLIPMODE
 70
     0
  9
$CHAMFERA
 40
10.0
  9
$CHAMFERB
 40
10.0
  9
$SKPOLY
 70
     0
  9
$TDCREATE
 40
2453283.4492127192
  9
$TDUPDATE
 40
2453283.4622503361
  9
$TDINDWG
 40
0.0122452199
  9
$TDUSRTIMER
 40
0.0122435995
  9
$USRTIMER
 70
     1
  9
$ANGBASE
 50
0.0
  9
$ANGDIR
 70
     0
  9
$PDMODE
 70
     3
  9
$PDSIZE
 40
2.0
  9
$PLINEWID
 40
0.0
  9
$COORDS
 70
     2
  9
$SPLFRAME
 70
     0
  9
$SPLINETYPE
 70
     6
  9
$SPLINESEGS
 70
     8
  9
$ATTDIA
 70
     0
  9
$ATTREQ
 70
     1
  9
$HANDLING
 70
-16383
  9
$HANDSEED
  5
4DC
  9
$SURFTAB1
 70
     6
  9
$SURFTAB2
 70
     6
  9
$SURFTYPE
 70
     6
  9
$SURFU
 70
     6
  9
$SURFV
 70
     6
  9
$UCSNAME
  2

  9
$UCSORG
 10
0.0
 20
0.0
 30
0.0
  9
$UCSXDIR
 10
1.0
 20
0.0
 30
0.0
  9
$UCSYDIR
 10
0.0
 20
1.0
 30
0.0
  9
$PUCSNAME
  2

  9
$PUCSORG
 10
0.0
 20
0.0
 30
0.0
  9
$PUCSXDIR
 10
1.0
 20
0.0
 30
0.0
  9
$PUCSYDIR
 10
0.0
 20
1.0
 30
0.0
  9
$USERI1
 70
     0
  9
$USERI2
 70
     0
  9
$USERI3
 70
     0
  9
$USERI4
 70
     0
  9
$USERI5
 70
     0
  9
$USERR1
 40
0.0
  9
$USERR2
 40
0.0
  9
$USERR3
 40
0.0
  9
$USERR4
 40
0.0
  9
$USERR5
 40
0.0
  9
$WORLDVIEW
 70
     1
  9
$SHADEDGE
 70
     3
  9
$SHADEDIF
 70
    70
  9
$TILEMODE
 70
     1
  9
$MAXACTVP
 70
    48
  9
$PLIMCHECK
 70
     0
  9
$PEXTMIN
 10
28.674485683441159
 20
19.97498331069945
 30
0.0
  9
$PEXTMAX
 10
258.0703711509704
 20
179.77484979629509
 30
0.0
  9
$PLIMMIN
 10
-5.027069091796875
 20
-5.0270833969116211
  9
$PLIMMAX
 10
291.98358154296869
 20
204.98858737945551
  9
$UNITMODE
 70
     0
  9
$VISRETAIN
 70
     1
  9
$PLINEGEN
 70
     0
  9
$PSLTSCALE
 70
     1
  0
ENDSEC
  0
SECTION
  2
TABLES
  0
TABLE
  2
VPORT
 70
     4
  0
VPORT
  2
*ACTIVE
 70
     0
 10
0.0
 20
0.0
 11
1.0
 21
1.0
 12
220.5903635390456
 22
166.1515967813921
 13
0.0
 23
0.0
 14
10.0
 24
10.0
 15
10.0
 25
10.0
 16
0.0
 26
0.0
 36
1.0
 17
0.0
 27
0.0
 37
0.0
 40
201.69793105342509
 41
1.508135168961201
 42
50.0
 43
0.0
 44
0.0
 50
0.0
 51
0.0
 71
     0
 72
   100
 73
     1
 74
     2
 75
     0
 76
     0
 77
     0
 78
     0
  0
ENDTAB
  0
TABLE
  2
LTYPE
 70
     2
  0
LTYPE
  2
CONTINUOUS
 70
     0
  3
Solid line
 72
    65
 73
     0
 40
0.0
  0
LTYPE
  2
CENTER
 70
     0
  3
Center (.5x) ___ _ ___ _ ___ _ ___ _ ___ _ ___
 72
    65
 73
     4
 40
28.574999999999989
 49
19.050000000000001
 49
-3.1749999999999989
 49
3.1749999999999989
 49
-3.1749999999999989
  0
ENDTAB
  0
TABLE
  2
LAYER
 70
     1
  0
LAYER
  2
0
 70
     0
 62
     7
  6
CONTINUOUS
  0
ENDTAB
  0
TABLE
  2
STYLE
 70
     1
  0
STYLE
  2
STANDARD
 70
     0
 40
0.0
 41
1.0
 50
0.0
 71
     0
 42
2.5
  3
txt
  4

  0
ENDTAB
  0
TABLE
  2
VIEW
 70
     0
  0
ENDTAB
  0
TABLE
  2
UCS
 70
     0
  0
ENDTAB
  0
TABLE
  2
APPID
 70
     1
  0
APPID
  2
ACAD
 70
     0
  0
ENDTAB
  0
TABLE
  2
DIMSTYLE
 70
     1
  0
DIMSTYLE
  2
ISO-25
 70
     0
  3

  4

  5

  6

  7

 40
1.0
 41
2.5
 42
0.625
 43
3.75
 44
1.25
 45
0.0
 46
0.0
 47
0.0
 48
0.0
140
2.5
141
2.5
142
0.0
143
0.03937007874016
144
1.0
145
0.0
146
1.0
147
0.625
 71
     0
 72
     0
 73
     1
 74
     1
 75
     0
 76
     0
 77
     1
 78
     8
170
     0
171
     3
172
     1
173
     0
174
     0
175
     0
176
     0
177
     0
178
     0
  0
ENDTAB
  0
ENDSEC
  0
SECTION
  2
BLOCKS
  0
BLOCK
  8
0
  2
$MODEL_SPACE
 70
     0
 10
0.0
 20
0.0
 30
0.0
  3
$MODEL_SPACE
  1

  0
ENDBLK
  5
21
  8
0
  0
BLOCK
 67
     1
  8
0
  2
$PAPER_SPACE
 70
     0
 10
0.0
 20
0.0
 30
0.0
  3
$PAPER_SPACE
  1

  0
ENDBLK
  5
53
 67
     1
  8
0
  0
ENDSEC
  0
SECTION
  2
ENTITIES
  0
ARC
  5
E6
  8
0
 10
154.43594562124099
 20
169.26753346884169
 30
0.0
 40
10.421129000000001
 50
68.887171000000635
 51
90.0
  0
ARC
  5
E7
  8
0
 10
154.43594562124099
 20
185.10979146884171
 30
0.0
 40
10.421129000000001
 50
270.0
 51
291.11282899999929
  0
LINE
  5
E8
  8
0
 10
154.43594562124099
 20
174.6886624688417
 30
0.0
 11
160.83594562124111
 21
174.6886624688417
 31
0.0
  0
LINE
  5
E9
  8
0
 10
154.43594562124099
 20
179.6886624688417
 30
0.0
 11
160.83594562124111
 21
179.6886624688417
 31
0.0
  0
LINE
  5
EA
  8
0
 10
159.37592262124099
 20
173.7818814688417
 30
0.0
 11
154.43594562124099
 21
173.7818814688417
 31
0.0
  0
ARC
  5
EB
  8
0
 10
148.3858396212411
 20
173.88843546884169
 30
0.0
 40
0.8002269999999999
 50
330.469606
 51
89.992443999999622
  0
LINE
  5
EC
  8
0
 10
149.4959686212411
 20
173.7818814688417
 30
0.0
 11
154.43594562124099
 21
173.7818814688417
 31
0.0
  0
ARC
  5
ED
  8
0
 10
154.43594562124099
 20
170.26927046884171
 30
0.0
 40
6.25
 50
148.9384109999996
 51
155.22204900000051
  0
ARC
  5
EE
  8
0
 10
148.80532062124101
 20
176.82105246884171
 30
0.0
 40
2.8676099999999991
 50
49.117608000000452
 51
90.0
  0
ARC
  5
EF
  8
0
 10
148.80532062124101
 20
177.5562724688418
 30
0.0
 40
2.8676099999999991
 50
229.11760800000039
 51
310.88239199999953
  0
LINE
  5
F0
  8
0
 10
154.43594562124099
 20
179.6886624688417
 30
0.0
 11
148.03594562124101
 21
179.6886624688417
 31
0.0
  0
LINE
  5
F1
  8
0
 10
154.43594562124099
 20
174.6886624688417
 30
0.0
 11
148.03594562124101
 21
174.6886624688417
 31
0.0
  0
LINE
  5
F2
  8
0
 10
148.03594562124101
 20
179.6886624688417
 30
0.0
 11
147.36989762124111
 21
179.3035404688417
 31
0.0
  0
ARC
  5
F3
  8
0
 10
148.80532062124101
 20
176.82105246884171
 30
0.0
 40
2.8676099999999991
 50
90.0
 51
130.8823919999995
  0
LINE
  5
F4
  8
0
 10
148.03594562124101
 20
174.6886624688417
 30
0.0
 11
147.36989762124111
 21
175.07378446884169
 31
0.0
  0
LINE
  5
F5
  8
0
 10
146.92844562124111
 20
175.3881964688417
 30
0.0
 11
146.92844562124111
 21
178.9891284688417
 31
0.0
  0
ARC
  5
F6
  8
0
 10
154.43594562124099
 20
169.26753346884169
 30
0.0
 40
10.421129000000001
 50
90.0
 51
111.11282899999929
  0
ARC
  5
F7
  8
0
 10
154.43594562124099
 20
185.10979146884171
 30
0.0
 40
10.421129000000001
 50
248.88717100000059
 51
270.0
  0
LINE
  5
F8
  8
0
 10
150.68219562124099
 20
175.3881964688417
 30
0.0
 11
150.68219562124099
 21
178.9891284688417
 31
0.0
  0
ARC
  5
F9
  8
0
 10
160.48605162124099
 20
173.88843546884169
 30
0.0
 40
0.8002269999999999
 50
90.007556000000363
 51
209.53039399999989
  0
ARC
  5
FA
  8
0
 10
160.06657062124111
 20
176.82105246884171
 30
0.0
 40
2.8676099999999991
 50
49.117608000000452
 51
130.8823919999995
  0
ARC
  5
FB
  8
0
 10
160.06657062124111
 20
177.5562724688418
 30
0.0
 40
2.8676099999999991
 50
229.11760800000039
 51
310.88239199999953
  0
LINE
  5
FC
  8
0
 10
158.18969562124099
 20
175.3881964688417
 30
0.0
 11
158.18969562124099
 21
178.9891284688417
 31
0.0
  0
LINE
  5
FD
  8
0
 10
160.83594562124111
 20
179.6886624688417
 30
0.0
 11
161.50199362124101
 21
179.3035404688417
 31
0.0
  0
LINE
  5
FE
  8
0
 10
160.83594562124111
 20
174.6886624688417
 30
0.0
 11
161.50199362124101
 21
175.07378446884169
 31
0.0
  0
LINE
  5
FF
  8
0
 10
161.94344562124101
 20
175.3881964688417
 30
0.0
 11
161.94344562124101
 21
178.9891284688417
 31
0.0
  0
LINE
  5
100
  8
0
 10
147.9359456212411
 20
172.88866246884169
 30
0.0
 11
160.9359456212411
 21
172.88866246884169
 31
0.0
  0
LINE
  5
101
  8
0
 10
161.53036962124111
 20
172.39765946884179
 30
0.0
 11
162.4359456212411
 21
167.6886624688417
 31
0.0
  0
LINE
  5
102
  8
0
 10
162.4359456212411
 20
167.6886624688417
 30
0.0
 11
162.4359456212411
 21
161.1886624688417
 31
0.0
  0
LINE
  5
103
  8
0
 10
161.9359456212411
 20
160.6886624688417
 30
0.0
 11
146.93594562124099
 21
160.6886624688417
 31
0.0
  0
LINE
  5
104
  8
0
 10
146.4359456212411
 20
161.1886624688417
 30
0.0
 11
146.4359456212411
 21
167.6886624688417
 31
0.0
  0
LINE
  5
105
  8
0
 10
146.4359456212411
 20
167.6886624688417
 30
0.0
 11
147.34152162124099
 21
172.39765946884179
 31
0.0
  0
ARC
  5
106
  8
0
 10
154.43594562124099
 20
170.26927046884171
 30
0.0
 40
6.25
 50
24.77795099999943
 51
31.061589000000389
  0
LINE
  5
107
  8
0
 10
146.4359456212411
 20
161.1886624688417
 30
0.0
 11
146.93594562124099
 21
160.6886624688417
 31
0.0
  0
LINE
  5
108
  8
0
 10
162.4359456212411
 20
161.1886624688417
 30
0.0
 11
161.9359456212411
 21
160.6886624688417
 31
0.0
  0
LINE
  5
109
  8
0
 10
162.4359456212411
 20
161.1886624688417
 30
0.0
 11
146.4359456212411
 21
161.1886624688417
 31
0.0
  0
LINE
  5
10A
  8
0
 10
162.4359456212411
 20
167.6886624688417
 30
0.0
 11
146.4359456212411
 21
167.6886624688417
 31
0.0
  0
LINE
  5
10B
  8
0
 10
147.34152162124099
 20
172.39765946884179
 30
0.0
 11
147.9359456212411
 21
172.88866246884169
 31
0.0
  0
LINE
  5
10C
  8
0
 10
160.9359456212411
 20
172.88866246884169
 30
0.0
 11
161.53036962124111
 21
172.39765946884179
 31
0.0
  0
LINE
  5
10D
  8
0
 10
161.53036962124111
 20
172.39765946884179
 30
0.0
 11
147.34152162124099
 21
172.39765946884179
 31
0.0
  0
LINE
  5
10E
  8
0
  6
CENTER
 10
154.43594562124099
 20
181.1886624688417
 30
0.0
 11
154.43594562124099
 21
159.1886624688417
 31
0.0
  0
LINE
  5
110
  8
0
  6
CENTER
 10
154.43594562124099
 20
133.13246078962291
 30
0.0
 11
154.43594562124099
 21
152.13246078962291
 31
0.0
  0
LINE
  5
112
  8
0
 10
158.3105176212411
 20
136.04541778962289
 30
0.0
 11
162.06329462124111
 21
142.54541778962289
 31
0.0
  0
LINE
  5
113
  8
0
 10
162.06329462124111
 20
142.54541778962289
 30
0.0
 11
158.3105176212411
 21
149.04541778962289
 31
0.0
  0
LINE
  5
114
  8
0
 10
147.05218762124099
 20
142.54541778962289
 30
0.0
 11
150.80496462124111
 21
136.04541778962289
 31
0.0
  0
LINE
  5
115
  8
0
 10
150.80496462124111
 20
149.04541778962289
 30
0.0
 11
147.05218762124099
 21
142.54541778962289
 31
0.0
  0
CIRCLE
  5
116
  8
0
 10
154.55774062124109
 20
142.54541778962289
 30
0.0
 40
3.2000000000000002
  0
CIRCLE
  5
118
  8
0
 10
154.55774062124109
 20
142.54541778962289
 30
0.0
 40
6.5
  0
LINE
  5
119
  8
0
 10
150.80496462124111
 20
136.04541778962289
 30
0.0
 11
158.3105176212411
 21
136.04541778962289
 31
0.0
  0
LINE
  5
11A
  8
0
 10
158.3105176212411
 20
149.04541778962289
 30
0.0
 11
150.80496462124111
 21
149.04541778962289
 31
0.0
  0
CIRCLE
  5
11B
  8
0
 10
154.43594562124099
 20
142.63246078962291
 30
0.0
 40
8.0
  0
LINE
  5
11C
  8
0
  6
CENTER
 10
163.93594562124099
 20
142.63246078962291
 30
0.0
 11
144.9359456212411
 21
142.63246078962291
 31
0.0
  0
ARC
  5
238
  8
0
 10
231.7247587479242
 20
201.0248738819657
 30
0.0
 40
17.130807000000001
 50
270.0
 51
287.67075100000039
  0
ARC
  5
239
  8
0
 10
231.7247587479242
 20
172.76325988196561
 30
0.0
 40
17.130807000000001
 50
72.329248999999507
 51
90.0
  0
ARC
  5
23A
  8
0
 10
231.7247587479242
 20
172.76325988196561
 30
0.0
 40
17.130807000000001
 50
72.329248999999507
 51
90.0
  0
LINE
  5
23B
  8
0
 10
240.7247587479242
 20
183.89406688196561
 30
0.0
 11
231.7247587479242
 21
183.89406688196561
 31
0.0
  0
LINE
  5
23C
  8
0
 10
231.7247587479242
 20
189.8940668819657
 30
0.0
 11
240.7247587479242
 21
189.8940668819657
 31
0.0
1001
ACAD
1000
ASC_BOUNDS
1002
{
1070
    19
1002
}
  0
LINE
  5
23D
  8
0
 10
238.50895974792419
 20
182.5966558819656
 30
0.0
 11
231.7247587479242
 21
182.5966558819656
 31
0.0
  0
LINE
  5
23E
  8
0
 10
226.52475874792421
 20
184.7023568819657
 30
0.0
 11
226.52475874792421
 21
189.0857768819657
 31
0.0
  0
LINE
  5
23F
  8
0
 10
221.32475874792419
 20
189.0857768819657
 30
0.0
 11
221.32475874792419
 21
184.7023568819657
 31
0.0
  0
LINE
  5
240
  8
0
 10
224.9405577479242
 20
182.5966558819656
 30
0.0
 11
231.7247587479242
 21
182.5966558819656
 31
0.0
  0
ARC
  5
241
  8
0
 10
223.92475874792419
 20
188.47987788196571
 30
0.0
 40
4.5858109999999987
 50
235.46105599999939
 51
304.53894400000041
  0
LINE
  5
242
  8
0
 10
222.7247587479242
 20
183.89406688196561
 30
0.0
 11
231.7247587479242
 21
183.89406688196561
 31
0.0
  0
ARC
  5
243
  8
0
 10
231.7247587479242
 20
178.11782388196571
 30
0.0
 40
8.75
 50
150.66788999999969
 51
159.41658799999931
1001
ACAD
1000
ASC_BOUNDS
1002
{
1070
    19
1002
}
  0
POLYLINE
  5
244
  8
0
 66
     1
 10
0.0
 20
0.0
 30
0.0
1001
ACAD
1000
ASC_BOUNDS
1002
{
1070
    19
1002
}
  0
VERTEX
  5
4C8
  8
0
 10
222.7247587479242
 20
183.89406688196561
 30
0.0
  0
VERTEX
  5
4C9
  8
0
 10
223.2247587479242
 20
183.89406688196561
 30
0.0
  0
SEQEND
  5
4CA
  8
0
  0
LINE
  5
245
  8
0
 10
221.32475874792419
 20
184.7023568819657
 30
0.0
 11
222.7247587479242
 21
183.89406688196561
 31
0.0
  0
ARC
  5
246
  8
0
 10
223.2247587479242
 20
182.89406688196561
 30
0.0
 40
1.0
 50
330.66788999999972
 51
90.0
1001
ACAD
1000
ASC_BOUNDS
1002
{
1070
    19
1002
}
  0
ARC
  5
247
  8
0
 10
231.7247587479242
 20
201.0248738819657
 30
0.0
 40
17.130807000000001
 50
252.32924899999941
 51
270.0
  0
ARC
  5
248
  8
0
 10
223.92475874792419
 20
185.30825588196561
 30
0.0
 40
4.5858109999999987
 50
55.461055999999523
 51
124.5389440000004
  0
ARC
  5
249
  8
0
 10
223.92475874792419
 20
185.30825588196561
 30
0.0
 40
4.5858109999999987
 50
55.461055999999523
 51
124.5389440000004
  0
LINE
  5
24A
  8
0
 10
231.7247587479242
 20
189.8940668819657
 30
0.0
 11
222.7247587479242
 21
189.8940668819657
 31
0.0
1001
ACAD
1000
ASC_BOUNDS
1002
{
1070
    19
1002
}
  0
LINE
  5
24B
  8
0
 10
221.32475874792419
 20
189.0857768819657
 30
0.0
 11
222.7247587479242
 21
189.8940668819657
 31
0.0
  0
LINE
  5
24C
  8
0
 10
221.32475874792419
 20
189.0857768819657
 30
0.0
 11
222.7247587479242
 21
189.8940668819657
 31
0.0
  0
ARC
  5
24D
  8
0
 10
231.7247587479242
 20
172.76325988196561
 30
0.0
 40
17.130807000000001
 50
90.0
 51
107.67075100000039
  0
ARC
  5
24E
  8
0
 10
231.7247587479242
 20
172.76325988196561
 30
0.0
 40
17.130807000000001
 50
90.0
 51
107.67075100000039
  0
LINE
  5
24F
  8
0
 10
242.1247587479242
 20
189.0857768819657
 30
0.0
 11
242.1247587479242
 21
184.7023568819657
 31
0.0
  0
LINE
  5
250
  8
0
 10
236.92475874792419
 20
184.7023568819657
 30
0.0
 11
236.92475874792419
 21
189.0857768819657
 31
0.0
  0
ARC
  5
251
  8
0
 10
240.2247587479242
 20
182.89406688196561
 30
0.0
 40
1.0
 50
90.0
 51
209.3321100000002
1001
ACAD
1000
ASC_BOUNDS
1002
{
1070
    19
1002
}
  0
ARC
  5
252
  8
0
 10
239.52475874792421
 20
188.47987788196571
 30
0.0
 40
4.5858109999999987
 50
235.46105599999939
 51
304.53894400000041
  0
LINE
  5
253
  8
0
 10
242.1247587479242
 20
184.7023568819657
 30
0.0
 11
240.7247587479242
 21
183.89406688196561
 31
0.0
  0
POLYLINE
  5
254
  8
0
 66
     1
 10
0.0
 20
0.0
 30
0.0
1001
ACAD
1000
ASC_BOUNDS
1002
{
1070
    19
1002
}
  0
VERTEX
  5
4CB
  8
0
 10
240.7247587479242
 20
183.89406688196561
 30
0.0
  0
VERTEX
  5
4CC
  8
0
 10
240.2247587479242
 20
183.89406688196561
 30
0.0
  0
SEQEND
  5
4CD
  8
0
  0
ARC
  5
255
  8
0
 10
239.52475874792421
 20
185.30825588196561
 30
0.0
 40
4.5858109999999987
 50
55.461055999999523
 51
124.5389440000004
  0
ARC
  5
256
  8
0
 10
239.52475874792421
 20
185.30825588196561
 30
0.0
 40
4.5858109999999987
 50
55.461055999999523
 51
124.5389440000004
  0
LINE
  5
257
  8
0
 10
242.1247587479242
 20
189.0857768819657
 30
0.0
 11
240.7247587479242
 21
189.8940668819657
 31
0.0
  0
LINE
  5
258
  8
0
 10
242.1247587479242
 20
189.0857768819657
 30
0.0
 11
240.7247587479242
 21
189.8940668819657
 31
0.0
  0
ARC
  5
259
  8
0
 10
231.7247587479242
 20
178.11782388196571
 30
0.0
 40
8.75
 50
20.583412000000688
 51
29.332110000000242
1001
ACAD
1000
ASC_BOUNDS
1002
{
1070
    19
1002
}
  0
LINE
  5
25A
  8
0
 10
222.7247587479242
 20
181.19406688196571
 30
0.0
 11
240.7247587479242
 21
181.19406688196571
 31
0.0
  0
LINE
  5
25B
  8
0
 10
241.40918174792421
 20
180.7293218819656
 30
0.0
 11
243.7247587479242
 21
174.89406688196561
 31
0.0
  0
LINE
  5
25C
  8
0
 10
243.7247587479242
 20
174.89406688196561
 30
0.0
 11
243.7247587479242
 21
165.39406688196561
 31
0.0
  0
LINE
  5
25D
  8
0
 10
243.2247587479242
 20
164.8940668819657
 30
0.0
 11
220.2247587479242
 21
164.8940668819657
 31
0.0
  0
LINE
  5
25E
  8
0
 10
219.7247587479242
 20
165.39406688196561
 30
0.0
 11
219.7247587479242
 21
174.89406688196561
 31
0.0
  0
LINE
  5
25F
  8
0
 10
219.7247587479242
 20
174.89406688196561
 30
0.0
 11
222.04033574792419
 21
180.7293218819656
 31
0.0
  0
LINE
  5
260
  8
0
 10
219.7247587479242
 20
174.89406688196561
 30
0.0
 11
243.7247587479242
 21
174.89406688196561
 31
0.0
  0
LINE
  5
261
  8
0
 10
222.02634574792421
 20
180.69406688196571
 30
0.0
 11
241.42317174792419
 21
180.69406688196571
 31
0.0
  0
LINE
  5
262
  8
0
 10
243.7247587479242
 20
165.39406688196561
 30
0.0
 11
219.7247587479242
 21
165.39406688196561
 31
0.0
  0
LINE
  5
263
  8
0
 10
220.2247587479242
 20
164.8940668819657
 30
0.0
 11
219.7247587479242
 21
165.39406688196561
 31
0.0
  0
LINE
  5
264
  8
0
 10
222.04033574792419
 20
180.7293218819656
 30
0.0
 11
222.7247587479242
 21
181.19406688196571
 31
0.0
  0
LINE
  5
265
  8
0
 10
240.7247587479242
 20
181.19406688196571
 30
0.0
 11
241.40918174792421
 21
180.7293218819656
 31
0.0
  0
LINE
  5
266
  8
0
 10
243.7247587479242
 20
165.39406688196561
 30
0.0
 11
243.2247587479242
 21
164.8940668819657
 31
0.0
  0
LINE
  5
267
  8
0
  6
CENTER
 10
231.7247587479242
 20
191.39406688196561
 30
0.0
 11
231.7247587479242
 21
163.39406688196561
 31
0.0
  0
LINE
  5
26D
  8
0
 10
189.4500425969357
 20
184.91997926323279
 30
0.0
 11
197.35004259693571
 21
184.91997926323279
 31
0.0
  0
ARC
  5
26E
  8
0
 10
196.38004259693571
 20
183.4493452632328
 30
0.0
 40
3.529366
 50
229.11760800000039
 51
310.88239199999953
  0
LINE
  5
26F
  8
0
 10
189.4500425969357
 20
179.91997926323279
 30
0.0
 11
197.35004259693571
 21
179.91997926323279
 31
0.0
  0
ARC
  5
270
  8
0
 10
196.38004259693571
 20
181.39061326323281
 30
0.0
 40
3.529366
 50
49.117608000000452
 51
130.8823919999995
  0
LINE
  5
271
  8
0
 10
189.4500425969357
 20
184.91997926323279
 30
0.0
 11
181.5500425969357
 21
184.91997926323279
 31
0.0
  0
ARC
  5
272
  8
0
 10
189.4500425969357
 20
192.7459842632328
 30
0.0
 40
12.826005
 50
248.88717100000059
 51
270.0
  0
LINE
  5
273
  8
0
 10
189.4500425969357
 20
179.91997926323279
 30
0.0
 11
181.5500425969357
 21
179.91997926323279
 31
0.0
  0
LINE
  5
274
  8
0
 10
183.48882859693569
 20
178.9025842632328
 30
0.0
 11
189.4500425969357
 21
178.9025842632328
 31
0.0
  0
ARC
  5
275
  8
0
 10
189.4500425969357
 20
172.09397426323281
 30
0.0
 40
12.826005
 50
90.0
 51
111.11282899999929
  0
ARC
  5
276
  8
0
 10
182.5200425969357
 20
181.39061326323281
 30
0.0
 40
3.529366
 50
49.117608000000452
 51
130.8823919999995
  0
ARC
  5
277
  8
0
 10
182.5200425969357
 20
183.4493452632328
 30
0.0
 40
3.529366
 50
229.11760800000039
 51
310.88239199999953
  0
LINE
  5
278
  8
0
 10
180.21004259693569
 20
180.6936282632328
 30
0.0
 11
180.21004259693569
 21
184.14633026323281
 31
0.0
  0
LINE
  5
279
  8
0
 10
181.5500425969357
 20
179.91997926323279
 30
0.0
 11
180.21004259693569
 21
180.6936282632328
 31
0.0
  0
LINE
  5
27A
  8
0
 10
180.21004259693569
 20
184.14633026323281
 30
0.0
 11
181.5500425969357
 21
184.91997926323279
 31
0.0
  0
LINE
  5
27B
  8
0
 10
184.8300425969357
 20
180.78094426323281
 30
0.0
 11
184.8300425969357
 21
184.0590142632328
 31
0.0
  0
ARC
  5
27C
  8
0
 10
182.15004259693569
 20
179.12110226323281
 30
0.0
 40
0.8
 50
328.6275440000004
 51
90.733710000000514
1001
ACAD
1000
ASC_BOUNDS
1002
{
1070
    19
1002
}
  0
ARC
  5
27D
  8
0
 10
189.4500425969357
 20
174.66997926323279
 30
0.0
 40
7.75
 50
148.6275440000004
 51
156.8245289999993
1001
ACAD
1000
ASC_BOUNDS
1002
{
1070
    19
1002
}
  0
ARC
  5
27E
  8
0
 10
189.4500425969357
 20
172.09397426323281
 30
0.0
 40
12.826005
 50
68.887171000000635
 51
90.0
  0
ARC
  5
27F
  8
0
 10
189.4500425969357
 20
192.7459842632328
 30
0.0
 40
12.826005
 50
270.0
 51
291.11282899999929
  0
LINE
  5
280
  8
0
 10
195.41125659693569
 20
178.9025842632328
 30
0.0
 11
189.4500425969357
 21
178.9025842632328
 31
0.0
  0
LINE
  5
281
  8
0
 10
194.07004259693571
 20
180.78094426323281
 30
0.0
 11
194.07004259693571
 21
184.0590142632328
 31
0.0
  0
LINE
  5
282
  8
0
 10
198.69004259693571
 20
180.6936282632328
 30
0.0
 11
198.69004259693571
 21
184.14633026323281
 31
0.0
  0
LINE
  5
283
  8
0
 10
197.35004259693571
 20
179.91997926323279
 30
0.0
 11
198.69004259693571
 21
180.6936282632328
 31
0.0
  0
ARC
  5
284
  8
0
 10
196.75004259693571
 20
179.12110226323281
 30
0.0
 40
0.8
 50
90.0
 51
211.37245599999949
1001
ACAD
1000
ASC_BOUNDS
1002
{
1070
    19
1002
}
  0
LINE
  5
285
  8
0
 10
198.69004259693571
 20
184.14633026323281
 30
0.0
 11
197.35004259693571
 21
184.91997926323279
 31
0.0
  0
ARC
  5
286
  8
0
 10
189.4500425969357
 20
174.66997926323279
 30
0.0
 40
7.75
 50
23.175471000000709
 51
31.372455999999509
1001
ACAD
1000
ASC_BOUNDS
1002
{
1070
    19
1002
}
  0
LINE
  5
287
  8
0
 10
181.4500425969357
 20
177.7199792632328
 30
0.0
 11
197.4500425969357
 21
177.7199792632328
 31
0.0
  0
LINE
  5
288
  8
0
 10
198.05774759693571
 20
177.23171726323281
 30
0.0
 11
199.4500425969357
 21
170.91997926323279
 31
0.0
  0
LINE
  5
289
  8
0
 10
199.4500425969357
 20
170.91997926323279
 30
0.0
 11
199.4500425969357
 21
163.41997926323279
 31
0.0
  0
LINE
  5
28A
  8
0
 10
198.9500425969357
 20
162.91997926323279
 30
0.0
 11
179.9500425969357
 21
162.91997926323279
 31
0.0
  0
LINE
  5
28B
  8
0
 10
179.4500425969357
 20
163.41997926323279
 30
0.0
 11
179.4500425969357
 21
170.91997926323279
 31
0.0
  0
LINE
  5
28C
  8
0
 10
179.4500425969357
 20
170.91997926323279
 30
0.0
 11
180.84233759693569
 21
177.23171726323281
 31
0.0
  0
LINE
  5
28D
  8
0
 10
179.4500425969357
 20
170.91997926323279
 30
0.0
 11
199.4500425969357
 21
170.91997926323279
 31
0.0
  0
LINE
  5
28E
  8
0
 10
180.83974859693569
 20
177.21997926323289
 30
0.0
 11
198.06033659693571
 21
177.21997926323289
 31
0.0
  0
LINE
  5
28F
  8
0
 10
179.4500425969357
 20
163.41997926323279
 30
0.0
 11
199.4500425969357
 21
163.41997926323279
 31
0.0
  0
LINE
  5
290
  8
0
 10
179.4500425969357
 20
163.41997926323279
 30
0.0
 11
179.9500425969357
 21
162.91997926323279
 31
0.0
  0
LINE
  5
291
  8
0
 10
180.84233759693569
 20
177.23171726323281
 30
0.0
 11
181.4500425969357
 21
177.7199792632328
 31
0.0
  0
LINE
  5
292
  8
0
 10
197.4500425969357
 20
177.7199792632328
 30
0.0
 11
198.05774759693571
 21
177.23171726323281
 31
0.0
  0
LINE
  5
293
  8
0
 10
199.4500425969357
 20
163.41997926323279
 30
0.0
 11
198.9500425969357
 21
162.91997926323279
 31
0.0
  0
LINE
  5
294
  8
0
  6
CENTER
 10
189.4500425969357
 20
186.41997926323279
 30
0.0
 11
189.4500425969357
 21
161.41997926323279
 31
0.0
  0
LINE
  5
296
  8
0
  6
CENTER
 10
189.4500425969357
 20
131.13246078962291
 30
0.0
 11
189.4500425969357
 21
154.13246078962291
 31
0.0
  0
LINE
  5
297
  8
0
  6
CENTER
 10
200.9500425969357
 20
142.63246078962291
 30
0.0
 11
177.9500425969357
 21
142.63246078962291
 31
0.0
  0
CIRCLE
  5
29E
  8
0
 10
189.4500425969357
 20
142.63246078962291
 30
0.0
 40
10.0
  0
LINE
  5
2A8
  8
0
 10
279.74289029954298
 20
204.66815450069859
 30
0.0
 11
267.842890299543
 21
204.66815450069859
 31
0.0
  0
ARC
  5
2A9
  8
0
 10
279.74289029954298
 20
185.42914650069861
 30
0.0
 40
19.239007999999998
 50
90.0
 51
111.11282899999929
  0
ARC
  5
2AA
  8
0
 10
279.74289029954298
 20
215.9071625006986
 30
0.0
 40
19.239007999999998
 50
248.88717100000059
 51
270.0
  0
LINE
  5
2AB
  8
0
 10
279.74289029954298
 20
196.66815450069859
 30
0.0
 11
267.842890299543
 21
196.66815450069859
 31
0.0
  0
LINE
  5
2AC
  8
0
 10
270.67208529954303
 20
195.27666550069861
 30
0.0
 11
279.74289029954298
 21
195.27666550069861
 31
0.0
  0
LINE
  5
2AD
  8
0
 10
267.842890299543
 20
204.66815450069859
 30
0.0
 11
265.88289029954291
 21
203.53654750069859
 31
0.0
  0
ARC
  5
2AE
  8
0
 10
269.34789029954288
 20
199.37410550069859
 30
0.0
 40
5.2940490000000002
 50
49.117607999999208
 51
130.88239200000069
  0
ARC
  5
2AF
  8
0
 10
268.74289029954292
 20
195.66815450069859
 30
0.0
 40
1.0
 50
329.62621399999972
 51
90.0
1001
ACAD
1000
ASC_BOUNDS
1002
{
1070
    19
1002
}
  0
ARC
  5
2B0
  8
0
 10
269.34789029954288
 20
201.96220350069859
 30
0.0
 40
5.2940490000000002
 50
229.11760799999919
 51
310.88239200000078
  0
ARC
  5
2B1
  8
0
 10
279.74289029954298
 20
189.22125650069859
 30
0.0
 40
11.75
 50
149.62621399999969
 51
157.76171299999979
1001
ACAD
1000
ASC_BOUNDS
1002
{
1070
    19
1002
}
  0
LINE
  5
2B2
  8
0
 10
265.88289029954291
 20
197.79976150069859
 30
0.0
 11
265.88289029954291
 21
203.53654750069859
 31
0.0
  0
LINE
  5
2B3
  8
0
 10
267.842890299543
 20
196.66815450069859
 30
0.0
 11
265.88289029954291
 21
197.79976150069859
 31
0.0
  0
LINE
  5
2B4
  8
0
 10
272.81289029954303
 20
197.9596015006986
 30
0.0
 11
272.81289029954303
 21
203.37670750069859
 31
0.0
  0
ARC
  5
2B5
  8
0
 10
279.74289029954298
 20
185.42914650069861
 30
0.0
 40
19.239007999999998
 50
68.887171000000635
 51
90.0
  0
LINE
  5
2B6
  8
0
 10
279.74289029954298
 20
204.66815450069859
 30
0.0
 11
291.6428902995429
 21
204.66815450069859
 31
0.0
  0
ARC
  5
2B7
  8
0
 10
279.74289029954298
 20
215.9071625006986
 30
0.0
 40
19.239007999999998
 50
270.0
 51
291.11282899999929
  0
LINE
  5
2B8
  8
0
 10
279.74289029954298
 20
196.66815450069859
 30
0.0
 11
291.6428902995429
 21
196.66815450069859
 31
0.0
  0
LINE
  5
2B9
  8
0
 10
288.81369529954299
 20
195.27666550069861
 30
0.0
 11
279.74289029954298
 21
195.27666550069861
 31
0.0
  0
LINE
  5
2BA
  8
0
 10
291.6428902995429
 20
204.66815450069859
 30
0.0
 11
293.60289029954288
 21
203.53654750069859
 31
0.0
  0
ARC
  5
2BB
  8
0
 10
290.1378902995429
 20
199.37410550069859
 30
0.0
 40
5.2940490000000002
 50
49.117607999999208
 51
130.88239200000069
  0
ARC
  5
2BC
  8
0
 10
290.74289029954292
 20
195.66815450069859
 30
0.0
 40
1.0
 50
90.0
 51
181.3703509999994
  0
ARC
  5
2BD
  8
0
 10
290.74289029954292
 20
195.66815450069859
 30
0.0
 40
1.0
 50
90.0
 51
210.37378600000019
1001
ACAD
1000
ASC_BOUNDS
1002
{
1070
    19
1002
}
  0
ARC
  5
2BE
  8
0
 10
290.1378902995429
 20
201.96220350069859
 30
0.0
 40
5.2940490000000002
 50
229.11760799999919
 51
310.88239200000078
  0
LINE
  5
2BF
  8
0
 10
286.67289029954298
 20
197.9596015006986
 30
0.0
 11
286.67289029954298
 21
203.37670750069859
 31
0.0
  0
LINE
  5
2C0
  8
0
 10
293.60289029954288
 20
197.79976150069859
 30
0.0
 11
293.60289029954288
 21
203.53654750069859
 31
0.0
  0
LINE
  5
2C1
  8
0
 10
291.6428902995429
 20
196.66815450069859
 30
0.0
 11
293.60289029954288
 21
197.79976150069859
 31
0.0
  0
ARC
  5
2C2
  8
0
 10
279.74289029954298
 20
189.22125650069859
 30
0.0
 40
11.75
 50
22.238287000000149
 51
30.373786000000258
1001
ACAD
1000
ASC_BOUNDS
1002
{
1070
    19
1002
}
  0
LINE
  5
2C3
  8
0
 10
267.11177529954301
 20
193.18565150069861
 30
0.0
 11
264.74289029954292
 21
183.66815450069859
 31
0.0
  0
LINE
  5
2C4
  8
0
 10
264.74289029954292
 20
183.66815450069859
 30
0.0
 11
264.74289029954292
 21
171.16815450069859
 31
0.0
  0
LINE
  5
2C5
  8
0
 10
265.24289029954292
 20
170.66815450069859
 30
0.0
 11
294.24289029954298
 21
170.66815450069859
 31
0.0
  0
LINE
  5
2C6
  8
0
 10
294.74289029954292
 20
171.16815450069859
 30
0.0
 11
294.74289029954292
 21
183.66815450069859
 31
0.0
  0
LINE
  5
2C7
  8
0
 10
294.74289029954292
 20
183.66815450069859
 30
0.0
 11
292.374005299543
 21
193.18565150069861
 31
0.0
  0
LINE
  5
2C8
  8
0
 10
291.74289029954292
 20
193.66815450069859
 30
0.0
 11
267.74289029954292
 21
193.66815450069859
 31
0.0
  0
LINE
  5
2C9
  8
0
 10
264.74289029954292
 20
183.66815450069859
 30
0.0
 11
294.74289029954292
 21
183.66815450069859
 31
0.0
  0
LINE
  5
2CA
  8
0
 10
267.10702029954302
 20
193.16815450069859
 30
0.0
 11
292.37876029954299
 21
193.16815450069859
 31
0.0
  0
LINE
  5
2CB
  8
0
 10
294.74289029954292
 20
171.16815450069859
 30
0.0
 11
264.74289029954292
 21
171.16815450069859
 31
0.0
  0
LINE
  5
2CC
  8
0
 10
265.24289029954292
 20
170.66815450069859
 30
0.0
 11
264.74289029954292
 21
171.16815450069859
 31
0.0
  0
LINE
  5
2CD
  8
0
 10
294.74289029954292
 20
171.16815450069859
 30
0.0
 11
294.24289029954298
 21
170.66815450069859
 31
0.0
  0
LINE
  5
2CE
  8
0
 10
267.11177529954301
 20
193.18565150069861
 30
0.0
 11
267.74289029954292
 21
193.66815450069859
 31
0.0
  0
LINE
  5
2CF
  8
0
 10
291.74289029954292
 20
193.66815450069859
 30
0.0
 11
292.374005299543
 21
193.18565150069861
 31
0.0
  0
LINE
  5
2D0
  8
0
  6
CENTER
 10
279.74289029954298
 20
206.16815450069859
 30
0.0
 11
279.74289029954298
 21
169.16815450069859
 31
0.0
  0
LINE
  5
2D1
  8
0
  6
CENTER
 10
279.74289029954298
 20
159.13246078962291
 30
0.0
 11
279.74289029954298
 21
126.1324607896229
 31
0.0
  0
LINE
  5
2D3
  8
0
  6
CENTER
 10
296.24289029954298
 20
142.63246078962291
 30
0.0
 11
263.24289029954292
 21
142.63246078962291
 31
0.0
  0
LINE
  5
2D5
  8
0
 10
286.67109329954297
 20
154.63246078962291
 30
0.0
 11
272.81468729954298
 21
154.63246078962291
 31
0.0
  0
LINE
  5
2D6
  8
0
 10
272.81468729954298
 20
130.63246078962291
 30
0.0
 11
286.67109329954297
 21
130.63246078962291
 31
0.0
  0
LINE
  5
2D7
  8
0
 10
286.67109329954297
 20
130.63246078962291
 30
0.0
 11
293.59929629954291
 21
142.63246078962291
 31
0.0
  0
LINE
  5
2DA
  8
0
 10
293.59929629954291
 20
142.63246078962291
 30
0.0
 11
286.67109329954297
 21
154.63246078962291
 31
0.0
  0
CIRCLE
  5
2DB
  8
0
 10
279.74289029954298
 20
142.63246078962291
 30
0.0
 40
15.0
  0
CIRCLE
  5
2DC
  8
0
 10
279.74289029954298
 20
142.63246078962291
 30
0.0
 40
12.0
  0
LINE
  5
2DD
  8
0
 10
272.81468729954298
 20
154.63246078962291
 30
0.0
 11
265.88648429954287
 21
142.63246078962291
 31
0.0
  0
LINE
  5
2DE
  8
0
 10
265.88648429954287
 20
142.63246078962291
 30
0.0
 11
272.81468729954298
 21
130.63246078962291
 31
0.0
  0
LINE
  5
2E0
  8
0
  6
CENTER
 10
231.7247587479242
 20
129.13246078962291
 30
0.0
 11
231.7247587479242
 21
156.13246078962291
 31
0.0
  0
LINE
  5
2E1
  8
0
  6
CENTER
 10
245.2247587479242
 20
142.63246078962291
 30
0.0
 11
218.2247587479242
 21
142.63246078962291
 31
0.0
  0
CIRCLE
  5
2E7
  8
0
 10
231.7247587479242
 20
142.63246078962291
 30
0.0
 40
12.0
  0
CIRCLE
  5
3B8
  8
0
 10
189.4500425969357
 20
142.63246078962291
 30
0.0
 40
8.0
  0
POLYLINE
  5
3B9
  8
0
 66
     1
 10
0.0
 20
0.0
 30
0.0
 70
     1
  0
VERTEX
  5
4CE
  8
0
 10
184.83124044341869
 20
150.63246078962291
 30
0.0
  0
VERTEX
  5
4CF
  8
0
 10
180.21243828990171
 20
142.63246078962291
 30
0.0
  0
VERTEX
  5
4D0
  8
0
 10
184.83124044341869
 20
134.63246078962291
 30
0.0
  0
VERTEX
  5
4D1
  8
0
 10
194.06884475045271
 20
134.63246078962291
 30
0.0
  0
VERTEX
  5
4D2
  8
0
 10
198.68764690396969
 20
142.63246078962291
 30
0.0
  0
VERTEX
  5
4D3
  8
0
 10
194.06884475045271
 20
150.63246078962291
 30
0.0
  0
SEQEND
  5
4D4
  8
0
  0
CIRCLE
  5
3BA
  8
0
 10
231.7247587479242
 20
142.63246078962291
 30
0.0
 40
9.0
  0
POLYLINE
  5
3BB
  8
0
 66
     1
 10
0.0
 20
0.0
 30
0.0
 70
     1
  0
VERTEX
  5
4D5
  8
0
 10
226.52860632521759
 20
151.63246078962291
 30
0.0
  0
VERTEX
  5
4D6
  8
0
 10
221.33245390251091
 20
142.63246078962291
 30
0.0
  0
VERTEX
  5
4D7
  8
0
 10
226.52860632521759
 20
133.63246078962291
 30
0.0
  0
VERTEX
  5
4D8
  8
0
 10
236.9209111706308
 20
133.63246078962291
 30
0.0
  0
VERTEX
  5
4D9
  8
0
 10
242.11706359333741
 20
142.63246078962291
 30
0.0
  0
VERTEX
  5
4DA
  8
0
 10
236.9209111706308
 20
151.63246078962291
 30
0.0
  0
SEQEND
  5
4DB
  8
0
  0
ARC
  5
441
  8
0
 10
154.43594562124099
 20
142.63246078962291
 30
0.0
 40
4.0
 50
90.0
 51
0.0
  0
CIRCLE
  5
443
  8
0
 10
189.4500425969357
 20
142.63246078962291
 30
0.0
 40
4.0
  0
ARC
  5
444
  8
0
 10
189.4500425969357
 20
142.63246078962291
 30
0.0
 40
5.0
 50
90.0
 51
0.0
  0
CIRCLE
  5
445
  8
0
 10
231.7247587479242
 20
142.63246078962291
 30
0.0
 40
5.0
  0
ARC
  5
446
  8
0
 10
231.7247587479242
 20
142.63246078962291
 30
0.0
 40
6.0
 50
90.0
 51
0.0
  0
CIRCLE
  5
485
  8
0
 10
279.74289029954298
 20
142.63246078962291
 30
0.0
 40
6.5
  0
ARC
  5
486
  8
0
 10
279.74289029954298
 20
142.63246078962291
 30
0.0
 40
8.0
 50
90.0
 51
0.0
  0
VIEWPORT
  5
8D
 67
     1
  8
0
 10
143.47825622558591
 20
99.980751991271987
 30
0.0
 40
339.12752973873143
 41
222.1965796813964
 68
     1
 69
     1
1001
ACAD
1000
MVIEW
1002
{
1070
    16
1010
0.0
1020
0.0
1030
0.0
1010
0.0
1020
0.0
1030
1.0
1040
0.0
1040
222.1965796813964
1040
143.47825622558591
1040
99.980751991271987
1040
50.0
1040
0.0
1040
0.0
1070
     0
1070
   100
1070
     1
1070
     1
1070
     0
1070
     0
1070
     0
1070
     0
1040
0.0
1040
0.0
1040
0.0
1040
10.0
1040
10.0
1040
10.0
1040
10.0
1070
     0
1002
{
1002
}
1002
}
  0
VIEWPORT
  5
8F
 67
     1
  8
0
 10
143.37242841720581
 20
99.874916553497314
 30
0.0
 40
229.3958854675293
 41
159.79986648559569
 68
     2
 69
     2
1001
ACAD
1000
MVIEW
1002
{
1070
    16
1010
0.0
1020
0.0
1030
0.0
1010
0.0
1020
0.0
1030
1.0
1040
0.0
1040
300.10452961672468
1040
210.0
1040
148.5
1040
50.0
1040
0.0
1040
0.0
1070
     0
1070
   100
1070
     1
1070
     2
1070
     0
1070
     0
1070
     0
1070
     0
1040
0.0
1040
0.0
1040
0.0
1040
10.0
1040
10.0
1040
10.0
1040
10.0
1070
     0
1002
{
1002
}
1002
}
  0
ENDSEC
  0
EOF
