  0
SECTION
  2
HEADER
  9
$ACADVER
  1
AC1009
  9
$INSBASE
 10
0.0
 20
0.0
 30
0.0
  9
$EXTMIN
 10
176.13392533680371
 20
-235.12028908867541
 30
0.0
  9
$EXTMAX
 10
1044.7299312074849
 20
9.9845251052228718
 30
0.0
  9
$LIMMIN
 10
0.0
 20
0.0
  9
$LIMMAX
 10
420.0
 20
297.0
  9
$ORTHOMODE
 70
     1
  9
$REGENMODE
 70
     1
  9
$FILLMODE
 70
     1
  9
$QTEXTMODE
 70
     0
  9
$MIRRTEXT
 70
     1
  9
$DRAGMODE
 70
     2
  9
$LTSCALE
 40
1.0
  9
$OSMODE
 70
    40
  9
$ATTMODE
 70
     1
  9
$TEXTSIZE
 40
2.5
  9
$TRACEWID
 40
1.0
  9
$TEXTSTYLE
  7
STANDARD
  9
$CLAYER
  8
0
  9
$CELTYPE
  6
BYLAYER
  9
$CECOLOR
 62
   256
  9
$DIMSCALE
 40
1.0
  9
$DIMASZ
 40
2.5
  9
$DIMEXO
 40
0.625
  9
$DIMDLI
 40
3.75
  9
$DIMRND
 40
0.0
  9
$DIMDLE
 40
0.0
  9
$DIMEXE
 40
1.25
  9
$DIMTP
 40
0.0
  9
$DIMTM
 40
0.0
  9
$DIMTXT
 40
2.5
  9
$DIMCEN
 40
2.5
  9
$DIMTSZ
 40
0.0
  9
$DIMTOL
 70
     0
  9
$DIMLIM
 70
     0
  9
$DIMTIH
 70
     1
  9
$DIMTOH
 70
     1
  9
$DIMSE1
 70
     0
  9
$DIMSE2
 70
     0
  9
$DIMTAD
 70
     1
  9
$DIMZIN
 70
     8
  9
$DIMBLK
  1

  9
$DIMASO
 70
     1
  9
$DIMSHO
 70
     1
  9
$DIMPOST
  1

  9
$DIMAPOST
  1

  9
$DIMALT
 70
     0
  9
$DIMALTD
 70
     3
  9
$DIMALTF
 40
0.03937007874016
  9
$DIMLFAC
 40
1.0
  9
$DIMTOFL
 70
     1
  9
$DIMTVP
 40
0.0
  9
$DIMTIX
 70
     0
  9
$DIMSOXD
 70
     0
  9
$DIMSAH
 70
     0
  9
$DIMBLK1
  1

  9
$DIMBLK2
  1

  9
$DIMSTYLE
  2
ISO-25
  9
$DIMCLRD
 70
     0
  9
$DIMCLRE
 70
     0
  9
$DIMCLRT
 70
     0
  9
$DIMTFAC
 40
1.0
  9
$DIMGAP
 40
0.625
  9
$LUNITS
 70
     2
  9
$LUPREC
 70
     4
  9
$SKETCHINC
 40
1.0
  9
$FILLETRAD
 40
10.0
  9
$AUNITS
 70
     0
  9
$AUPREC
 70
     0
  9
$MENU
  1
.
  9
$ELEVATION
 40
0.0
  9
$PELEVATION
 40
0.0
  9
$THICKNESS
 40
0.0
  9
$LIMCHECK
 70
     0
  9
$BLIPMODE
 70
     0
  9
$CHAMFERA
 40
1.5
  9
$CHAMFERB
 40
1.5
  9
$SKPOLY
 70
     0
  9
$TDCREATE
 40
2453307.377319409
  9
$TDUPDATE
 40
2453307.4862645371
  9
$TDINDWG
 40
0.1089464005
  9
$TDUSRTIMER
 40
0.1089462847
  9
$USRTIMER
 70
     1
  9
$ANGBASE
 50
0.0
  9
$ANGDIR
 70
     0
  9
$PDMODE
 70
     3
  9
$PDSIZE
 40
2.0
  9
$PLINEWID
 40
0.0
  9
$COORDS
 70
     0
  9
$SPLFRAME
 70
     0
  9
$SPLINETYPE
 70
     6
  9
$SPLINESEGS
 70
     8
  9
$ATTDIA
 70
     0
  9
$ATTREQ
 70
     1
  9
$HANDLING
 70
-16383
  9
$HANDSEED
  5
13ED
  9
$SURFTAB1
 70
     6
  9
$SURFTAB2
 70
     6
  9
$SURFTYPE
 70
     6
  9
$SURFU
 70
     6
  9
$SURFV
 70
     6
  9
$UCSNAME
  2

  9
$UCSORG
 10
0.0
 20
0.0
 30
0.0
  9
$UCSXDIR
 10
1.0
 20
0.0
 30
0.0
  9
$UCSYDIR
 10
0.0
 20
1.0
 30
0.0
  9
$PUCSNAME
  2

  9
$PUCSORG
 10
0.0
 20
0.0
 30
0.0
  9
$PUCSXDIR
 10
1.0
 20
0.0
 30
0.0
  9
$PUCSYDIR
 10
0.0
 20
1.0
 30
0.0
  9
$USERI1
 70
     0
  9
$USERI2
 70
     0
  9
$USERI3
 70
     0
  9
$USERI4
 70
     0
  9
$USERI5
 70
     0
  9
$USERR1
 40
0.0
  9
$USERR2
 40
0.0
  9
$USERR3
 40
0.0
  9
$USERR4
 40
0.0
  9
$USERR5
 40
0.0
  9
$WORLDVIEW
 70
     1
  9
$SHADEDGE
 70
     3
  9
$SHADEDIF
 70
    70
  9
$TILEMODE
 70
     1
  9
$MAXACTVP
 70
    64
  9
$PLIMCHECK
 70
     0
  9
$PEXTMIN
 10
28.674485683441159
 20
19.97498331069945
 30
0.0
  9
$PEXTMAX
 10
258.0703711509704
 20
179.77484979629509
 30
0.0
  9
$PLIMMIN
 10
-5.027069091796875
 20
-5.0270833969116211
  9
$PLIMMAX
 10
291.98358154296869
 20
204.98858737945551
  9
$UNITMODE
 70
     0
  9
$VISRETAIN
 70
     1
  9
$PLINEGEN
 70
     0
  9
$PSLTSCALE
 70
     1
  0
ENDSEC
  0
SECTION
  2
TABLES
  0
TABLE
  2
VPORT
 70
    44
  0
VPORT
  2
*ACTIVE
 70
     0
 10
0.0
 20
0.0
 11
1.0
 21
1.0
 12
610.43672849336008
 22
-112.5635948658953
 13
0.0
 23
0.0
 14
10.0
 24
10.0
 15
10.0
 25
10.0
 16
0.0
 26
0.0
 36
1.0
 17
0.0
 27
0.0
 37
0.0
 40
578.82801040553795
 41
1.508135168961201
 42
50.0
 43
0.0
 44
0.0
 50
0.0
 51
0.0
 71
     0
 72
   100
 73
     1
 74
     2
 75
     0
 76
     0
 77
     0
 78
     0
  0
ENDTAB
  0
TABLE
  2
LTYPE
 70
    66
  0
LTYPE
  2
CONTINUOUS
 70
     0
  3
Solid line
 72
    65
 73
     0
 40
0.0
  0
LTYPE
  2
CENTER
 70
     0
  3
Center (.5x) ___ _ ___ _ ___ _ ___ _ ___ _ ___
 72
    65
 73
     4
 40
28.574999999999989
 49
19.050000000000001
 49
-3.1749999999999989
 49
3.1749999999999989
 49
-3.1749999999999989
  0
LTYPE
  2
DASHED
 70
     0
  3
Dashed (.5x) _ _ _ _ _ _ _ _ _ _ _ _ _ _ _ _ _
 72
    65
 73
     2
 40
9.5249999999999986
 49
6.3499999999999988
 49
-3.1749999999999989
  0
ENDTAB
  0
TABLE
  2
LAYER
 70
    20
  0
LAYER
  2
0
 70
     0
 62
     7
  6
CONTINUOUS
  0
ENDTAB
  0
TABLE
  2
STYLE
 70
    19
  0
STYLE
  2
STANDARD
 70
     0
 40
0.0
 41
1.0
 50
0.0
 71
     0
 42
2.5
  3
txt
  4

  0
ENDTAB
  0
TABLE
  2
VIEW
 70
     0
  0
ENDTAB
  0
TABLE
  2
UCS
 70
     0
  0
ENDTAB
  0
TABLE
  2
APPID
 70
     8
  0
APPID
  2
ACAD
 70
     0
  0
APPID
  2
GENIUS_GENODEF_13
 70
     0
  0
APPID
  2
GENIUS_GENOBJ-N-CEN_13
 70
     0
  0
APPID
  2
GENIUS_GENOBJ-N-FIL_13
 70
     0
  0
APPID
  2
GENIUS_GENOLIS_13
 70
     0
  0
APPID
  2
GENIUS_GENOENT_13
 70
     0
  0
APPID
  2
GENIUS_GENOBJ-N-CRS_13
 70
     0
  0
APPID
  2
GENIUS_GENOREF_13
 70
     0
  0
ENDTAB
  0
TABLE
  2
DIMSTYLE
 70
    46
  0
DIMSTYLE
  2
ISO-25
 70
     0
  3

  4

  5

  6

  7

 40
1.0
 41
2.5
 42
0.625
 43
3.75
 44
1.25
 45
0.0
 46
0.0
 47
0.0
 48
0.0
140
2.5
141
2.5
142
0.0
143
0.03937007874016
144
1.0
145
0.0
146
1.0
147
0.625
 71
     0
 72
     0
 73
     1
 74
     1
 75
     0
 76
     0
 77
     1
 78
     8
170
     0
171
     3
172
     1
173
     0
174
     0
175
     0
176
     0
177
     0
178
     0
  0
ENDTAB
  0
ENDSEC
  0
SECTION
  2
BLOCKS
  0
BLOCK
  8
0
  2
$MODEL_SPACE
 70
     0
 10
0.0
 20
0.0
 30
0.0
  3
$MODEL_SPACE
  1

  0
ENDBLK
  5
21
  8
0
  0
BLOCK
 67
     1
  8
0
  2
$PAPER_SPACE
 70
     0
 10
0.0
 20
0.0
 30
0.0
  3
$PAPER_SPACE
  1

  0
ENDBLK
  5
53
 67
     1
  8
0
  0
ENDSEC
  0
SECTION
  2
ENTITIES
  0
LINE
  5
115
  8
0
  6
CENTER
 10
176.13392533680371
 20
-182.12028908867549
 30
0.0
 11
232.1339253368015
 21
-182.12028908867549
 31
0.0
1001
GENIUS_GENOREF_13
1005
0
  0
CIRCLE
  5
116
  8
0
 10
204.1339253368026
 20
-182.12028908867549
 30
0.0
 40
24.999999999998948
  0
LINE
  5
117
  8
0
  6
CENTER
 10
204.1339253368026
 20
-154.12028908867649
 30
0.0
 11
204.1339253368026
 21
-210.12028908867441
 31
0.0
1001
GENIUS_GENOREF_13
1005
0
  0
CIRCLE
  5
11B
  8
0
 10
204.1339253368026
 20
-182.12028908867549
 30
0.0
 40
8.0
1001
GENIUS_GENOREF_13
1005
0
  0
LINE
  5
124
  8
0
 10
180.57174751030729
 20
-106.79856090721449
 30
0.0
 11
227.69610316328911
 21
-106.79856090721449
 31
0.0
  0
LINE
  5
125
  8
0
 10
179.13392533679831
 20
-103.29856090721439
 30
0.0
 11
229.13392533679831
 21
-103.29856090721439
 31
0.0
  0
LINE
  5
126
  8
0
 10
187.13392533679831
 20
-92.298560907214494
 30
0.0
 11
221.13392533679831
 21
-92.298560907214494
 31
0.0
  0
ARC
  5
127
  8
0
 10
187.13392533679831
 20
-100.29856090721439
 30
0.0
 40
8.0
 50
90.0
 51
180.0
1001
GENIUS_GENOBJ-N-FIL_13
1002
{
1000
OWNER
1000
GEN
1002
}
1001
GENIUS_GENODEF_13
1002
{
1000
HIER
1070
     0
1002
}
1002
{
1000
MANEDIT
1070
     0
1002
}
1002
{
1000
NOSEL
1070
     0
1002
}
1002
{
1000
BEHIND
1070
     0
1002
}
1002
{
1000
OTHER
1070
     0
1002
}
1002
{
1000
REACTOR
1002
}
  0
LINE
  5
128
  8
0
 10
179.13392533679831
 20
-103.29856090721439
 30
0.0
 11
179.13392533679831
 21
-100.29856090721439
 31
0.0
  0
LINE
  5
129
  8
0
 10
179.63392533679831
 20
-103.29856090721439
 30
0.0
 11
180.57174751030729
 21
-106.79856090721449
 31
0.0
  0
LINE
  5
12A
  8
0
  6
CENTER
 10
204.1339253367972
 20
0.2014390927834313
 30
0.0
 11
204.1339253367999
 21
-109.79856090721449
 31
0.0
1001
GENIUS_GENOBJ-N-CEN_13
1002
{
1000
OWNER
1000
GEN
1002
}
1001
GENIUS_GENODEF_13
1002
{
1000
HIER
1070
     0
1002
}
1002
{
1000
MANEDIT
1070
     0
1002
}
1002
{
1000
NOSEL
1070
     0
1002
}
1002
{
1000
BEHIND
1070
     0
1002
}
1002
{
1000
OTHER
1070
     0
1002
}
1002
{
1000
REACTOR
1002
}
  0
ARC
  5
12B
  8
0
 10
204.13392533679709
 20
-97.463712297126392
 30
0.0
 40
10.00000000000027
 50
37.822123668935028
 51
49.458398126497258
  0
ARC
  5
12C
  8
0
 10
204.1339253367976
 20
-97.463712297126392
 30
0.0
 40
10.00000000000027
 50
130.54160187350271
 51
142.17787633106491
  0
ARC
  5
12D
  8
0
 10
221.13392533679831
 20
-100.29856090721439
 30
0.0
 40
8.0
 50
0.0
 51
90.0
1001
GENIUS_GENOBJ-N-FIL_13
1002
{
1000
OWNER
1000
GEN
1002
}
1001
GENIUS_GENODEF_13
1002
{
1000
HIER
1070
     0
1002
}
1002
{
1000
MANEDIT
1070
     0
1002
}
1002
{
1000
NOSEL
1070
     0
1002
}
1002
{
1000
BEHIND
1070
     0
1002
}
1002
{
1000
OTHER
1070
     0
1002
}
1002
{
1000
REACTOR
1002
}
  0
ARC
  5
12F
  8
0
 10
194.259946697478
 20
-89.798560907214494
 30
0.0
 40
2.5
 50
270.0
 51
322.17787633106491
1001
GENIUS_GENODEF_13
1002
{
1000
HIER
1070
     0
1002
}
1002
{
1000
MANEDIT
1070
     0
1002
}
1002
{
1000
NOSEL
1070
     0
1002
}
1002
{
1000
BEHIND
1070
     0
1002
}
1002
{
1000
OTHER
1070
     0
1002
}
1002
{
1000
REACTOR
1002
}
1001
GENIUS_GENOBJ-N-FIL_13
1002
{
1000
OWNER
1000
GEN
1002
}
  0
ARC
  5
130
  8
0
 10
214.00790397611669
 20
-89.798560907214494
 30
0.0
 40
2.5
 50
217.82212366893501
 51
270.0
1001
GENIUS_GENODEF_13
1002
{
1000
HIER
1070
     0
1002
}
1002
{
1000
MANEDIT
1070
     0
1002
}
1002
{
1000
NOSEL
1070
     0
1002
}
1002
{
1000
BEHIND
1070
     0
1002
}
1002
{
1000
OTHER
1070
     0
1002
}
1002
{
1000
REACTOR
1002
}
1001
GENIUS_GENOBJ-N-FIL_13
1002
{
1000
OWNER
1000
GEN
1002
}
  0
LINE
  5
131
  8
0
 10
229.13392533679831
 20
-103.29856090721439
 30
0.0
 11
229.13392533679831
 21
-100.29856090721439
 31
0.0
  0
LINE
  5
132
  8
0
 10
228.63392533679831
 20
-103.29856090721439
 30
0.0
 11
227.69610316328911
 21
-106.79856090721449
 31
0.0
  0
LINE
  5
133
  8
0
 10
212.1339253367974
 20
-3.7985609072165678
 30
0.0
 11
212.13392533679729
 21
-57.798560907216448
 31
0.0
  0
LINE
  5
135
  8
0
 10
196.13392533679729
 20
-3.7985609072165678
 30
0.0
 11
196.13392533679749
 21
-57.798560907216448
 31
0.0
  0
LINE
  5
137
  8
0
 10
198.84242271466991
 20
-77.798560907214551
 30
0.0
 11
209.42542795892831
 21
-77.798560907214551
 31
0.0
  0
LINE
  5
13A
  8
0
 10
197.1339253367978
 20
-89.86437022034076
 30
0.0
 11
211.1339253367974
 21
-89.864370220341357
 31
0.0
  0
LINE
  5
13C
  8
0
 10
209.42542795892831
 20
-83.798564610154301
 30
0.0
 11
198.84242271466991
 21
-83.798564610154301
 31
0.0
  0
LINE
  5
13E
  8
0
 10
196.13392533679749
 20
-57.798560907216448
 30
0.0
 11
196.1339253367976
 21
-85.798560907216597
 31
0.0
  0
LINE
  5
13F
  8
0
 10
198.84242271466991
 20
-77.798560907214551
 30
0.0
 11
198.13392533679919
 21
-78.507058285085407
 31
0.0
  0
LINE
  5
140
  8
0
 10
198.84242271466991
 20
-83.798564610154187
 30
0.0
 11
198.13392533679911
 21
-83.090067232283502
 31
0.0
  0
LINE
  5
141
  8
0
 10
198.13392533679919
 20
-78.507058285085407
 30
0.0
 11
198.13392533679911
 21
-83.090067232283502
 31
0.0
  0
LINE
  5
143
  8
0
 10
196.1339253367976
 20
-85.798560907216597
 30
0.0
 11
196.13392533679769
 21
-88.864370220340732
 31
0.0
  0
LINE
  5
148
  8
0
 10
212.13392533679729
 20
-57.798560907216448
 30
0.0
 11
212.13392533679769
 21
-85.798560907216597
 31
0.0
  0
LINE
  5
14A
  8
0
 10
210.133925336799
 20
-78.507058285085293
 30
0.0
 11
210.13392533679911
 21
-83.090067232283388
 31
0.0
  0
LINE
  5
14B
  8
0
 10
209.4254279589284
 20
-83.798564610154187
 30
0.0
 11
210.13392533679911
 21
-83.090067232283388
 31
0.0
  0
LINE
  5
14E
  8
0
 10
212.13392533679769
 20
-85.798560907216597
 30
0.0
 11
212.1339253367974
 21
-88.864370220341414
 31
0.0
  0
LINE
  5
14F
  8
0
 10
209.42542795892831
 20
-77.798560907214551
 30
0.0
 11
210.133925336799
 21
-78.507058285085293
 31
0.0
  0
ARC
  5
150
  8
0
  6
DASHED
 10
207.59892533679741
 20
-9.3137692458641936
 30
0.0
 40
1.881125003188632
 50
232.121120508281
 51
292.12112050828182
  0
LINE
  5
151
  8
0
  6
DASHED
 10
208.75392533679749
 20
-10.79856090721657
 30
0.0
 11
204.13392533679749
 21
-13.46591915087259
 31
0.0
  0
LINE
  5
153
  8
0
 10
197.13392533679729
 20
-2.7985609072165678
 30
0.0
 11
211.1339253367974
 21
-2.7985609072165678
 31
0.0
  0
LINE
  5
155
  8
0
  6
DASHED
 10
206.44392533679741
 20
-2.7985609072165678
 30
0.0
 11
206.44392533679741
 21
-10.79856090721657
 31
0.0
  0
LINE
  5
156
  8
0
  6
DASHED
 10
201.8239253367974
 20
-2.7985609072165678
 30
0.0
 11
201.8239253367974
 21
-10.79856090721657
 31
0.0
  0
LINE
  5
157
  8
0
  6
DASHED
 10
199.51392533679731
 20
-2.7985609072165678
 30
0.0
 11
199.51392533679731
 21
-10.79856090721657
 31
0.0
  0
ARC
  5
158
  8
0
  6
DASHED
 10
204.13392533679749
 20
-4.2648942490528716
 30
0.0
 40
6.9299999999999971
 50
250.5287793655101
 51
289.47122063448933
  0
LINE
  5
159
  8
0
  6
DASHED
 10
199.51392533679731
 20
-10.79856090721657
 30
0.0
 11
204.13392533679749
 21
-13.46591915087259
 31
0.0
  0
ARC
  5
15A
  8
0
  6
DASHED
 10
200.66892533679751
 20
-9.3137692458642771
 30
0.0
 40
1.881125003188632
 50
247.87887949171659
 51
307.87887949171773
  0
LINE
  5
15B
  8
0
  6
DASHED
 10
208.75392533679749
 20
-2.7985609072165678
 30
0.0
 11
208.75392533679749
 21
-10.79856090721657
 31
0.0
  0
LINE
  5
1B6
  8
0
 10
211.1339253367974
 20
-89.864370220341357
 30
0.0
 11
212.1339253367974
 21
-88.864370220341414
 31
0.0
  0
LINE
  5
1B7
  8
0
 10
197.1339253367978
 20
-89.86437022034076
 30
0.0
 11
196.13392533679769
 21
-88.864370220340732
 31
0.0
  0
LINE
  5
1B8
  8
0
 10
197.13392533679729
 20
-2.7985609072165678
 30
0.0
 11
196.13392533679729
 21
-3.7985609072165678
 31
0.0
  0
LINE
  5
1B9
  8
0
 10
211.1339253367974
 20
-2.7985609072165678
 30
0.0
 11
212.1339253367974
 21
-3.7985609072165678
 31
0.0
  0
LINE
  5
1BA
  8
0
 10
197.13392533679729
 20
-2.7985609072165678
 30
0.0
 11
197.1339253367978
 21
-89.86437022034076
 31
0.0
  0
LINE
  5
1BB
  8
0
 10
211.13392533679769
 20
-2.7985609072165678
 30
0.0
 11
211.1339253367972
 21
-89.86437022034076
 31
0.0
  0
LINE
  5
1BC
  8
0
 10
196.13392533679769
 20
-88.864370220340732
 30
0.0
 11
212.1339253367974
 21
-88.864370220341414
 31
0.0
  0
LINE
  5
1BD
  8
0
 10
196.13392533679729
 20
-3.7985609072165678
 30
0.0
 11
212.1339253367974
 21
-3.7985609072165678
 31
0.0
  0
POLYLINE
  5
1BF
  8
0
 66
     1
 10
0.0
 20
0.0
 30
0.0
 70
     1
  0
VERTEX
  5
13B5
  8
0
 10
201.82452426004409
 20
-178.12028908867541
 30
0.0
  0
VERTEX
  5
13B6
  8
0
 10
199.5151231832856
 20
-182.12028908867549
 30
0.0
  0
VERTEX
  5
13B7
  8
0
 10
201.82452426004409
 20
-186.12028908867549
 30
0.0
  0
VERTEX
  5
13B8
  8
0
 10
206.4433264135611
 20
-186.12028908867549
 30
0.0
  0
VERTEX
  5
13B9
  8
0
 10
208.75272749031959
 20
-182.12028908867549
 30
0.0
  0
VERTEX
  5
13BA
  8
0
 10
206.4433264135611
 20
-178.12028908867541
 30
0.0
  0
SEQEND
  5
13BB
  8
0
  0
ARC
  5
1C1
  8
0
 10
204.1339253368026
 20
-182.12028908867549
 30
0.0
 40
7.0
 50
90.0
 51
0.0
1001
GENIUS_GENOREF_13
1005
0
  0
ARC
  5
217
  8
0
 10
204.13392533679911
 20
-88.568890521483553
 30
0.0
 40
12.0
 50
63.834943482164739
 51
116.1650565178351
  0
ARC
  5
218
  8
0
 10
204.13392533679911
 20
-73.028234995885356
 30
0.0
 40
12.0
 50
243.83494348216479
 51
296.16505651783518
  0
ARC
  5
41C
  8
0
 10
279.02546333570513
 20
-98.883993685534392
 30
0.0
 40
8.0858888099284325
 50
90.608517765344132
 51
180.10322189589979
1001
GENIUS_GENOBJ-N-FIL_13
1002
{
1000
OWNER
1000
GEN
1002
}
1001
GENIUS_GENODEF_13
1002
{
1000
HIER
1070
     0
1002
}
1002
{
1000
MANEDIT
1070
     0
1002
}
1002
{
1000
NOSEL
1070
     0
1002
}
1002
{
1000
BEHIND
1070
     0
1002
}
1002
{
1000
OTHER
1070
     0
1002
}
1002
{
1000
REACTOR
1002
}
  0
LINE
  5
41F
  8
0
 10
270.93958764765642
 20
-102.79856090721459
 30
0.0
 11
270.9395876476562
 21
-98.898560907214602
 31
0.0
  0
LINE
  5
420
  8
0
 10
278.93958764765631
 20
-90.798560907214608
 30
0.0
 11
323.13958764764868
 21
-90.798560907214608
 31
0.0
  0
ARC
  5
435
  8
0
 10
323.1248641663426
 20
-98.713725345012335
 30
0.0
 40
7.915178131809756
 50
359.3858871329075
 51
89.893420740317964
1001
GENIUS_GENOBJ-N-FIL_13
1002
{
1000
OWNER
1000
GEN
1002
}
1001
GENIUS_GENODEF_13
1002
{
1000
HIER
1070
     0
1002
}
1002
{
1000
MANEDIT
1070
     0
1002
}
1002
{
1000
NOSEL
1070
     0
1002
}
1002
{
1000
BEHIND
1070
     0
1002
}
1002
{
1000
OTHER
1070
     0
1002
}
1002
{
1000
REACTOR
1002
}
  0
LINE
  5
436
  8
0
 10
331.03958764765622
 20
-102.79856090721459
 30
0.0
 11
331.03958764765622
 21
-98.798560907214593
 31
0.0
  0
CIRCLE
  5
448
  8
0
 10
301.03958764765628
 20
-182.12028908867549
 30
0.0
 40
30.0
  0
LINE
  5
449
  8
0
  6
CENTER
 10
334.03958764765628
 20
-182.12028908867549
 30
0.0
 11
268.03958764765628
 21
-182.12028908867549
 31
0.0
1001
GENIUS_GENOREF_13
1005
0
  0
LINE
  5
451
  8
0
  6
CENTER
 10
301.03958764765628
 20
-149.12028908867541
 30
0.0
 11
301.03958764765628
 21
-215.12028908867549
 31
0.0
1001
GENIUS_GENOREF_13
1005
0
  0
LINE
  5
457
  8
0
  6
CENTER
 10
301.0395876476536
 20
1.1356297796587
 30
0.0
 11
301.03958764765639
 21
-109.79856090721449
 31
0.0
1001
GENIUS_GENOBJ-N-CEN_13
1002
{
1000
OWNER
1000
GEN
1002
}
1001
GENIUS_GENODEF_13
1002
{
1000
HIER
1070
     0
1002
}
1002
{
1000
MANEDIT
1070
     0
1002
}
1002
{
1000
NOSEL
1070
     0
1002
}
1002
{
1000
BEHIND
1070
     0
1002
}
1002
{
1000
OTHER
1070
     0
1002
}
1002
{
1000
REACTOR
1002
}
  0
ARC
  5
50D
  8
0
 10
301.03958764765628
 20
-182.12028908867549
 30
0.0
 40
7.0
 50
90.0
 51
0.0
1001
GENIUS_GENOREF_13
1005
0
  0
POLYLINE
  5
50E
  8
0
 66
     1
 10
0.0
 20
0.0
 30
0.0
 70
     1
  0
VERTEX
  5
13BC
  8
0
 10
298.73018657089779
 20
-178.12028908867541
 30
0.0
  0
VERTEX
  5
13BD
  8
0
 10
296.42078549413918
 20
-182.12028908867549
 30
0.0
  0
VERTEX
  5
13BE
  8
0
 10
298.73018657089779
 20
-186.12028908867549
 30
0.0
  0
VERTEX
  5
13BF
  8
0
 10
303.34898872441482
 20
-186.12028908867549
 30
0.0
  0
VERTEX
  5
13C0
  8
0
 10
305.65838980117331
 20
-182.12028908867549
 30
0.0
  0
VERTEX
  5
13C1
  8
0
 10
303.34898872441482
 20
-178.12028908867541
 30
0.0
  0
SEQEND
  5
13C2
  8
0
  0
CIRCLE
  5
510
  8
0
 10
301.03958764765628
 20
-182.12028908867549
 30
0.0
 40
8.0
1001
GENIUS_GENOREF_13
1005
0
  0
LINE
  5
53A
  8
0
 10
308.03958764765412
 20
-1.798560907216483
 30
0.0
 11
308.0395876476536
 21
-88.364370220340675
 31
0.0
  0
LINE
  5
53B
  8
0
 10
294.03958764765372
 20
-1.798560907216483
 30
0.0
 11
294.03958764765417
 21
-88.364370220340675
 31
0.0
  0
LINE
  5
53C
  8
0
 10
309.03958764765378
 20
-2.798560907216483
 30
0.0
 11
309.03958764765378
 21
-56.79856090721637
 31
0.0
  0
LINE
  5
53D
  8
0
 10
293.03958764765372
 20
-2.798560907216483
 30
0.0
 11
293.03958764765378
 21
-56.79856090721637
 31
0.0
  0
LINE
  5
53E
  8
0
 10
293.03958764765412
 20
-87.364370220340618
 30
0.0
 11
309.03958764765378
 21
-87.364370220341286
 31
0.0
  0
LINE
  5
53F
  8
0
 10
294.03958764765417
 20
-88.364370220340675
 30
0.0
 11
308.03958764765378
 21
-88.364370220341272
 31
0.0
  0
LINE
  5
540
  8
0
 10
295.74808502552628
 20
-76.798560907214437
 30
0.0
 11
306.3310902697848
 21
-76.798560907214437
 31
0.0
  0
ARC
  5
541
  8
0
 10
301.03958764765548
 20
-72.028234995885271
 30
0.0
 40
12.0
 50
243.83494348216479
 51
296.16505651783518
  0
ARC
  5
542
  8
0
 10
301.03958764765548
 20
-87.568890521483468
 30
0.0
 40
12.0
 50
63.834943482164739
 51
116.1650565178351
  0
LINE
  5
543
  8
0
 10
306.3310902697848
 20
-82.798564610154173
 30
0.0
 11
295.74808502552628
 21
-82.798564610154173
 31
0.0
  0
LINE
  5
544
  8
0
 10
293.03958764765378
 20
-56.79856090721637
 30
0.0
 11
293.039587647654
 21
-84.798560907216483
 31
0.0
  0
LINE
  5
545
  8
0
 10
295.74808502552628
 20
-76.798560907214437
 30
0.0
 11
295.03958764765559
 21
-77.507058285085293
 31
0.0
  0
LINE
  5
546
  8
0
 10
295.74808502552628
 20
-82.798564610154074
 30
0.0
 11
295.03958764765559
 21
-82.090067232283388
 31
0.0
  0
LINE
  5
547
  8
0
 10
293.039587647654
 20
-84.798560907216483
 30
0.0
 11
293.03958764765412
 21
-87.364370220340618
 31
0.0
  0
ARC
  5
548
  8
0
 10
291.1656090083344
 20
-88.29856090721438
 30
0.0
 40
2.5
 50
270.0
 51
322.17787633106491
1001
GENIUS_GENODEF_13
1002
{
1000
HIER
1070
     0
1002
}
1002
{
1000
MANEDIT
1070
     0
1002
}
1002
{
1000
NOSEL
1070
     0
1002
}
1002
{
1000
BEHIND
1070
     0
1002
}
1002
{
1000
OTHER
1070
     0
1002
}
1002
{
1000
REACTOR
1002
}
1001
GENIUS_GENOBJ-N-FIL_13
1002
{
1000
OWNER
1000
GEN
1002
}
  0
ARC
  5
549
  8
0
 10
301.039587647654
 20
-95.963712297126278
 30
0.0
 40
10.00000000000027
 50
130.54160187350271
 51
142.17787633106491
  0
LINE
  5
54A
  8
0
 10
294.03958764765417
 20
-88.364370220340675
 30
0.0
 11
293.03958764765412
 21
-87.364370220340618
 31
0.0
  0
LINE
  5
54B
  8
0
 10
295.03958764765559
 20
-77.507058285085293
 30
0.0
 11
295.03958764765559
 21
-82.090067232283388
 31
0.0
  0
LINE
  5
54C
  8
0
 10
309.03958764765378
 20
-56.79856090721637
 30
0.0
 11
309.03958764765412
 21
-84.798560907216483
 31
0.0
  0
LINE
  5
54D
  8
0
 10
306.33109026978468
 20
-76.798560907214437
 30
0.0
 11
307.03958764765542
 21
-77.507058285085179
 31
0.0
  0
LINE
  5
54E
  8
0
 10
309.03958764765412
 20
-84.798560907216483
 30
0.0
 11
309.03958764765378
 21
-87.364370220341286
 31
0.0
  0
ARC
  5
54F
  8
0
 10
301.03958764765349
 20
-95.963712297126278
 30
0.0
 40
10.00000000000027
 50
37.822123668935028
 51
49.458398126497258
  0
ARC
  5
550
  8
0
 10
310.91356628697309
 20
-88.29856090721438
 30
0.0
 40
2.5
 50
217.82212366893501
 51
270.0
1001
GENIUS_GENODEF_13
1002
{
1000
HIER
1070
     0
1002
}
1002
{
1000
MANEDIT
1070
     0
1002
}
1002
{
1000
NOSEL
1070
     0
1002
}
1002
{
1000
BEHIND
1070
     0
1002
}
1002
{
1000
OTHER
1070
     0
1002
}
1002
{
1000
REACTOR
1002
}
1001
GENIUS_GENOBJ-N-FIL_13
1002
{
1000
OWNER
1000
GEN
1002
}
  0
LINE
  5
551
  8
0
 10
308.03958764765378
 20
-88.364370220341272
 30
0.0
 11
309.03958764765378
 21
-87.364370220341286
 31
0.0
  0
LINE
  5
552
  8
0
 10
307.03958764765542
 20
-77.507058285085179
 30
0.0
 11
307.03958764765559
 21
-82.090067232283275
 31
0.0
  0
LINE
  5
553
  8
0
 10
306.33109026978491
 20
-82.798564610154074
 30
0.0
 11
307.03958764765559
 21
-82.090067232283275
 31
0.0
  0
LINE
  5
554
  8
0
  6
DASHED
 10
305.65958764765389
 20
-9.7985609072164834
 30
0.0
 11
301.03958764765389
 21
-12.46591915087248
 31
0.0
  0
ARC
  5
555
  8
0
  6
DASHED
 10
304.50458764765381
 20
-8.3137692458640782
 30
0.0
 40
1.881125003188632
 50
232.121120508281
 51
292.12112050828182
  0
LINE
  5
556
  8
0
 10
293.03958764765372
 20
-2.798560907216483
 30
0.0
 11
309.03958764765378
 21
-2.798560907216483
 31
0.0
  0
LINE
  5
557
  8
0
 10
294.03958764765372
 20
-1.798560907216483
 30
0.0
 11
308.03958764765378
 21
-1.798560907216483
 31
0.0
  0
LINE
  5
558
  8
0
 10
294.03958764765372
 20
-1.798560907216483
 30
0.0
 11
293.03958764765372
 21
-2.798560907216483
 31
0.0
  0
LINE
  5
559
  8
0
  6
DASHED
 10
296.41958764765371
 20
-9.7985609072164834
 30
0.0
 11
301.03958764765389
 21
-12.46591915087248
 31
0.0
  0
ARC
  5
55A
  8
0
  6
DASHED
 10
301.03958764765389
 20
-3.2648942490527579
 30
0.0
 40
6.9299999999999971
 50
250.5287793655101
 51
289.47122063448933
  0
ARC
  5
55B
  8
0
  6
DASHED
 10
297.57458764765391
 20
-8.3137692458641936
 30
0.0
 40
1.881125003188632
 50
247.87887949171659
 51
307.87887949171773
  0
LINE
  5
55C
  8
0
  6
DASHED
 10
296.41958764765371
 20
-1.798560907216483
 30
0.0
 11
296.41958764765371
 21
-9.7985609072164834
 31
0.0
  0
LINE
  5
55D
  8
0
  6
DASHED
 10
298.72958764765377
 20
-1.798560907216483
 30
0.0
 11
298.72958764765377
 21
-9.7985609072164834
 31
0.0
  0
LINE
  5
55E
  8
0
  6
DASHED
 10
303.34958764765378
 20
-1.798560907216483
 30
0.0
 11
303.34958764765378
 21
-9.7985609072164834
 31
0.0
  0
LINE
  5
55F
  8
0
  6
DASHED
 10
305.65958764765389
 20
-1.798560907216483
 30
0.0
 11
305.65958764765389
 21
-9.7985609072164834
 31
0.0
  0
LINE
  5
560
  8
0
 10
308.03958764765378
 20
-1.798560907216483
 30
0.0
 11
309.03958764765378
 21
-2.798560907216483
 31
0.0
  0
LINE
  5
797
  8
0
 10
272.03958764765622
 20
-106.79856090721459
 30
0.0
 11
330.03958764765611
 21
-106.79856090721459
 31
0.0
  0
LINE
  5
798
  8
0
 10
270.93958764765631
 20
-102.79856090721459
 30
0.0
 11
331.03958764765622
 21
-102.79856090721459
 31
0.0
  0
LINE
  5
79E
  8
0
 10
271.43958764765642
 20
-102.79856090721459
 30
0.0
 11
272.03958764765622
 21
-106.79856090721459
 31
0.0
  0
LINE
  5
79F
  8
0
 10
330.63958764765601
 20
-102.79856090721459
 30
0.0
 11
330.03958764765611
 21
-106.79856090721459
 31
0.0
  0
CIRCLE
  5
89A
  8
0
 10
414.7932833049843
 20
-182.12028908867549
 30
0.0
 40
40.0
  0
LINE
  5
8B0
  8
0
 10
452.9535373428285
 20
-106.79856090721459
 30
0.0
 11
376.6330292671397
 21
-106.79856090721459
 31
0.0
  0
LINE
  5
8B2
  8
0
 10
454.79328330498402
 20
-101.7985609072156
 30
0.0
 11
374.79328330498419
 21
-101.7985609072136
 31
0.0
  0
ARC
  5
8B6
  8
0
 10
383.79328330498419
 20
-97.798560907214224
 30
0.0
 40
9.0
 50
90.0
 51
180.0
1001
GENIUS_GENOBJ-N-FIL_13
1002
{
1000
OWNER
1000
GEN
1002
}
1001
GENIUS_GENODEF_13
1002
{
1000
HIER
1070
     0
1002
}
1002
{
1000
MANEDIT
1070
     0
1002
}
1002
{
1000
NOSEL
1070
     0
1002
}
1002
{
1000
BEHIND
1070
     0
1002
}
1002
{
1000
OTHER
1070
     0
1002
}
1002
{
1000
REACTOR
1002
}
  0
LINE
  5
8B7
  8
0
 10
375.29328330498407
 20
-101.79856090721459
 30
0.0
 11
376.6330292671397
 21
-106.79856090721459
 31
0.0
  0
LINE
  5
8B8
  8
0
 10
374.79328330498419
 20
-97.798560907214224
 30
0.0
 11
374.79328330498419
 21
-101.79856090721459
 31
0.0
  0
LINE
  5
8B9
  8
0
 10
383.79328330498419
 20
-88.798560907214636
 30
0.0
 11
445.79328330498441
 21
-88.798560907214636
 31
0.0
  0
ARC
  5
8BF
  8
0
 10
445.79328330498441
 20
-97.798560907214636
 30
0.0
 40
9.0
 50
0.0
 51
90.0
1001
GENIUS_GENOBJ-N-FIL_13
1002
{
1000
OWNER
1000
GEN
1002
}
1001
GENIUS_GENODEF_13
1002
{
1000
HIER
1070
     0
1002
}
1002
{
1000
MANEDIT
1070
     0
1002
}
1002
{
1000
NOSEL
1070
     0
1002
}
1002
{
1000
BEHIND
1070
     0
1002
}
1002
{
1000
OTHER
1070
     0
1002
}
1002
{
1000
REACTOR
1002
}
  0
LINE
  5
8C3
  8
0
 10
454.29328330498407
 20
-101.79856090721459
 30
0.0
 11
452.9535373428285
 21
-106.79856090721459
 31
0.0
  0
LINE
  5
8C4
  8
0
 10
454.7932833049843
 20
-97.798560907214636
 30
0.0
 11
454.7932833049843
 21
-101.79856090721459
 31
0.0
  0
LINE
  5
97C
  8
0
 10
422.79328330498208
 20
-0.7985609072164835
 30
0.0
 11
422.79328330498208
 21
-54.79856090721637
 31
0.0
  0
LINE
  5
97D
  8
0
 10
421.79328330498242
 20
0.2014390927835166
 30
0.0
 11
421.79328330498191
 21
-86.364370220340675
 31
0.0
  0
LINE
  5
97E
  8
0
 10
406.79328330498208
 20
-0.7985609072164835
 30
0.0
 11
406.79328330498208
 21
-54.79856090721637
 31
0.0
  0
LINE
  5
97F
  8
0
 10
407.79328330498203
 20
0.2014390927835166
 30
0.0
 11
407.79328330498248
 21
-86.364370220340675
 31
0.0
  0
LINE
  5
980
  8
0
 10
420.79328330498367
 20
-75.507058285085236
 30
0.0
 11
420.7932833049839
 21
-80.090067232283332
 31
0.0
  0
LINE
  5
981
  8
0
 10
408.7932833049839
 20
-75.50705828508535
 30
0.0
 11
408.7932833049839
 21
-80.090067232283445
 31
0.0
  0
LINE
  5
982
  8
0
 10
422.79328330498208
 20
-54.79856090721637
 30
0.0
 11
422.79328330498242
 21
-82.79856090721654
 31
0.0
  0
LINE
  5
983
  8
0
 10
406.79328330498208
 20
-54.79856090721637
 30
0.0
 11
406.7932833049822
 21
-82.79856090721654
 31
0.0
  0
LINE
  5
984
  8
0
 10
406.79328330498242
 20
-85.364370220340646
 30
0.0
 11
422.7932833049822
 21
-85.364370220341357
 31
0.0
  0
LINE
  5
985
  8
0
 10
407.79328330498248
 20
-86.364370220340675
 30
0.0
 11
421.79328330498208
 21
-86.364370220341286
 31
0.0
  0
LINE
  5
986
  8
0
 10
420.0847859271131
 20
-80.798564610154244
 30
0.0
 11
409.50178068285459
 21
-80.798564610154244
 31
0.0
  0
ARC
  5
987
  8
0
 10
414.79328330498379
 20
-70.028234995885271
 30
0.0
 40
12.0
 50
243.83494348216479
 51
296.16505651783518
  0
ARC
  5
988
  8
0
 10
414.7932833049822
 20
-93.963712297126335
 30
0.0
 40
10.00000000000027
 50
130.54160187350271
 51
142.17787633106491
  0
ARC
  5
989
  8
0
 10
404.91930466566259
 20
-86.298560907214437
 30
0.0
 40
2.5
 50
270.0
 51
322.17787633106491
1001
GENIUS_GENODEF_13
1002
{
1000
HIER
1070
     0
1002
}
1002
{
1000
MANEDIT
1070
     0
1002
}
1002
{
1000
NOSEL
1070
     0
1002
}
1002
{
1000
BEHIND
1070
     0
1002
}
1002
{
1000
OTHER
1070
     0
1002
}
1002
{
1000
REACTOR
1002
}
1001
GENIUS_GENOBJ-N-FIL_13
1002
{
1000
OWNER
1000
GEN
1002
}
  0
LINE
  5
98A
  8
0
 10
407.79328330498248
 20
-86.364370220340675
 30
0.0
 11
406.79328330498242
 21
-85.364370220340646
 31
0.0
  0
LINE
  5
98B
  8
0
 10
406.7932833049822
 20
-82.79856090721654
 30
0.0
 11
406.79328330498242
 21
-85.364370220340646
 31
0.0
  0
LINE
  5
98C
  8
0
 10
409.50178068285459
 20
-80.798564610154131
 30
0.0
 11
408.7932833049839
 21
-80.090067232283445
 31
0.0
  0
ARC
  5
98D
  8
0
 10
414.7932833049818
 20
-93.963712297126335
 30
0.0
 40
10.00000000000027
 50
37.822123668935028
 51
49.458398126497258
  0
ARC
  5
98E
  8
0
 10
424.6672619443014
 20
-86.298560907214437
 30
0.0
 40
2.5
 50
217.82212366893501
 51
270.0
1001
GENIUS_GENODEF_13
1002
{
1000
HIER
1070
     0
1002
}
1002
{
1000
MANEDIT
1070
     0
1002
}
1002
{
1000
NOSEL
1070
     0
1002
}
1002
{
1000
BEHIND
1070
     0
1002
}
1002
{
1000
OTHER
1070
     0
1002
}
1002
{
1000
REACTOR
1002
}
1001
GENIUS_GENOBJ-N-FIL_13
1002
{
1000
OWNER
1000
GEN
1002
}
  0
LINE
  5
98F
  8
0
 10
422.79328330498242
 20
-82.79856090721654
 30
0.0
 11
422.7932833049822
 21
-85.364370220341357
 31
0.0
  0
LINE
  5
990
  8
0
 10
420.08478592711322
 20
-80.798564610154131
 30
0.0
 11
420.7932833049839
 21
-80.090067232283332
 31
0.0
  0
LINE
  5
991
  8
0
 10
421.79328330498208
 20
-86.364370220341286
 30
0.0
 11
422.7932833049822
 21
-85.364370220341357
 31
0.0
  0
ARC
  5
992
  8
0
 10
414.79328330498379
 20
-85.568890521483468
 30
0.0
 40
12.0
 50
63.834943482164739
 51
116.1650565178351
  0
LINE
  5
993
  8
0
 10
409.50178068285459
 20
-74.798560907214494
 30
0.0
 11
420.0847859271131
 21
-74.798560907214494
 31
0.0
  0
LINE
  5
994
  8
0
 10
409.5017806828547
 20
-74.798560907214494
 30
0.0
 11
408.7932833049839
 21
-75.50705828508535
 31
0.0
  0
LINE
  5
995
  8
0
 10
420.08478592711299
 20
-74.798560907214494
 30
0.0
 11
420.79328330498367
 21
-75.507058285085236
 31
0.0
  0
LINE
  5
996
  8
0
 10
406.79328330498208
 20
-0.7985609072164835
 30
0.0
 11
422.79328330498208
 21
-0.7985609072164835
 31
0.0
  0
LINE
  5
997
  8
0
 10
407.79328330498203
 20
0.2014390927835166
 30
0.0
 11
421.79328330498208
 21
0.2014390927835166
 31
0.0
  0
ARC
  5
998
  8
0
  6
DASHED
 10
411.32828330498222
 20
-6.3137692458641927
 30
0.0
 40
1.881125003188632
 50
247.87887949171659
 51
307.87887949171773
  0
LINE
  5
999
  8
0
  6
DASHED
 10
410.17328330498208
 20
-7.7985609072164834
 30
0.0
 11
414.7932833049822
 21
-10.46591915087253
 31
0.0
  0
LINE
  5
99A
  8
0
  6
DASHED
 10
410.17328330498208
 20
0.2014390927835166
 30
0.0
 11
410.17328330498208
 21
-7.7985609072164834
 31
0.0
  0
LINE
  5
99B
  8
0
 10
407.79328330498203
 20
0.2014390927835166
 30
0.0
 11
406.79328330498208
 21
-0.7985609072164835
 31
0.0
  0
LINE
  5
99C
  8
0
  6
DASHED
 10
419.4132833049822
 20
0.2014390927835166
 30
0.0
 11
419.4132833049822
 21
-7.7985609072164834
 31
0.0
  0
LINE
  5
99D
  8
0
  6
DASHED
 10
417.10328330498209
 20
0.2014390927835166
 30
0.0
 11
417.10328330498209
 21
-7.7985609072164834
 31
0.0
  0
LINE
  5
99E
  8
0
  6
DASHED
 10
412.48328330498208
 20
0.2014390927835166
 30
0.0
 11
412.48328330498208
 21
-7.7985609072164834
 31
0.0
  0
ARC
  5
99F
  8
0
  6
DASHED
 10
414.7932833049822
 20
-1.264894249052815
 30
0.0
 40
6.9299999999999971
 50
250.5287793655101
 51
289.47122063448933
  0
LINE
  5
9A0
  8
0
  6
DASHED
 10
419.4132833049822
 20
-7.7985609072164834
 30
0.0
 11
414.7932833049822
 21
-10.46591915087253
 31
0.0
  0
ARC
  5
9A1
  8
0
  6
DASHED
 10
418.25828330498223
 20
-6.3137692458641359
 30
0.0
 40
1.881125003188632
 50
232.121120508281
 51
292.12112050828182
  0
LINE
  5
9A2
  8
0
 10
421.79328330498208
 20
0.2014390927835166
 30
0.0
 11
422.79328330498208
 21
-0.7985609072164835
 31
0.0
  0
LINE
  5
9E3
  8
0
  6
CENTER
 10
414.79328330498129
 20
3.2014390927835161
 30
0.0
 11
414.79328330498407
 21
-109.79856090721459
 31
0.0
1001
GENIUS_GENOBJ-N-CEN_13
1002
{
1000
OWNER
1000
GEN
1002
}
1001
GENIUS_GENODEF_13
1002
{
1000
HIER
1070
     0
1002
}
1002
{
1000
MANEDIT
1070
     0
1002
}
1002
{
1000
NOSEL
1070
     0
1002
}
1002
{
1000
BEHIND
1070
     0
1002
}
1002
{
1000
OTHER
1070
     0
1002
}
1002
{
1000
REACTOR
1002
}
  0
CIRCLE
  5
A26
  8
0
 10
414.7932833049843
 20
-182.12028908867549
 30
0.0
 40
8.0
1001
GENIUS_GENOREF_13
1005
0
  0
ARC
  5
A27
  8
0
 10
414.7932833049843
 20
-182.12028908867549
 30
0.0
 40
7.0
 50
90.0
 51
0.0
1001
GENIUS_GENOREF_13
1005
0
  0
LINE
  5
A28
  8
0
  6
CENTER
 10
457.79328330498419
 20
-182.12028908867549
 30
0.0
 11
371.7932833049843
 21
-182.12028908867549
 31
0.0
1001
GENIUS_GENOREF_13
1005
0
  0
LINE
  5
A29
  8
0
  6
CENTER
 10
414.7932833049843
 20
-139.12028908867541
 30
0.0
 11
414.7932833049843
 21
-225.12028908867549
 31
0.0
1001
GENIUS_GENOREF_13
1005
0
  0
POLYLINE
  5
A2A
  8
0
 66
     1
 10
0.0
 20
0.0
 30
0.0
 70
     1
  0
VERTEX
  5
13C3
  8
0
 10
412.4838822282257
 20
-178.12028908867541
 30
0.0
  0
VERTEX
  5
13C4
  8
0
 10
410.17448115146721
 20
-182.12028908867549
 30
0.0
  0
VERTEX
  5
13C5
  8
0
 10
412.4838822282257
 20
-186.12028908867549
 30
0.0
  0
VERTEX
  5
13C6
  8
0
 10
417.10268438174268
 20
-186.12028908867549
 30
0.0
  0
VERTEX
  5
13C7
  8
0
 10
419.41208545850128
 20
-182.12028908867549
 30
0.0
  0
VERTEX
  5
13C8
  8
0
 10
417.10268438174279
 20
-178.12028908867541
 30
0.0
  0
SEQEND
  5
13C9
  8
0
  0
CIRCLE
  5
B66
  8
0
 10
513.47058079702344
 20
-182.12028908867549
 30
0.0
 40
10.0
1001
GENIUS_GENOREF_13
1005
0
  0
LINE
  5
B6D
  8
0
  6
CENTER
 10
556.47058079702344
 20
-182.12028908867549
 30
0.0
 11
470.47058079702339
 21
-182.12028908867549
 31
0.0
1001
GENIUS_GENOREF_13
1005
0
  0
CIRCLE
  5
B6E
  8
0
 10
513.47058079702344
 20
-182.12028908867549
 30
0.0
 40
40.0
  0
LINE
  5
B6F
  8
0
  6
CENTER
 10
513.47058079702344
 20
-139.12028908867541
 30
0.0
 11
513.47058079702344
 21
-225.12028908867549
 31
0.0
1001
GENIUS_GENOREF_13
1005
0
  0
LINE
  5
B70
  8
0
 10
553.47058079702128
 20
-101.3980568772336
 30
0.0
 11
473.4705807970214
 21
-101.3980568772316
 31
0.0
  0
LINE
  5
B71
  8
0
 10
551.63083483486571
 20
-106.39805687723261
 30
0.0
 11
475.31032675917692
 21
-106.39805687723261
 31
0.0
  0
ARC
  5
B73
  8
0
 10
482.4705807970214
 20
-97.398056877232264
 30
0.0
 40
9.0
 50
90.0
 51
180.0
1001
GENIUS_GENOBJ-N-FIL_13
1002
{
1000
OWNER
1000
GEN
1002
}
1001
GENIUS_GENODEF_13
1002
{
1000
HIER
1070
     0
1002
}
1002
{
1000
MANEDIT
1070
     0
1002
}
1002
{
1000
NOSEL
1070
     0
1002
}
1002
{
1000
BEHIND
1070
     0
1002
}
1002
{
1000
OTHER
1070
     0
1002
}
1002
{
1000
REACTOR
1002
}
  0
LINE
  5
B74
  8
0
 10
473.4705807970214
 20
-97.398056877232264
 30
0.0
 11
473.4705807970214
 21
-101.39805687723261
 31
0.0
  0
LINE
  5
B75
  8
0
 10
473.97058079702128
 20
-101.39805687723261
 30
0.0
 11
475.31032675917692
 21
-106.39805687723261
 31
0.0
  0
ARC
  5
B7E
  8
0
 10
544.47058079702151
 20
-97.398056877232648
 30
0.0
 40
9.0
 50
0.0
 51
90.0
1001
GENIUS_GENOBJ-N-FIL_13
1002
{
1000
OWNER
1000
GEN
1002
}
1001
GENIUS_GENODEF_13
1002
{
1000
HIER
1070
     0
1002
}
1002
{
1000
MANEDIT
1070
     0
1002
}
1002
{
1000
NOSEL
1070
     0
1002
}
1002
{
1000
BEHIND
1070
     0
1002
}
1002
{
1000
OTHER
1070
     0
1002
}
1002
{
1000
REACTOR
1002
}
  0
LINE
  5
B7F
  8
0
 10
552.97058079702128
 20
-101.39805687723261
 30
0.0
 11
551.63083483486571
 21
-106.39805687723261
 31
0.0
  0
LINE
  5
B80
  8
0
 10
553.4705807970214
 20
-97.398056877232648
 30
0.0
 11
553.4705807970214
 21
-101.39805687723261
 31
0.0
  0
LINE
  5
B81
  8
0
 10
544.47058079702151
 20
-88.398056877232648
 30
0.0
 11
482.4705807970214
 21
-88.398056877232648
 31
0.0
  0
LINE
  5
B83
  8
0
 10
503.4705807970214
 20
-54.364366517405671
 30
0.0
 11
503.4705807970214
 21
0.3519431227672669
 31
0.0
  0
LINE
  5
B85
  8
0
 10
523.47058079702151
 20
-54.364366517405671
 30
0.0
 11
523.47058079702151
 21
0.3519431227672669
 31
0.0
  0
ARC
  5
B87
  8
0
 10
524.34801351319709
 20
-86.398056877232648
 30
0.0
 40
2.0
 50
219.01697491805231
 51
270.0
1001
GENIUS_GENOBJ-N-FIL_13
1002
{
1000
OWNER
1000
GEN
1002
}
1001
GENIUS_GENODEF_13
1002
{
1000
HIER
1070
     0
1002
}
1002
{
1000
MANEDIT
1070
     0
1002
}
1002
{
1000
NOSEL
1070
     0
1002
}
1002
{
1000
BEHIND
1070
     0
1002
}
1002
{
1000
OTHER
1070
     0
1002
}
1002
{
1000
REACTOR
1002
}
  0
ARC
  5
B88
  8
0
 10
513.47058079702163
 20
-95.211765376217443
 30
0.0
 40
11.999999999999931
 50
39.01697491805237
 51
46.567463442210077
  0
LINE
  5
B8A
  8
0
 10
503.4705807970214
 20
-82.898056877232676
 30
0.0
 11
503.4705807970214
 21
-54.364366517405671
 31
0.0
  0
ARC
  5
B8E
  8
0
 10
502.59314808084588
 20
-86.398056877232648
 30
0.0
 40
2.0
 50
270.0
 51
320.98302508194757
1001
GENIUS_GENOBJ-N-FIL_13
1002
{
1000
OWNER
1000
GEN
1002
}
1001
GENIUS_GENODEF_13
1002
{
1000
HIER
1070
     0
1002
}
1002
{
1000
MANEDIT
1070
     0
1002
}
1002
{
1000
NOSEL
1070
     0
1002
}
1002
{
1000
BEHIND
1070
     0
1002
}
1002
{
1000
OTHER
1070
     0
1002
}
1002
{
1000
REACTOR
1002
}
  0
LINE
  5
B90
  8
0
 10
503.47058079702163
 20
-85.247552847250688
 30
0.0
 11
503.4705807970214
 21
-82.898056877232676
 31
0.0
  0
LINE
  5
B91
  8
0
 10
504.72058079702163
 20
-86.497552847250688
 30
0.0
 11
513.47058079702151
 21
-86.497552847250688
 31
0.0
  0
LINE
  5
B92
  8
0
 10
520.08495907468296
 20
-80.398056877232676
 30
0.0
 11
506.85620251936001
 21
-80.398056877232676
 31
0.0
  0
LINE
  5
B94
  8
0
 10
506.85620251936001
 20
-73.398056877232676
 30
0.0
 11
520.08495907468296
 21
-73.398056877232676
 31
0.0
  0
LINE
  5
B96
  8
0
 10
505.9705807970214
 20
-79.512435154894177
 30
0.0
 11
506.8562025193599
 21
-80.398056877232676
 31
0.0
  0
LINE
  5
B97
  8
0
 10
506.85620251936001
 20
-80.398056877232676
 30
0.0
 11
506.85620251936069
 21
-73.398056877231994
 31
0.0
  0
ARC
  5
B99
  8
0
 10
513.47058079702128
 20
-95.211765376217443
 30
0.0
 40
11.999999999999931
 50
133.43253655778989
 51
140.98302508194749
  0
LINE
  5
B9B
  8
0
 10
506.85620251936001
 20
-73.398056877232847
 30
0.0
 11
505.9705807970214
 21
-74.283678599571402
 31
0.0
  0
LINE
  5
B9C
  8
0
 10
520.08495907468216
 20
-73.398056877232051
 30
0.0
 11
520.08495907468296
 21
-80.398056877232676
 31
0.0
  0
LINE
  5
B9D
  8
0
 10
520.97058079702163
 20
-79.512435154894177
 30
0.0
 11
520.08495907468296
 21
-80.398056877232676
 31
0.0
  0
LINE
  5
B9E
  8
0
 10
522.22058079702163
 20
-86.497552847250688
 30
0.0
 11
513.47058079702151
 21
-86.497552847250688
 31
0.0
  0
LINE
  5
BA0
  8
0
 10
520.08495907468296
 20
-73.398056877232847
 30
0.0
 11
520.97058079702163
 21
-74.283678599571402
 31
0.0
  0
LINE
  5
BA2
  8
0
 10
523.47058079702151
 20
-82.898056877232676
 30
0.0
 11
523.47058079702151
 21
-54.364366517405671
 31
0.0
  0
LINE
  5
BA3
  8
0
 10
523.47058079702163
 20
-85.247552847250688
 30
0.0
 11
523.47058079702151
 21
-82.898056877232676
 31
0.0
  0
ARC
  5
BA7
  8
0
  6
DASHED
 10
517.80183079702158
 20
-6.5420673005423282
 30
0.0
 40
2.3514062539857998
 50
232.121120508281
 51
292.12112050827812
  0
LINE
  5
BA8
  8
0
  6
DASHED
 10
519.24558079702138
 20
-8.3980568772327331
 30
0.0
 11
513.47058079702128
 21
-11.73225468180285
 31
0.0
  0
LINE
  5
BA9
  8
0
  6
DASHED
 10
507.69558079702142
 20
-8.3980568772327331
 30
0.0
 11
513.47058079702128
 21
-11.73225468180285
 31
0.0
  0
ARC
  5
BAA
  8
0
  6
DASHED
 10
509.13933079702139
 20
-6.5420673005423282
 30
0.0
 40
2.3514062539857998
 50
247.8788794917181
 51
307.87887949171892
  0
ARC
  5
BAB
  8
0
  6
DASHED
 10
513.47058079702128
 20
-0.2309735545281342
 30
0.0
 40
8.6624999999999979
 50
250.5287793655107
 51
289.47122063449291
  0
LINE
  5
BAC
  8
0
 10
522.2205807970214
 20
1.601943122767266
 30
0.0
 11
504.72058079702151
 21
1.601943122767266
 31
0.0
  0
LINE
  5
BAD
  8
0
  6
DASHED
 10
510.58308079702158
 20
1.601943122767266
 30
0.0
 11
510.58308079702141
 21
-8.3980568772327331
 31
0.0
  0
LINE
  5
BAE
  8
0
  6
DASHED
 10
507.69558079702148
 20
1.601943122767266
 30
0.0
 11
507.69558079702142
 21
-8.3980568772327331
 31
0.0
  0
LINE
  5
BAF
  8
0
  6
DASHED
 10
516.35808079702144
 20
1.601943122767266
 30
0.0
 11
516.35808079702144
 21
-8.3980568772327331
 31
0.0
  0
LINE
  5
BB0
  8
0
  6
DASHED
 10
519.24558079702138
 20
1.601943122767266
 30
0.0
 11
519.24558079702138
 21
-8.3980568772327331
 31
0.0
  0
ARC
  5
BB4
  8
0
 10
513.47058079702151
 20
-80.89805687723279
 30
0.0
 40
10.0
 50
48.590377890734587
 51
131.4096221092654
  0
ARC
  5
BB6
  8
0
 10
513.47058079702151
 20
-72.898056877231937
 30
0.0
 40
10.0
 50
228.59037789073449
 51
311.40962210926529
  0
LINE
  5
BB7
  8
0
 10
505.9705807970214
 20
-74.283678599571402
 30
0.0
 11
505.9705807970214
 21
-79.512435154894177
 31
0.0
  0
LINE
  5
BB8
  8
0
 10
520.97058079702163
 20
-74.283678599571402
 30
0.0
 11
520.97058079702163
 21
-79.512435154894177
 31
0.0
  0
LINE
  5
BBA
  8
0
 10
409.50178068285481
 20
-74.798560907214394
 30
0.0
 11
409.50178068285481
 21
-80.798564610154358
 31
0.0
  0
LINE
  5
BBB
  8
0
 10
420.08478592711299
 20
-74.798560907214494
 30
0.0
 11
420.0847859271131
 21
-80.798564610154244
 31
0.0
  0
LINE
  5
BBC
  8
0
 10
198.84242271466991
 20
-77.798560907214551
 30
0.0
 11
198.84242271466999
 21
-83.798564610154301
 31
0.0
  0
LINE
  5
BBE
  8
0
 10
209.4254279589282
 20
-77.798560907214551
 30
0.0
 11
209.42542795892831
 21
-83.798564610154344
 31
0.0
  0
LINE
  5
BBF
  8
0
 10
295.74808502552628
 20
-76.798560907214437
 30
0.0
 11
295.74808502552668
 21
-82.798564610154415
 31
0.0
  0
LINE
  5
BC0
  8
0
 10
306.33109026978468
 20
-76.798560907214437
 30
0.0
 11
306.3310902697848
 21
-82.798564610154173
 31
0.0
  0
LINE
  5
C01
  8
0
  6
CENTER
 10
513.47058079701844
 20
4.6019431227672376
 30
0.0
 11
513.47058079702117
 21
-109.39805687723251
 31
0.0
1001
GENIUS_GENOBJ-N-CEN_13
1002
{
1000
OWNER
1000
GEN
1002
}
1001
GENIUS_GENODEF_13
1002
{
1000
HIER
1070
     0
1002
}
1002
{
1000
MANEDIT
1070
     0
1002
}
1002
{
1000
NOSEL
1070
     0
1002
}
1002
{
1000
BEHIND
1070
     0
1002
}
1002
{
1000
OTHER
1070
     0
1002
}
1002
{
1000
REACTOR
1002
}
  0
POLYLINE
  5
C04
  8
0
 66
     1
 10
0.0
 20
0.0
 30
0.0
 70
     1
  0
VERTEX
  5
13CA
  8
0
 10
510.58382945107519
 20
-177.12028908867549
 30
0.0
  0
VERTEX
  5
13CB
  8
0
 10
507.6970781051271
 20
-182.12028908867549
 30
0.0
  0
VERTEX
  5
13CC
  8
0
 10
510.58382945107519
 20
-187.12028908867541
 30
0.0
  0
VERTEX
  5
13CD
  8
0
 10
516.35733214297159
 20
-187.12028908867541
 30
0.0
  0
VERTEX
  5
13CE
  8
0
 10
519.24408348891973
 20
-182.12028908867549
 30
0.0
  0
VERTEX
  5
13CF
  8
0
 10
516.35733214297159
 20
-177.12028908867549
 30
0.0
  0
SEQEND
  5
13D0
  8
0
  0
ARC
  5
C05
  8
0
 10
513.47058079702344
 20
-182.12028908867549
 30
0.0
 40
8.75
 50
90.0
 51
0.0
  0
CIRCLE
  5
C46
  8
0
 10
513.47058079702344
 20
-182.12028908867549
 30
0.0
 40
5.7735026918962644
  0
CIRCLE
  5
C47
  8
0
 10
414.7932833049843
 20
-182.12028908867549
 30
0.0
 40
4.6188021535169987
  0
CIRCLE
  5
C48
  8
0
 10
301.03958764765628
 20
-182.12028908867549
 30
0.0
 40
4.6188021535169987
  0
CIRCLE
  5
C49
  8
0
 10
204.1339253368026
 20
-182.12028908867549
 30
0.0
 40
4.6188021535169987
  0
LINE
  5
C8A
  8
0
 10
504.72058079702151
 20
1.601943122767266
 30
0.0
 11
503.4705807970214
 21
0.3519431227672669
 31
0.0
  0
LINE
  5
C8B
  8
0
 10
522.2205807970214
 20
1.601943122767266
 30
0.0
 11
523.47058079702151
 21
0.3519431227672669
 31
0.0
  0
LINE
  5
C8C
  8
0
 10
523.47058079702163
 20
-85.247552847250688
 30
0.0
 11
522.22058079702163
 21
-86.497552847250688
 31
0.0
  0
LINE
  5
C8D
  8
0
 10
504.72058079702163
 20
-86.497552847250688
 30
0.0
 11
503.47058079702163
 21
-85.247552847250688
 31
0.0
  0
LINE
  5
C8E
  8
0
 10
503.4705807970214
 20
0.3519431227672669
 30
0.0
 11
523.47058079702151
 21
0.3519431227672669
 31
0.0
  0
LINE
  5
C8F
  8
0
 10
522.2205807970214
 20
1.601943122767266
 30
0.0
 11
522.22058079702163
 21
-86.497552847250688
 31
0.0
  0
LINE
  5
C90
  8
0
 10
504.72058079702163
 20
-86.497552847250688
 30
0.0
 11
504.72058079702151
 21
1.601943122767266
 31
0.0
  0
LINE
  5
C91
  8
0
 10
503.47058079702163
 20
-85.247552847250688
 30
0.0
 11
523.47058079702163
 21
-85.247552847250688
 31
0.0
  0
LINE
  5
D13
  8
0
  6
CENTER
 10
611.79208140637422
 20
-139.12028908867541
 30
0.0
 11
611.79208140637422
 21
-225.12028908867549
 31
0.0
1001
GENIUS_GENOREF_13
1005
0
  0
CIRCLE
  5
D14
  8
0
 10
611.79208140637422
 20
-182.12028908867549
 30
0.0
 40
40.0
  0
LINE
  5
D19
  8
0
  6
CENTER
 10
654.79208140637422
 20
-182.12028908867549
 30
0.0
 11
568.79208140637422
 21
-182.12028908867549
 31
0.0
1001
GENIUS_GENOREF_13
1005
0
  0
LINE
  5
D1A
  8
0
  6
CENTER
 10
611.79208140636922
 20
7.9845251052228718
 30
0.0
 11
611.79208140637206
 21
-109.015474894777
 31
0.0
1001
GENIUS_GENOBJ-N-CEN_13
1002
{
1000
OWNER
1000
GEN
1002
}
1001
GENIUS_GENODEF_13
1002
{
1000
HIER
1070
     0
1002
}
1002
{
1000
MANEDIT
1070
     0
1002
}
1002
{
1000
NOSEL
1070
     0
1002
}
1002
{
1000
BEHIND
1070
     0
1002
}
1002
{
1000
OTHER
1070
     0
1002
}
1002
{
1000
REACTOR
1002
}
  0
LINE
  5
D20
  8
0
 10
649.95233544421649
 20
-106.0154748947771
 30
0.0
 11
573.63182736852764
 21
-106.0154748947771
 31
0.0
  0
LINE
  5
D21
  8
0
 10
651.79208140637195
 20
-101.01547489477809
 30
0.0
 11
571.79208140637229
 21
-101.0154748947761
 31
0.0
  0
LINE
  5
D22
  8
0
 10
642.7920814063724
 20
-88.015474894777157
 30
0.0
 11
580.79208140637229
 21
-88.015474894777114
 31
0.0
  0
ARC
  5
D2A
  8
0
 10
580.79208140637206
 20
-97.015474894776702
 30
0.0
 40
9.0
 50
90.0
 51
180.0
1001
GENIUS_GENOBJ-N-FIL_13
1002
{
1000
OWNER
1000
GEN
1002
}
1001
GENIUS_GENODEF_13
1002
{
1000
HIER
1070
     0
1002
}
1002
{
1000
MANEDIT
1070
     0
1002
}
1002
{
1000
NOSEL
1070
     0
1002
}
1002
{
1000
BEHIND
1070
     0
1002
}
1002
{
1000
OTHER
1070
     0
1002
}
1002
{
1000
REACTOR
1002
}
  0
LINE
  5
D2B
  8
0
 10
571.79208140637206
 20
-97.015474894776702
 30
0.0
 11
571.79208140637206
 21
-101.0154748947771
 31
0.0
  0
LINE
  5
D2C
  8
0
 10
572.29208140637195
 20
-101.0154748947771
 30
0.0
 11
573.63182736852764
 21
-106.0154748947771
 31
0.0
  0
ARC
  5
D39
  8
0
 10
642.7920814063724
 20
-97.015474894777128
 30
0.0
 40
9.0
 50
0.0
 51
90.0
1001
GENIUS_GENOBJ-N-FIL_13
1002
{
1000
OWNER
1000
GEN
1002
}
1001
GENIUS_GENODEF_13
1002
{
1000
HIER
1070
     0
1002
}
1002
{
1000
MANEDIT
1070
     0
1002
}
1002
{
1000
NOSEL
1070
     0
1002
}
1002
{
1000
BEHIND
1070
     0
1002
}
1002
{
1000
OTHER
1070
     0
1002
}
1002
{
1000
REACTOR
1002
}
  0
LINE
  5
D3A
  8
0
 10
651.29208140637195
 20
-101.0154748947771
 30
0.0
 11
649.95233544421649
 21
-106.0154748947771
 31
0.0
  0
LINE
  5
D3B
  8
0
 10
651.79208140637229
 20
-97.015474894777128
 30
0.0
 11
651.79208140637229
 21
-101.0154748947771
 31
0.0
  0
POLYLINE
  5
D4F
  8
0
 66
     1
 10
0.0
 20
0.0
 30
0.0
 70
     1
  0
VERTEX
  5
13D1
  8
0
 10
608.32797979123643
 20
-176.12028908867541
 30
0.0
  0
VERTEX
  5
13D2
  8
0
 10
604.86387817609875
 20
-182.12028908867549
 30
0.0
  0
VERTEX
  5
13D3
  8
0
 10
608.32797979123643
 20
-188.12028908867541
 30
0.0
  0
VERTEX
  5
13D4
  8
0
 10
615.25618302151202
 20
-188.12028908867541
 30
0.0
  0
VERTEX
  5
13D5
  8
0
 10
618.72028463664958
 20
-182.12028908867549
 30
0.0
  0
VERTEX
  5
13D6
  8
0
 10
615.25618302151202
 20
-176.12028908867541
 30
0.0
  0
SEQEND
  5
13D7
  8
0
  0
CIRCLE
  5
D50
  8
0
 10
611.79208140637422
 20
-182.12028908867549
 30
0.0
 40
6.9282032302755283
  0
CIRCLE
  5
D51
  8
0
 10
611.79208140637422
 20
-182.12028908867549
 30
0.0
 40
12.0
  0
ARC
  5
D52
  8
0
 10
611.79208140637422
 20
-182.12028908867549
 30
0.0
 40
10.5
 50
90.0
 51
0.0
  0
LINE
  5
DF2
  8
0
 10
623.79208140637127
 20
3.484525105222871
 30
0.0
 11
623.79208140637127
 21
-81.515474894777114
 31
0.0
  0
LINE
  5
DF4
  8
0
 10
599.79208140637127
 20
3.484525105222871
 30
0.0
 11
599.79208140637127
 21
-81.515474894777114
 31
0.0
  0
LINE
  5
DF7
  8
0
 10
601.29208140637115
 20
-86.132892912321722
 30
0.0
 11
611.79208140637127
 21
-86.132892912321722
 31
0.0
  0
ARC
  5
DF8
  8
0
 10
599.55737743173461
 20
-86.515474894777014
 30
0.0
 40
1.5
 50
270.0
 51
322.12347865832919
1001
GENIUS_GENOBJ-N-FIL_13
1002
{
1000
OWNER
1000
GEN
1002
}
1001
GENIUS_GENODEF_13
1002
{
1000
HIER
1070
     0
1002
}
1002
{
1000
MANEDIT
1070
     0
1002
}
1002
{
1000
NOSEL
1070
     0
1002
}
1002
{
1000
BEHIND
1070
     0
1002
}
1002
{
1000
OTHER
1070
     0
1002
}
1002
{
1000
REACTOR
1002
}
  0
ARC
  5
DF9
  8
0
 10
611.79208140637138
 20
-96.031882759775996
 30
0.0
 40
14.000000000000179
 50
135.00292325406539
 51
142.12347865832919
  0
LINE
  5
DFA
  8
0
 10
622.29208140637127
 20
-86.132892912321054
 30
0.0
 11
611.79208140637138
 21
-86.132892912321722
 31
0.0
  0
ARC
  5
DFB
  8
0
 10
611.79208140637172
 20
-96.031882759775996
 30
0.0
 40
14.000000000000179
 50
37.876521341670752
 51
44.997076745941442
  0
ARC
  5
DFC
  8
0
 10
624.02678538100815
 20
-86.515474894776446
 30
0.0
 40
1.5
 50
217.8765213416707
 51
270.0
1001
GENIUS_GENOBJ-N-FIL_13
1002
{
1000
OWNER
1000
GEN
1002
}
1001
GENIUS_GENODEF_13
1002
{
1000
HIER
1070
     0
1002
}
1002
{
1000
MANEDIT
1070
     0
1002
}
1002
{
1000
NOSEL
1070
     0
1002
}
1002
{
1000
BEHIND
1070
     0
1002
}
1002
{
1000
OTHER
1070
     0
1002
}
1002
{
1000
REACTOR
1002
}
  0
LINE
  5
DFD
  8
0
 10
604.46064225706368
 20
-70.015474894777114
 30
0.0
 11
619.12352055567885
 21
-70.015474894777114
 31
0.0
  0
ARC
  5
DFE
  8
0
 10
611.79208140637127
 20
-79.515474894777455
 30
0.0
 40
12.00000000000016
 50
52.341537993792407
 51
127.6584620062076
  0
LINE
  5
DFF
  8
0
 10
619.12352055567885
 20
-79.015474894777128
 30
0.0
 11
604.46064225706368
 21
-79.015474894777128
 31
0.0
  0
ARC
  5
E00
  8
0
 10
611.79208140637127
 20
-69.515474894777071
 30
0.0
 40
12.000000000000091
 50
232.3415379937924
 51
307.65846200620763
  0
LINE
  5
E02
  8
0
 10
604.46064225706368
 20
-79.015474894777128
 30
0.0
 11
604.46064225706368
 21
-70.015474894777114
 31
0.0
  0
LINE
  5
E03
  8
0
 10
602.29208140637115
 20
-71.267494085678493
 30
0.0
 11
602.29208140637115
 21
-77.763455703875707
 31
0.0
  0
LINE
  5
E04
  8
0
 10
604.46064225706368
 20
-79.015474894777128
 30
0.0
 11
602.29208140637115
 21
-77.763455703875707
 31
0.0
  0
LINE
  5
E06
  8
0
 10
599.79208140637127
 20
-81.515474894777114
 30
0.0
 11
599.79208140637127
 21
-84.632892912321722
 31
0.0
  0
LINE
  5
E07
  8
0
 10
604.46064225706368
 20
-70.015474894777114
 30
0.0
 11
602.29208140637115
 21
-71.267494085678493
 31
0.0
  0
LINE
  5
E09
  8
0
 10
619.12352055567885
 20
-70.015474894777114
 30
0.0
 11
619.12352055567885
 21
-79.015474894777128
 31
0.0
  0
LINE
  5
E0A
  8
0
 10
621.29208140637115
 20
-71.267494085678493
 30
0.0
 11
621.29208140637115
 21
-77.763455703875707
 31
0.0
  0
LINE
  5
E0B
  8
0
 10
619.12352055567885
 20
-79.015474894777128
 30
0.0
 11
621.29208140637115
 21
-77.763455703875707
 31
0.0
  0
LINE
  5
E0D
  8
0
 10
623.79208140637127
 20
-81.515474894777114
 30
0.0
 11
623.79208140637138
 21
-84.632892912320955
 31
0.0
  0
LINE
  5
E0E
  8
0
 10
619.12352055567885
 20
-70.015474894777114
 30
0.0
 11
621.29208140637115
 21
-71.267494085678493
 31
0.0
  0
LINE
  5
E10
  8
0
 10
601.29208140637115
 20
4.984525105222871
 30
0.0
 11
622.29208140637115
 21
4.984525105222871
 31
0.0
  0
LINE
  5
E14
  8
0
  6
DASHED
 10
618.72208140637122
 20
-7.0154748947771282
 30
0.0
 11
611.79208140637138
 21
-11.01651226026115
 31
0.0
  0
LINE
  5
E15
  8
0
  6
DASHED
 10
604.86208140637143
 20
-7.0154748947771282
 30
0.0
 11
611.79208140637138
 21
-11.01651226026115
 31
0.0
  0
ARC
  5
E18
  8
0
  6
DASHED
 10
616.98958140637114
 20
-4.7882874027486082
 30
0.0
 40
2.821687504782977
 50
232.12112050828549
 51
292.12112050828182
  0
LINE
  5
E19
  8
0
  6
DASHED
 10
604.86208140637143
 20
4.984525105222871
 30
0.0
 11
604.86208140637143
 21
-7.0154748947771282
 31
0.0
  0
LINE
  5
E1A
  8
0
  6
DASHED
 10
608.32708140637135
 20
4.984525105222871
 30
0.0
 11
608.32708140637135
 21
-7.0154748947771282
 31
0.0
  0
LINE
  5
E1B
  8
0
  6
DASHED
 10
615.2570814063713
 20
4.984525105222871
 30
0.0
 11
615.25708140637119
 21
-7.0154748947771282
 31
0.0
  0
ARC
  5
E1C
  8
0
  6
DASHED
 10
611.79208140637138
 20
2.7850250924684579
 30
0.0
 40
10.395
 50
250.52877936550701
 51
289.47122063449291
  0
ARC
  5
E1D
  8
0
  6
DASHED
 10
606.59458140637116
 20
-4.7882874027486082
 30
0.0
 40
2.821687504782977
 50
247.8788794917181
 51
307.87887949171437
  0
LINE
  5
E1E
  8
0
  6
DASHED
 10
618.72208140637122
 20
4.984525105222871
 30
0.0
 11
618.72208140637122
 21
-7.0154748947771282
 31
0.0
  0
LINE
  5
E20
  8
0
 10
601.29208140637115
 20
4.984525105222871
 30
0.0
 11
599.79208140637127
 21
3.484525105222871
 31
0.0
  0
LINE
  5
E21
  8
0
 10
622.29208140637115
 20
4.984525105222871
 30
0.0
 11
623.79208140637127
 21
3.484525105222871
 31
0.0
  0
LINE
  5
E22
  8
0
 10
623.79208140637138
 20
-84.632892912320955
 30
0.0
 11
622.29208140637127
 21
-86.132892912321054
 31
0.0
  0
LINE
  5
E23
  8
0
 10
601.29208140637115
 20
-86.132892912321722
 30
0.0
 11
599.79208140637127
 21
-84.632892912321722
 31
0.0
  0
LINE
  5
E24
  8
0
 10
599.79208140637127
 20
3.484525105222871
 30
0.0
 11
623.79208140637127
 21
3.484525105222871
 31
0.0
  0
LINE
  5
E27
  8
0
 10
601.29208140637115
 20
4.984525105222871
 30
0.0
 11
601.29208140637115
 21
-86.132892912321722
 31
0.0
  0
LINE
  5
E28
  8
0
 10
622.29208140637115
 20
4.984525105222871
 30
0.0
 11
622.29208140637127
 21
-86.132892912321054
 31
0.0
  0
LINE
  5
1105
  8
0
 10
710.83459523750685
 20
-106.0154748947771
 30
0.0
 11
806.51920492833358
 21
-106.0154748947771
 31
0.0
  0
LINE
  5
1106
  8
0
 10
708.67690008292016
 20
-100.0154748947771
 30
0.0
 11
808.67690008292027
 21
-100.0154748947771
 31
0.0
  0
LINE
  5
1107
  8
0
 10
796.67690008292016
 20
-86.015474894777128
 30
0.0
 11
720.67690008292016
 21
-86.015474894777128
 31
0.0
  0
ARC
  5
1108
  8
0
 10
720.67690008292016
 20
-98.015474894777114
 30
0.0
 40
12.0
 50
90.0
 51
180.0
1001
GENIUS_GENOBJ-N-FIL_13
1002
{
1000
OWNER
1000
GEN
1002
}
1001
GENIUS_GENODEF_13
1002
{
1000
HIER
1070
     0
1002
}
1002
{
1000
MANEDIT
1070
     0
1002
}
1002
{
1000
NOSEL
1070
     0
1002
}
1002
{
1000
BEHIND
1070
     0
1002
}
1002
{
1000
OTHER
1070
     0
1002
}
1002
{
1000
REACTOR
1002
}
  0
LINE
  5
1109
  8
0
 10
709.22690008292022
 20
-100.0154748947771
 30
0.0
 11
710.83459523750685
 21
-106.0154748947771
 31
0.0
  0
LINE
  5
110A
  8
0
 10
708.67690008292016
 20
-98.015474894777114
 30
0.0
 11
708.67690008292016
 21
-100.0154748947771
 31
0.0
  0
ARC
  5
1133
  8
0
 10
796.67690008292016
 20
-98.015474894777114
 30
0.0
 40
12.0
 50
0.0
 51
90.0
1001
GENIUS_GENOBJ-N-FIL_13
1002
{
1000
OWNER
1000
GEN
1002
}
1001
GENIUS_GENODEF_13
1002
{
1000
HIER
1070
     0
1002
}
1002
{
1000
MANEDIT
1070
     0
1002
}
1002
{
1000
NOSEL
1070
     0
1002
}
1002
{
1000
BEHIND
1070
     0
1002
}
1002
{
1000
OTHER
1070
     0
1002
}
1002
{
1000
REACTOR
1002
}
  0
LINE
  5
1134
  8
0
 10
808.1269000829202
 20
-100.0154748947771
 30
0.0
 11
806.51920492833358
 21
-106.0154748947771
 31
0.0
  0
LINE
  5
1135
  8
0
 10
808.67690008292027
 20
-98.015474894777114
 30
0.0
 11
808.67690008292027
 21
-100.0154748947771
 31
0.0
  0
LINE
  5
118B
  8
0
 10
915.0089276386085
 20
-86.015474894777128
 30
0.0
 11
838.90892763860847
 21
-86.015474894777128
 31
0.0
  0
LINE
  5
118C
  8
0
 10
826.90892763860859
 20
-100.0154748947771
 30
0.0
 11
927.00892763860861
 21
-100.0154748947771
 31
0.0
  0
LINE
  5
118D
  8
0
 10
829.06662279319517
 20
-106.0154748947771
 30
0.0
 11
924.85123248402181
 21
-106.0154748947771
 31
0.0
  0
ARC
  5
118E
  8
0
 10
838.90892763860847
 20
-98.015474894777114
 30
0.0
 40
12.0
 50
90.0
 51
180.0
1001
GENIUS_GENOBJ-N-FIL_13
1002
{
1000
OWNER
1000
GEN
1002
}
1001
GENIUS_GENODEF_13
1002
{
1000
HIER
1070
     0
1002
}
1002
{
1000
MANEDIT
1070
     0
1002
}
1002
{
1000
NOSEL
1070
     0
1002
}
1002
{
1000
BEHIND
1070
     0
1002
}
1002
{
1000
OTHER
1070
     0
1002
}
1002
{
1000
REACTOR
1002
}
  0
LINE
  5
118F
  8
0
 10
827.45892763860866
 20
-100.0154748947771
 30
0.0
 11
829.06662279319517
 21
-106.0154748947771
 31
0.0
  0
LINE
  5
1190
  8
0
 10
826.90892763860859
 20
-98.015474894777114
 30
0.0
 11
826.90892763860859
 21
-100.0154748947771
 31
0.0
  0
ARC
  5
1191
  8
0
 10
915.0089276386085
 20
-98.015474894777114
 30
0.0
 40
12.0
 50
0.0
 51
90.0
1001
GENIUS_GENOBJ-N-FIL_13
1002
{
1000
OWNER
1000
GEN
1002
}
1001
GENIUS_GENODEF_13
1002
{
1000
HIER
1070
     0
1002
}
1002
{
1000
MANEDIT
1070
     0
1002
}
1002
{
1000
NOSEL
1070
     0
1002
}
1002
{
1000
BEHIND
1070
     0
1002
}
1002
{
1000
OTHER
1070
     0
1002
}
1002
{
1000
REACTOR
1002
}
  0
LINE
  5
1192
  8
0
 10
927.00892763860861
 20
-98.015474894777114
 30
0.0
 11
927.00892763860861
 21
-100.0154748947771
 31
0.0
  0
LINE
  5
1193
  8
0
 10
926.45892763860843
 20
-100.0154748947771
 30
0.0
 11
924.85123248402181
 21
-106.0154748947771
 31
0.0
  0
LINE
  5
1194
  8
0
 10
946.78762636207216
 20
-106.0154748947771
 30
0.0
 11
1042.5722360528989
 21
-106.0154748947771
 31
0.0
  0
LINE
  5
1195
  8
0
 10
944.62993120748558
 20
-100.0154748947771
 30
0.0
 11
1044.7299312074849
 21
-100.0154748947771
 31
0.0
  0
LINE
  5
1196
  8
0
 10
1032.7299312074849
 20
-86.015474894777128
 30
0.0
 11
956.62993120748547
 21
-86.015474894777128
 31
0.0
  0
ARC
  5
1197
  8
0
 10
956.62993120748547
 20
-98.015474894777114
 30
0.0
 40
12.0
 50
90.0
 51
180.0
1001
GENIUS_GENOBJ-N-FIL_13
1002
{
1000
OWNER
1000
GEN
1002
}
1001
GENIUS_GENODEF_13
1002
{
1000
HIER
1070
     0
1002
}
1002
{
1000
MANEDIT
1070
     0
1002
}
1002
{
1000
NOSEL
1070
     0
1002
}
1002
{
1000
BEHIND
1070
     0
1002
}
1002
{
1000
OTHER
1070
     0
1002
}
1002
{
1000
REACTOR
1002
}
  0
LINE
  5
1198
  8
0
 10
944.62993120748558
 20
-98.015474894777114
 30
0.0
 11
944.62993120748558
 21
-100.0154748947771
 31
0.0
  0
LINE
  5
1199
  8
0
 10
945.17993120748565
 20
-100.0154748947771
 30
0.0
 11
946.78762636207216
 21
-106.0154748947771
 31
0.0
  0
ARC
  5
119A
  8
0
 10
1032.7299312074849
 20
-98.015474894777114
 30
0.0
 40
12.0
 50
0.0
 51
90.0
1001
GENIUS_GENOBJ-N-FIL_13
1002
{
1000
OWNER
1000
GEN
1002
}
1001
GENIUS_GENODEF_13
1002
{
1000
HIER
1070
     0
1002
}
1002
{
1000
MANEDIT
1070
     0
1002
}
1002
{
1000
NOSEL
1070
     0
1002
}
1002
{
1000
BEHIND
1070
     0
1002
}
1002
{
1000
OTHER
1070
     0
1002
}
1002
{
1000
REACTOR
1002
}
  0
LINE
  5
119B
  8
0
 10
1044.179931207485
 20
-100.0154748947771
 30
0.0
 11
1042.5722360528989
 21
-106.0154748947771
 31
0.0
  0
LINE
  5
119C
  8
0
 10
1044.7299312074849
 20
-98.015474894777114
 30
0.0
 11
1044.7299312074849
 21
-100.0154748947771
 31
0.0
  0
LINE
  5
11A6
  8
0
 10
766.67690008291868
 20
1.984525105221024
 30
0.0
 11
766.67690008291856
 21
-52.015474894778862
 31
0.0
  0
LINE
  5
11A7
  8
0
 10
750.67690008291856
 20
1.984525105221024
 30
0.0
 11
750.67690008291868
 21
-52.015474894778862
 31
0.0
  0
LINE
  5
11A8
  8
0
 10
765.67690008291902
 20
2.984525105221024
 30
0.0
 11
765.67690008291856
 21
-83.581284207903167
 31
0.0
  0
LINE
  5
11A9
  8
0
 10
751.67690008291856
 20
2.984525105221024
 30
0.0
 11
751.67690008291913
 21
-83.581284207903167
 31
0.0
  0
ARC
  5
11AA
  8
0
 10
758.67690008291891
 20
-91.180626284688813
 30
0.0
 40
10.00000000000027
 50
130.54160187350271
 51
142.17787633106491
  0
ARC
  5
11AB
  8
0
 10
758.67690008291845
 20
-91.180626284688813
 30
0.0
 40
10.00000000000027
 50
37.822123668935028
 51
49.458398126497258
  0
ARC
  5
11AC
  8
0
 10
748.8029214435993
 20
-83.515474894776929
 30
0.0
 40
2.5
 50
270.0
 51
322.17787633106491
1001
GENIUS_GENODEF_13
1002
{
1000
HIER
1070
     0
1002
}
1002
{
1000
MANEDIT
1070
     0
1002
}
1002
{
1000
NOSEL
1070
     0
1002
}
1002
{
1000
BEHIND
1070
     0
1002
}
1002
{
1000
OTHER
1070
     0
1002
}
1002
{
1000
REACTOR
1002
}
1001
GENIUS_GENOBJ-N-FIL_13
1002
{
1000
OWNER
1000
GEN
1002
}
  0
ARC
  5
11AD
  8
0
 10
768.55087872223805
 20
-83.515474894776929
 30
0.0
 40
2.5
 50
217.82212366893501
 51
270.0
1001
GENIUS_GENODEF_13
1002
{
1000
HIER
1070
     0
1002
}
1002
{
1000
MANEDIT
1070
     0
1002
}
1002
{
1000
NOSEL
1070
     0
1002
}
1002
{
1000
BEHIND
1070
     0
1002
}
1002
{
1000
OTHER
1070
     0
1002
}
1002
{
1000
REACTOR
1002
}
1001
GENIUS_GENOBJ-N-FIL_13
1002
{
1000
OWNER
1000
GEN
1002
}
  0
LINE
  5
11AE
  8
0
 10
766.67690008291856
 20
-52.015474894778862
 30
0.0
 11
766.67690008291902
 21
-80.015474894779032
 31
0.0
  0
LINE
  5
11AF
  8
0
 10
750.67690008291868
 20
-52.015474894778862
 30
0.0
 11
750.67690008291891
 21
-80.015474894779032
 31
0.0
  0
ARC
  5
11B0
  8
0
 10
758.67690008292027
 20
-82.785804509045974
 30
0.0
 40
12.0
 50
63.834943482164739
 51
116.1650565178351
  0
LINE
  5
11B1
  8
0
 10
753.38539746079118
 20
-72.015474894776986
 30
0.0
 11
763.96840270504958
 21
-72.015474894776986
 31
0.0
  0
LINE
  5
11B2
  8
0
 10
763.96840270504958
 20
-78.015478597716736
 30
0.0
 11
753.38539746079118
 21
-78.015478597716736
 31
0.0
  0
ARC
  5
11B3
  8
0
 10
758.67690008292027
 20
-67.245148983447763
 30
0.0
 40
12.0
 50
243.83494348216479
 51
296.16505651783518
  0
LINE
  5
11B4
  8
0
 10
751.67690008291913
 20
-83.581284207903167
 30
0.0
 11
765.67690008291868
 21
-83.581284207903792
 31
0.0
  0
LINE
  5
11B5
  8
0
 10
750.67690008291902
 20
-82.581284207903124
 30
0.0
 11
766.67690008291868
 21
-82.581284207903835
 31
0.0
  0
LINE
  5
11B6
  8
0
 10
753.38539746079141
 20
-72.015474894776887
 30
0.0
 11
753.38539746079141
 21
-78.01547859771685
 31
0.0
  0
LINE
  5
11B7
  8
0
 10
752.6769000829205
 20
-72.723972272647842
 30
0.0
 11
752.67690008292038
 21
-77.306981219845937
 31
0.0
  0
LINE
  5
11B8
  8
0
 10
753.38539746079118
 20
-78.015478597716623
 30
0.0
 11
752.67690008292038
 21
-77.306981219845937
 31
0.0
  0
LINE
  5
11B9
  8
0
 10
750.67690008291891
 20
-80.015474894779032
 30
0.0
 11
750.67690008291902
 21
-82.581284207903124
 31
0.0
  0
LINE
  5
11BA
  8
0
 10
751.67690008291913
 20
-83.581284207903167
 30
0.0
 11
750.67690008291902
 21
-82.581284207903124
 31
0.0
  0
LINE
  5
11BB
  8
0
 10
753.3853974607913
 20
-72.015474894776986
 30
0.0
 11
752.6769000829205
 21
-72.723972272647842
 31
0.0
  0
LINE
  5
11BC
  8
0
 10
764.67690008292038
 20
-72.723972272647728
 30
0.0
 11
764.6769000829205
 21
-77.306981219845824
 31
0.0
  0
LINE
  5
11BD
  8
0
 10
763.96840270504947
 20
-72.015474894776986
 30
0.0
 11
763.96840270504958
 21
-78.015478597716736
 31
0.0
  0
LINE
  5
11BE
  8
0
 10
765.67690008291868
 20
-83.581284207903792
 30
0.0
 11
766.67690008291868
 21
-82.581284207903835
 31
0.0
  0
LINE
  5
11BF
  8
0
 10
766.67690008291902
 20
-80.015474894779032
 30
0.0
 11
766.67690008291868
 21
-82.581284207903835
 31
0.0
  0
LINE
  5
11C0
  8
0
 10
763.96840270504981
 20
-78.015478597716623
 30
0.0
 11
764.6769000829205
 21
-77.306981219845824
 31
0.0
  0
LINE
  5
11C1
  8
0
 10
763.96840270504947
 20
-72.015474894776986
 30
0.0
 11
764.67690008292038
 21
-72.723972272647728
 31
0.0
  0
LINE
  5
11C2
  8
0
  6
DASHED
 10
754.05690008291867
 20
2.984525105221024
 30
0.0
 11
754.05690008291867
 21
-5.0154748947789747
 31
0.0
  0
LINE
  5
11C3
  8
0
  6
DASHED
 10
756.36690008291873
 20
2.984525105221024
 30
0.0
 11
756.36690008291873
 21
-5.0154748947789747
 31
0.0
  0
LINE
  5
11C4
  8
0
  6
DASHED
 10
763.29690008291891
 20
2.984525105221024
 30
0.0
 11
763.29690008291891
 21
-5.0154748947789747
 31
0.0
  0
LINE
  5
11C5
  8
0
  6
DASHED
 10
760.98690008291874
 20
2.984525105221024
 30
0.0
 11
760.98690008291874
 21
-5.0154748947789747
 31
0.0
  0
LINE
  5
11C6
  8
0
  6
DASHED
 10
763.29690008291891
 20
-5.0154748947789747
 30
0.0
 11
758.67690008291868
 21
-7.6828331384350292
 31
0.0
  0
ARC
  5
11C7
  8
0
  6
DASHED
 10
758.67690008291868
 20
1.518191763384692
 30
0.0
 40
6.9299999999999971
 50
250.5287793655101
 51
289.47122063448933
  0
ARC
  5
11C8
  8
0
  6
DASHED
 10
755.21190008291876
 20
-3.5306832334266849
 30
0.0
 40
1.881125003188632
 50
247.87887949171659
 51
307.87887949171773
  0
LINE
  5
11C9
  8
0
  6
DASHED
 10
754.05690008291867
 20
-5.0154748947789747
 30
0.0
 11
758.67690008291868
 21
-7.6828331384350292
 31
0.0
  0
ARC
  5
11CA
  8
0
  6
DASHED
 10
762.1419000829186
 20
-3.530683233426628
 30
0.0
 40
1.881125003188632
 50
232.121120508281
 51
292.12112050828182
  0
LINE
  5
11CB
  8
0
 10
751.67690008291856
 20
2.984525105221024
 30
0.0
 11
765.67690008291868
 21
2.984525105221024
 31
0.0
  0
LINE
  5
11CC
  8
0
 10
750.67690008291856
 20
1.984525105221024
 30
0.0
 11
766.67690008291868
 21
1.984525105221024
 31
0.0
  0
LINE
  5
11CD
  8
0
 10
751.67690008291856
 20
2.984525105221024
 30
0.0
 11
750.67690008291856
 21
1.984525105221024
 31
0.0
  0
LINE
  5
11CE
  8
0
 10
765.67690008291868
 20
2.984525105221024
 30
0.0
 11
766.67690008291868
 21
1.984525105221024
 31
0.0
  0
LINE
  5
11CF
  8
0
  6
CENTER
 10
758.67690008291777
 20
5.9845251052210244
 30
0.0
 11
758.67690008292084
 21
-109.0154748947771
 31
0.0
1001
GENIUS_GENOBJ-N-CEN_13
1002
{
1000
OWNER
1000
GEN
1002
}
1001
GENIUS_GENODEF_13
1002
{
1000
HIER
1070
     0
1002
}
1002
{
1000
MANEDIT
1070
     0
1002
}
1002
{
1000
NOSEL
1070
     0
1002
}
1002
{
1000
BEHIND
1070
     0
1002
}
1002
{
1000
OTHER
1070
     0
1002
}
1002
{
1000
REACTOR
1002
}
  0
LINE
  5
11D0
  8
0
 10
885.70892763860923
 20
3.984525105222815
 30
0.0
 11
868.20892763860934
 21
3.984525105222815
 31
0.0
  0
LINE
  5
11D1
  8
0
 10
866.95892763860923
 20
2.734525105222815
 30
0.0
 11
886.95892763860934
 21
2.734525105222815
 31
0.0
  0
ARC
  5
11D2
  8
0
  6
DASHED
 10
876.95892763860923
 20
2.151608427927385
 30
0.0
 40
8.6624999999999979
 50
250.5287793655107
 51
289.47122063449291
  0
LINE
  5
11D3
  8
0
  6
DASHED
 10
882.7339276386092
 20
-6.0154748947771841
 30
0.0
 11
876.95892763860923
 21
-9.3496726993473658
 31
0.0
  0
ARC
  5
11D4
  8
0
 10
876.95892763860945
 20
-70.515474894776403
 30
0.0
 40
10.0
 50
228.59037789073449
 51
311.40962210926529
  0
ARC
  5
11D5
  8
0
 10
876.95892763860945
 20
-78.51547489477727
 30
0.0
 40
10.0
 50
48.590377890734587
 51
131.4096221092654
  0
LINE
  5
11D6
  8
0
 10
870.34454936094778
 20
-71.015474894777157
 30
0.0
 11
883.57330591627067
 21
-71.015474894777157
 31
0.0
  0
LINE
  5
11D7
  8
0
 10
883.57330591627067
 20
-78.015474894777157
 30
0.0
 11
870.34454936094778
 21
-78.015474894777157
 31
0.0
  0
LINE
  5
11D8
  8
0
 10
866.95892763860945
 20
-82.864970864795168
 30
0.0
 11
886.95892763860934
 21
-82.864970864795168
 31
0.0
  0
LINE
  5
11D9
  8
0
 10
885.70892763860945
 20
-84.114970864795168
 30
0.0
 11
876.95892763860945
 21
-84.114970864795168
 31
0.0
  0
LINE
  5
11DA
  8
0
 10
866.95892763860923
 20
-51.981784534950151
 30
0.0
 11
866.95892763860923
 21
2.734525105222815
 31
0.0
  0
LINE
  5
11DB
  8
0
 10
868.20892763860934
 20
-84.114970864795168
 30
0.0
 11
868.20892763860934
 21
3.984525105222815
 31
0.0
  0
LINE
  5
11DC
  8
0
  6
CENTER
 10
876.95892763860616
 20
6.9845251052227582
 30
0.0
 11
876.95892763860923
 21
-109.0154748947771
 31
0.0
1001
GENIUS_GENOBJ-N-CEN_13
1002
{
1000
OWNER
1000
GEN
1002
}
1001
GENIUS_GENODEF_13
1002
{
1000
HIER
1070
     0
1002
}
1002
{
1000
MANEDIT
1070
     0
1002
}
1002
{
1000
NOSEL
1070
     0
1002
}
1002
{
1000
BEHIND
1070
     0
1002
}
1002
{
1000
OTHER
1070
     0
1002
}
1002
{
1000
REACTOR
1002
}
  0
LINE
  5
11DD
  8
0
 10
868.20892763860934
 20
-84.114970864795168
 30
0.0
 11
866.95892763860945
 21
-82.864970864795168
 31
0.0
  0
LINE
  5
11DE
  8
0
 10
868.20892763860934
 20
-84.114970864795168
 30
0.0
 11
876.95892763860945
 21
-84.114970864795168
 31
0.0
  0
ARC
  5
11DF
  8
0
 10
876.95892763860923
 20
-92.829183393761923
 30
0.0
 40
11.999999999999931
 50
133.43253655778989
 51
140.98302508194749
  0
ARC
  5
11E0
  8
0
 10
866.08149492243376
 20
-84.015474894777114
 30
0.0
 40
2.0
 50
270.0
 51
320.98302508194757
1001
GENIUS_GENOBJ-N-FIL_13
1002
{
1000
OWNER
1000
GEN
1002
}
1001
GENIUS_GENODEF_13
1002
{
1000
HIER
1070
     0
1002
}
1002
{
1000
MANEDIT
1070
     0
1002
}
1002
{
1000
NOSEL
1070
     0
1002
}
1002
{
1000
BEHIND
1070
     0
1002
}
1002
{
1000
OTHER
1070
     0
1002
}
1002
{
1000
REACTOR
1002
}
  0
LINE
  5
11E1
  8
0
 10
866.95892763860923
 20
-80.515474894777157
 30
0.0
 11
866.95892763860923
 21
-51.981784534950151
 31
0.0
  0
LINE
  5
11E2
  8
0
 10
870.34454936094778
 20
-78.015474894777157
 30
0.0
 11
870.34454936094858
 21
-71.015474894776474
 31
0.0
  0
LINE
  5
11E3
  8
0
 10
869.45892763860934
 20
-71.901096617115883
 30
0.0
 11
869.45892763860934
 21
-77.129853172438658
 31
0.0
  0
LINE
  5
11E4
  8
0
 10
869.45892763860934
 20
-77.129853172438658
 30
0.0
 11
870.34454936094767
 21
-78.015474894777157
 31
0.0
  0
LINE
  5
11E5
  8
0
 10
866.95892763860945
 20
-82.864970864795168
 30
0.0
 11
866.95892763860923
 21
-80.515474894777157
 31
0.0
  0
LINE
  5
11E6
  8
0
 10
870.34454936094778
 20
-71.015474894777327
 30
0.0
 11
869.45892763860934
 21
-71.901096617115883
 31
0.0
  0
LINE
  5
11E7
  8
0
  6
DASHED
 10
871.18392763860925
 20
3.984525105222815
 30
0.0
 11
871.18392763860925
 21
-6.0154748947771841
 31
0.0
  0
LINE
  5
11E8
  8
0
  6
DASHED
 10
874.07142763860941
 20
3.984525105222815
 30
0.0
 11
874.07142763860929
 21
-6.0154748947771841
 31
0.0
  0
LINE
  5
11E9
  8
0
  6
DASHED
 10
871.18392763860925
 20
-6.0154748947771841
 30
0.0
 11
876.95892763860923
 21
-9.3496726993473658
 31
0.0
  0
ARC
  5
11EA
  8
0
  6
DASHED
 10
872.62767763860927
 20
-4.1594853180868077
 30
0.0
 40
2.3514062539857998
 50
247.8788794917181
 51
307.87887949171892
  0
LINE
  5
11EB
  8
0
 10
868.20892763860934
 20
3.984525105222815
 30
0.0
 11
866.95892763860923
 21
2.734525105222815
 31
0.0
  0
LINE
  5
11EC
  8
0
 10
886.95892763860934
 20
-51.981784534950151
 30
0.0
 11
886.95892763860934
 21
2.734525105222815
 31
0.0
  0
LINE
  5
11ED
  8
0
 10
885.70892763860923
 20
3.984525105222815
 30
0.0
 11
885.70892763860945
 21
-84.114970864795168
 31
0.0
  0
LINE
  5
11EE
  8
0
 10
886.95892763860934
 20
-82.864970864795168
 30
0.0
 11
885.70892763860945
 21
-84.114970864795168
 31
0.0
  0
ARC
  5
11EF
  8
0
 10
887.83636035478503
 20
-84.015474894777114
 30
0.0
 40
2.0
 50
219.01697491805231
 51
270.0
1001
GENIUS_GENOBJ-N-FIL_13
1002
{
1000
OWNER
1000
GEN
1002
}
1001
GENIUS_GENODEF_13
1002
{
1000
HIER
1070
     0
1002
}
1002
{
1000
MANEDIT
1070
     0
1002
}
1002
{
1000
NOSEL
1070
     0
1002
}
1002
{
1000
BEHIND
1070
     0
1002
}
1002
{
1000
OTHER
1070
     0
1002
}
1002
{
1000
REACTOR
1002
}
  0
ARC
  5
11F0
  8
0
 10
876.95892763860945
 20
-92.829183393761923
 30
0.0
 40
11.999999999999931
 50
39.01697491805237
 51
46.567463442210077
  0
LINE
  5
11F1
  8
0
 10
886.95892763860934
 20
-80.515474894777157
 30
0.0
 11
886.95892763860934
 21
-51.981784534950151
 31
0.0
  0
LINE
  5
11F2
  8
0
 10
883.57330591626999
 20
-71.015474894776531
 30
0.0
 11
883.57330591627067
 21
-78.015474894777157
 31
0.0
  0
LINE
  5
11F3
  8
0
 10
884.45892763860945
 20
-71.901096617115883
 30
0.0
 11
884.45892763860945
 21
-77.129853172438658
 31
0.0
  0
LINE
  5
11F4
  8
0
 10
886.95892763860934
 20
-82.864970864795168
 30
0.0
 11
886.95892763860934
 21
-80.515474894777157
 31
0.0
  0
LINE
  5
11F5
  8
0
 10
884.45892763860945
 20
-77.129853172438658
 30
0.0
 11
883.5733059162709
 21
-78.015474894777157
 31
0.0
  0
LINE
  5
11F6
  8
0
 10
883.57330591627067
 20
-71.015474894777327
 30
0.0
 11
884.45892763860945
 21
-71.901096617115883
 31
0.0
  0
LINE
  5
11F7
  8
0
  6
DASHED
 10
879.84642763860927
 20
3.984525105222815
 30
0.0
 11
879.84642763860927
 21
-6.0154748947771841
 31
0.0
  0
LINE
  5
11F8
  8
0
  6
DASHED
 10
882.7339276386092
 20
3.984525105222815
 30
0.0
 11
882.7339276386092
 21
-6.0154748947771841
 31
0.0
  0
ARC
  5
11F9
  8
0
  6
DASHED
 10
881.29017763860952
 20
-4.1594853180868077
 30
0.0
 40
2.3514062539857998
 50
232.121120508281
 51
292.12112050827812
  0
LINE
  5
11FA
  8
0
 10
885.70892763860923
 20
3.984525105222815
 30
0.0
 11
886.95892763860934
 21
2.734525105222815
 31
0.0
  0
LINE
  5
11FB
  8
0
  6
CENTER
 10
994.67993120748315
 20
9.9845251052228718
 30
0.0
 11
994.67993120748622
 21
-109.0154748947771
 31
0.0
1001
GENIUS_GENOBJ-N-CEN_13
1002
{
1000
OWNER
1000
GEN
1002
}
1001
GENIUS_GENODEF_13
1002
{
1000
HIER
1070
     0
1002
}
1002
{
1000
MANEDIT
1070
     0
1002
}
1002
{
1000
NOSEL
1070
     0
1002
}
1002
{
1000
BEHIND
1070
     0
1002
}
1002
{
1000
OTHER
1070
     0
1002
}
1002
{
1000
REACTOR
1002
}
  0
LINE
  5
11FC
  8
0
 10
982.6799312074852
 20
5.484525105222871
 30
0.0
 11
982.6799312074852
 21
-79.515474894777128
 31
0.0
  0
LINE
  5
11FD
  8
0
 10
1006.679931207485
 20
5.484525105222871
 30
0.0
 11
1006.679931207485
 21
-79.515474894777128
 31
0.0
  0
LINE
  5
11FE
  8
0
 10
1005.179931207485
 20
6.984525105222871
 30
0.0
 11
1005.179931207485
 21
-84.13289291232104
 31
0.0
  0
LINE
  5
11FF
  8
0
 10
984.17993120748531
 20
6.984525105222871
 30
0.0
 11
984.17993120748531
 21
-84.132892912321736
 31
0.0
  0
ARC
  5
1200
  8
0
 10
994.67993120748565
 20
-94.031882759775954
 30
0.0
 40
14.000000000000179
 50
37.876521341670752
 51
44.997076745941442
  0
ARC
  5
1201
  8
0
 10
994.67993120748554
 20
-94.031882759775954
 30
0.0
 40
14.000000000000179
 50
135.00292325406539
 51
142.12347865832919
  0
ARC
  5
1202
  8
0
 10
982.44522723284854
 20
-84.515474894777014
 30
0.0
 40
1.5
 50
270.0
 51
322.12347865832919
1001
GENIUS_GENOBJ-N-FIL_13
1002
{
1000
OWNER
1000
GEN
1002
}
1001
GENIUS_GENODEF_13
1002
{
1000
HIER
1070
     0
1002
}
1002
{
1000
MANEDIT
1070
     0
1002
}
1002
{
1000
NOSEL
1070
     0
1002
}
1002
{
1000
BEHIND
1070
     0
1002
}
1002
{
1000
OTHER
1070
     0
1002
}
1002
{
1000
REACTOR
1002
}
  0
ARC
  5
1203
  8
0
 10
1006.914635182122
 20
-84.515474894776446
 30
0.0
 40
1.5
 50
217.8765213416707
 51
270.0
1001
GENIUS_GENOBJ-N-FIL_13
1002
{
1000
OWNER
1000
GEN
1002
}
1001
GENIUS_GENODEF_13
1002
{
1000
HIER
1070
     0
1002
}
1002
{
1000
MANEDIT
1070
     0
1002
}
1002
{
1000
NOSEL
1070
     0
1002
}
1002
{
1000
BEHIND
1070
     0
1002
}
1002
{
1000
OTHER
1070
     0
1002
}
1002
{
1000
REACTOR
1002
}
  0
LINE
  5
1204
  8
0
 10
1005.179931207485
 20
-84.13289291232104
 30
0.0
 11
994.67993120748554
 21
-84.132892912321736
 31
0.0
  0
LINE
  5
1205
  8
0
 10
987.34849205817773
 20
-68.015474894777114
 30
0.0
 11
1002.011370356792
 21
-68.015474894777114
 31
0.0
  0
ARC
  5
1206
  8
0
 10
994.67993120748508
 20
-77.515474894777469
 30
0.0
 40
12.00000000000016
 50
52.341537993792407
 51
127.6584620062076
  0
LINE
  5
1207
  8
0
 10
1002.011370356792
 20
-77.015474894777128
 30
0.0
 11
987.34849205817773
 21
-77.015474894777128
 31
0.0
  0
ARC
  5
1208
  8
0
 10
994.67993120748508
 20
-67.515474894777071
 30
0.0
 40
12.000000000000091
 50
232.3415379937924
 51
307.65846200620763
  0
LINE
  5
1209
  8
0
 10
987.34849205817773
 20
-77.015474894777128
 30
0.0
 11
987.34849205817773
 21
-68.015474894777114
 31
0.0
  0
LINE
  5
120A
  8
0
 10
985.1799312074852
 20
-69.267494085678493
 30
0.0
 11
985.1799312074852
 21
-75.763455703875707
 31
0.0
  0
LINE
  5
120B
  8
0
 10
984.17993120748531
 20
-84.132892912321736
 30
0.0
 11
994.67993120748508
 21
-84.132892912321736
 31
0.0
  0
LINE
  5
120C
  8
0
 10
987.34849205817773
 20
-77.015474894777128
 30
0.0
 11
985.1799312074852
 21
-75.763455703875707
 31
0.0
  0
LINE
  5
120D
  8
0
 10
982.6799312074852
 20
-79.515474894777128
 30
0.0
 11
982.6799312074852
 21
-82.632892912321722
 31
0.0
  0
LINE
  5
120E
  8
0
 10
984.17993120748531
 20
-84.132892912321736
 30
0.0
 11
982.6799312074852
 21
-82.632892912321722
 31
0.0
  0
LINE
  5
120F
  8
0
 10
987.34849205817773
 20
-68.015474894777114
 30
0.0
 11
985.1799312074852
 21
-69.267494085678493
 31
0.0
  0
LINE
  5
1210
  8
0
 10
1004.179931207485
 20
-69.267494085678493
 30
0.0
 11
1004.179931207485
 21
-75.763455703875707
 31
0.0
  0
LINE
  5
1211
  8
0
 10
1002.011370356792
 20
-68.015474894777114
 30
0.0
 11
1002.011370356792
 21
-77.015474894777128
 31
0.0
  0
LINE
  5
1212
  8
0
 10
1006.679931207485
 20
-82.632892912320926
 30
0.0
 11
1005.179931207485
 21
-84.13289291232104
 31
0.0
  0
LINE
  5
1213
  8
0
 10
1006.679931207485
 20
-79.515474894777128
 30
0.0
 11
1006.679931207485
 21
-82.632892912320926
 31
0.0
  0
LINE
  5
1214
  8
0
 10
1002.011370356792
 20
-77.015474894777128
 30
0.0
 11
1004.179931207485
 21
-75.763455703875707
 31
0.0
  0
LINE
  5
1215
  8
0
 10
1002.011370356792
 20
-68.015474894777114
 30
0.0
 11
1004.179931207485
 21
-69.267494085678493
 31
0.0
  0
LINE
  5
1216
  8
0
  6
DASHED
 10
987.74993120748525
 20
6.984525105222871
 30
0.0
 11
987.74993120748525
 21
-5.0154748947771282
 31
0.0
  0
LINE
  5
1217
  8
0
  6
DASHED
 10
1001.609931207485
 20
6.984525105222871
 30
0.0
 11
1001.609931207485
 21
-5.0154748947771282
 31
0.0
  0
LINE
  5
1218
  8
0
  6
DASHED
 10
998.14493120748523
 20
6.984525105222871
 30
0.0
 11
998.144931207485
 21
-5.0154748947771282
 31
0.0
  0
LINE
  5
1219
  8
0
  6
DASHED
 10
991.21493120748517
 20
6.984525105222871
 30
0.0
 11
991.21493120748517
 21
-5.0154748947771282
 31
0.0
  0
ARC
  5
121A
  8
0
  6
DASHED
 10
999.87743120748519
 20
-2.7882874027486082
 30
0.0
 40
2.821687504782977
 50
232.12112050828549
 51
292.12112050828182
  0
LINE
  5
121B
  8
0
  6
DASHED
 10
1001.609931207485
 20
-5.0154748947771282
 30
0.0
 11
994.67993120748554
 21
-9.0165122602611518
 31
0.0
  0
ARC
  5
121C
  8
0
  6
DASHED
 10
989.48243120748521
 20
-2.7882874027486082
 30
0.0
 40
2.821687504782977
 50
247.8788794917181
 51
307.87887949171437
  0
LINE
  5
121D
  8
0
  6
DASHED
 10
987.74993120748525
 20
-5.0154748947771282
 30
0.0
 11
994.67993120748554
 21
-9.0165122602611518
 31
0.0
  0
ARC
  5
121E
  8
0
  6
DASHED
 10
994.67993120748554
 20
4.7850250924684579
 30
0.0
 40
10.395
 50
250.52877936550701
 51
289.47122063449291
  0
LINE
  5
121F
  8
0
 10
984.17993120748531
 20
6.984525105222871
 30
0.0
 11
1005.179931207485
 21
6.984525105222871
 31
0.0
  0
LINE
  5
1220
  8
0
 10
982.6799312074852
 20
5.484525105222871
 30
0.0
 11
1006.679931207485
 21
5.484525105222871
 31
0.0
  0
LINE
  5
1221
  8
0
 10
984.17993120748531
 20
6.984525105222871
 30
0.0
 11
982.6799312074852
 21
5.484525105222871
 31
0.0
  0
LINE
  5
1222
  8
0
 10
1005.179931207485
 20
6.984525105222871
 30
0.0
 11
1006.679931207485
 21
5.484525105222871
 31
0.0
  0
CIRCLE
  5
12C6
  8
0
 10
758.67690008292072
 20
-182.12028908867549
 30
0.0
 40
50.0
  0
LINE
  5
12C8
  8
0
  6
CENTER
 10
758.67690008292072
 20
-129.12028908867541
 30
0.0
 11
758.67690008292072
 21
-235.12028908867541
 31
0.0
  0
LINE
  5
12C9
  8
0
  6
CENTER
 10
705.67690008292061
 20
-182.12028908867549
 30
0.0
 11
811.67690008292061
 21
-182.12028908867549
 31
0.0
  0
LINE
  5
12CE
  8
0
  6
CENTER
 10
876.95892763861116
 20
-129.12028908867259
 30
0.0
 11
876.95892763861116
 21
-235.12028908867259
 31
0.0
  0
CIRCLE
  5
12CF
  8
0
 10
876.95892763861116
 20
-182.12028908867259
 30
0.0
 40
50.0
  0
LINE
  5
12D0
  8
0
  6
CENTER
 10
823.95892763861104
 20
-182.12028908867259
 30
0.0
 11
929.95892763861104
 21
-182.12028908867259
 31
0.0
  0
LINE
  5
12D1
  8
0
  6
CENTER
 10
935.10339271459895
 20
-182.12028908866969
 30
0.0
 11
1041.1033927145991
 21
-182.12028908866969
 31
0.0
  0
CIRCLE
  5
12D2
  8
0
 10
994.67993120748804
 20
-182.12028908866969
 30
0.0
 40
50.0
  0
LINE
  5
12D3
  8
0
  6
CENTER
 10
994.67993120748804
 20
-129.12028908866969
 30
0.0
 11
994.67993120748804
 21
-235.12028908866969
 31
0.0
  0
ARC
  5
12D4
  8
0
 10
758.67690008292072
 20
-182.12028908867549
 30
0.0
 40
7.0
 50
90.0
 51
0.0
1001
GENIUS_GENOREF_13
1005
0
  0
CIRCLE
  5
12D5
  8
0
 10
758.67690008292072
 20
-182.12028908867549
 30
0.0
 40
8.0
1001
GENIUS_GENOREF_13
1005
0
  0
CIRCLE
  5
12D6
  8
0
 10
758.67690008292072
 20
-182.12028908867549
 30
0.0
 40
4.6188021535169987
  0
POLYLINE
  5
12D7
  8
0
 66
     1
 10
0.0
 20
0.0
 30
0.0
 70
     1
  0
VERTEX
  5
13D8
  8
0
 10
756.36749900616223
 20
-178.12028908867541
 30
0.0
  0
VERTEX
  5
13D9
  8
0
 10
754.05809792940363
 20
-182.12028908867549
 30
0.0
  0
VERTEX
  5
13DA
  8
0
 10
756.36749900616223
 20
-186.12028908867549
 30
0.0
  0
VERTEX
  5
13DB
  8
0
 10
760.98630115967921
 20
-186.12028908867549
 30
0.0
  0
VERTEX
  5
13DC
  8
0
 10
763.29570223643782
 20
-182.12028908867549
 30
0.0
  0
VERTEX
  5
13DD
  8
0
 10
760.98630115967921
 20
-178.12028908867541
 30
0.0
  0
SEQEND
  5
13DE
  8
0
  0
CIRCLE
  5
12D8
  8
0
 10
876.95892763861116
 20
-182.12028908867259
 30
0.0
 40
5.7735026918962644
  0
POLYLINE
  5
12D9
  8
0
 66
     1
 10
0.0
 20
0.0
 30
0.0
 70
     1
  0
VERTEX
  5
13DF
  8
0
 10
874.07217629266302
 20
-177.12028908867259
 30
0.0
  0
VERTEX
  5
13E0
  8
0
 10
871.18542494671487
 20
-182.12028908867259
 30
0.0
  0
VERTEX
  5
13E1
  8
0
 10
874.07217629266302
 20
-187.12028908867259
 30
0.0
  0
VERTEX
  5
13E2
  8
0
 10
879.8456789845593
 20
-187.12028908867259
 30
0.0
  0
VERTEX
  5
13E3
  8
0
 10
882.73243033050744
 20
-182.12028908867259
 30
0.0
  0
VERTEX
  5
13E4
  8
0
 10
879.8456789845593
 20
-177.12028908867259
 30
0.0
  0
SEQEND
  5
13E5
  8
0
  0
ARC
  5
12DA
  8
0
 10
876.95892763861116
 20
-182.12028908867259
 30
0.0
 40
8.75
 50
90.0
 51
0.0
  0
CIRCLE
  5
12DB
  8
0
 10
876.95892763861116
 20
-182.12028908867259
 30
0.0
 40
10.0
1001
GENIUS_GENOREF_13
1005
0
  0
CIRCLE
  5
12DC
  8
0
 10
994.67993120748804
 20
-182.12028908866969
 30
0.0
 40
6.9282032302755283
  0
CIRCLE
  5
12DD
  8
0
 10
994.67993120748804
 20
-182.12028908866969
 30
0.0
 40
12.0
  0
ARC
  5
12DE
  8
0
 10
994.67993120748804
 20
-182.12028908866969
 30
0.0
 40
10.5
 50
90.0
 51
0.0
  0
POLYLINE
  5
12DF
  8
0
 66
     1
 10
0.0
 20
0.0
 30
0.0
 70
     1
  0
VERTEX
  5
13E6
  8
0
 10
991.21582959235025
 20
-176.12028908866969
 30
0.0
  0
VERTEX
  5
13E7
  8
0
 10
987.75172797721257
 20
-182.12028908866969
 30
0.0
  0
VERTEX
  5
13E8
  8
0
 10
991.21582959235025
 20
-188.12028908866969
 30
0.0
  0
VERTEX
  5
13E9
  8
0
 10
998.14403282262572
 20
-188.12028908866969
 30
0.0
  0
VERTEX
  5
13EA
  8
0
 10
1001.6081344377631
 20
-182.12028908866969
 30
0.0
  0
VERTEX
  5
13EB
  8
0
 10
998.14403282262572
 20
-176.12028908866969
 30
0.0
  0
SEQEND
  5
13EC
  8
0
  0
VIEWPORT
  5
8D
 67
     1
  8
0
 10
143.47825622558591
 20
99.980751991271987
 30
0.0
 40
339.12752973873143
 41
222.1965796813964
 68
     1
 69
     1
1001
ACAD
1000
MVIEW
1002
{
1070
    16
1010
0.0
1020
0.0
1030
0.0
1010
0.0
1020
0.0
1030
1.0
1040
0.0
1040
222.1965796813964
1040
143.47825622558591
1040
99.980751991271987
1040
50.0
1040
0.0
1040
0.0
1070
     0
1070
   100
1070
     1
1070
     1
1070
     0
1070
     0
1070
     0
1070
     0
1040
0.0
1040
0.0
1040
0.0
1040
10.0
1040
10.0
1040
10.0
1040
10.0
1070
     0
1002
{
1002
}
1002
}
  0
VIEWPORT
  5
8F
 67
     1
  8
0
 10
143.37242841720581
 20
99.874916553497314
 30
0.0
 40
229.3958854675293
 41
159.79986648559569
 68
     2
 69
     2
1001
ACAD
1000
MVIEW
1002
{
1070
    16
1010
0.0
1020
0.0
1030
0.0
1010
0.0
1020
0.0
1030
1.0
1040
0.0
1040
300.10452961672468
1040
210.0
1040
148.5
1040
50.0
1040
0.0
1040
0.0
1070
     0
1070
   100
1070
     1
1070
     2
1070
     0
1070
     0
1070
     0
1070
     0
1040
0.0
1040
0.0
1040
0.0
1040
10.0
1040
10.0
1040
10.0
1040
10.0
1070
     0
1002
{
1002
}
1002
}
  0
ENDSEC
  0
EOF
