  0
SECTION
  2
HEADER
  9
$ACADVER
  1
AC1009
  9
$INSBASE
 10
0.0
 20
0.0
 30
0.0
  9
$EXTMIN
 10
-62.468453
 20
-114.606596
 30
0.0
  9
$EXTMAX
 10
128.64136
 20
45.155787
 30
0.0
  9
$LIMMIN
 10
0.0
 20
0.0
  9
$LIMMAX
 10
12.0
 20
9.0
  9
$ORTHOMODE
 70
     0
  9
$REGENMODE
 70
     1
  9
$FILLMODE
 70
     1
  9
$QTEXTMODE
 70
     0
  9
$MIRRTEXT
 70
     1
  9
$DRAGMODE
 70
     2
  9
$LTSCALE
 40
7.0
  9
$OSMODE
 70
     0
  9
$ATTMODE
 70
     1
  9
$TEXTSIZE
 40
0.2
  9
$TRACEWID
 40
0.05
  9
$TEXTSTYLE
  7
STANDARD
  9
$CLAYER
  8
0
  9
$CELTYPE
  6
BYLAYER
  9
$CECOLOR
 62
   256
  9
$DIMSCALE
 40
1.0
  9
$DIMASZ
 40
2.5
  9
$DIMEXO
 40
0.0
  9
$DIMDLI
 40
5.0
  9
$DIMRND
 40
0.0
  9
$DIMDLE
 40
0.0
  9
$DIMEXE
 40
1.0
  9
$DIMTP
 40
0.0
  9
$DIMTM
 40
0.0
  9
$DIMTXT
 40
2.5
  9
$DIMCEN
 40
0.09
  9
$DIMTSZ
 40
0.0
  9
$DIMTOL
 70
     0
  9
$DIMLIM
 70
     0
  9
$DIMTIH
 70
     0
  9
$DIMTOH
 70
     0
  9
$DIMSE1
 70
     0
  9
$DIMSE2
 70
     0
  9
$DIMTAD
 70
     1
  9
$DIMZIN
 70
     0
  9
$DIMBLK
  1

  9
$DIMASO
 70
     0
  9
$DIMSHO
 70
     0
  9
$DIMPOST
  1

  9
$DIMAPOST
  1

  9
$DIMALT
 70
     0
  9
$DIMALTD
 70
     2
  9
$DIMALTF
 40
25.4
  9
$DIMLFAC
 40
1.0
  9
$DIMTOFL
 70
     1
  9
$DIMTVP
 40
0.0
  9
$DIMTIX
 70
     0
  9
$DIMSOXD
 70
     0
  9
$DIMSAH
 70
     0
  9
$DIMBLK1
  1

  9
$DIMBLK2
  1

  9
$DIMSTYLE
  2
*UNNAMED
  9
$DIMCLRD
 70
     0
  9
$DIMCLRE
 70
     0
  9
$DIMCLRT
 70
     0
  9
$DIMTFAC
 40
1.0
  9
$DIMGAP
 40
0.09
  9
$LUNITS
 70
     2
  9
$LUPREC
 70
     4
  9
$SKETCHINC
 40
0.1
  9
$FILLETRAD
 40
0.0
  9
$AUNITS
 70
     0
  9
$AUPREC
 70
     0
  9
$MENU
  1
wiberger
  9
$ELEVATION
 40
0.0
  9
$PELEVATION
 40
0.0
  9
$THICKNESS
 40
0.0
  9
$LIMCHECK
 70
     0
  9
$BLIPMODE
 70
     1
  9
$CHAMFERA
 40
0.5
  9
$CHAMFERB
 40
0.5
  9
$SKPOLY
 70
     0
  9
$TDCREATE
 40
2450190.344950463
  9
$TDUPDATE
 40
2450218.494445023
  9
$TDINDWG
 40
0.0054021991
  9
$TDUSRTIMER
 40
0.0054021991
  9
$USRTIMER
 70
     1
  9
$ANGBASE
 50
0.0
  9
$ANGDIR
 70
     0
  9
$PDMODE
 70
     0
  9
$PDSIZE
 40
0.0
  9
$PLINEWID
 40
0.0
  9
$COORDS
 70
     0
  9
$SPLFRAME
 70
     0
  9
$SPLINETYPE
 70
     6
  9
$SPLINESEGS
 70
     8
  9
$ATTDIA
 70
     0
  9
$ATTREQ
 70
     1
  9
$HANDLING
 70
     0
  9
$HANDSEED
  5
0
  9
$SURFTAB1
 70
     6
  9
$SURFTAB2
 70
     6
  9
$SURFTYPE
 70
     6
  9
$SURFU
 70
     6
  9
$SURFV
 70
     6
  9
$UCSNAME
  2

  9
$UCSORG
 10
0.0
 20
0.0
 30
0.0
  9
$UCSXDIR
 10
1.0
 20
0.0
 30
0.0
  9
$UCSYDIR
 10
0.0
 20
1.0
 30
0.0
  9
$PUCSNAME
  2

  9
$PUCSORG
 10
0.0
 20
0.0
 30
0.0
  9
$PUCSXDIR
 10
1.0
 20
0.0
 30
0.0
  9
$PUCSYDIR
 10
0.0
 20
1.0
 30
0.0
  9
$USERI1
 70
     0
  9
$USERI2
 70
     0
  9
$USERI3
 70
     0
  9
$USERI4
 70
     0
  9
$USERI5
 70
     0
  9
$USERR1
 40
0.0
  9
$USERR2
 40
0.0
  9
$USERR3
 40
0.0
  9
$USERR4
 40
0.0
  9
$USERR5
 40
0.0
  9
$WORLDVIEW
 70
     1
  9
$SHADEDGE
 70
     3
  9
$SHADEDIF
 70
    70
  9
$TILEMODE
 70
     1
  9
$MAXACTVP
 70
    16
  9
$PINSBASE
 10
0.0
 20
0.0
 30
0.0
  9
$PLIMCHECK
 70
     0
  9
$PEXTMIN
 10
1.000000E+20
 20
1.000000E+20
 30
1.000000E+20
  9
$PEXTMAX
 10
-1.000000E+20
 20
-1.000000E+20
 30
-1.000000E+20
  9
$PLIMMIN
 10
0.0
 20
0.0
  9
$PLIMMAX
 10
12.0
 20
9.0
  9
$UNITMODE
 70
     0
  9
$VISRETAIN
 70
     0
  9
$PLINEGEN
 70
     0
  9
$PSLTSCALE
 70
     0
  9
$TREEDEPTH
 70
  3020
  9
$DWGCODEPAGE
  3
undefined
  0
ENDSEC
  0
SECTION
  2
TABLES
  0
TABLE
  2
VPORT
 70
     2
  0
VPORT
  2
*ACTIVE
 70
     0
 10
0.0
 20
0.0
 11
1.0
 21
1.0
 12
82.095742
 22
-34.725404
 13
0.0
 23
0.0
 14
1.0
 24
1.0
 15
0.0
 25
0.0
 16
0.0
 26
0.0
 36
1.0
 17
0.0
 27
0.0
 37
0.0
 40
177.513759
 41
1.767507
 42
50.0
 43
0.0
 44
0.0
 50
0.0
 51
0.0
 71
     0
 72
   100
 73
     1
 74
     0
 75
     0
 76
     0
 77
     0
 78
     0
  0
ENDTAB
  0
TABLE
  2
LTYPE
 70
     2
  0
LTYPE
  2
CONTINUOUS
 70
    64
  3
Solid line
 72
    65
 73
     0
 40
0.0
  0
LTYPE
  2
CENTER
 70
    64
  3
____ _ ____ _ ____ _ ____ _ ____ _ ____ _ ____
 72
    65
 73
     4
 40
2.0
 49
1.25
 49
-0.25
 49
0.25
 49
-0.25
  0
ENDTAB
  0
TABLE
  2
LAYER
 70
     1
  0
LAYER
  2
0
 70
    64
 62
     7
  6
CONTINUOUS
  0
ENDTAB
  0
TABLE
  2
STYLE
 70
     1
  0
STYLE
  2
STANDARD
 70
     0
 40
0.0
 41
1.0
 50
0.0
 71
     0
 42
0.2
  3
txt
  4

  0
ENDTAB
  0
TABLE
  2
VIEW
 70
     0
  0
ENDTAB
  0
TABLE
  2
UCS
 70
     0
  0
ENDTAB
  0
TABLE
  2
APPID
 70
     1
  0
APPID
  2
ACAD
 70
    64
  0
ENDTAB
  0
TABLE
  2
DIMSTYLE
 70
     0
  0
ENDTAB
  0
ENDSEC
  0
SECTION
  2
BLOCKS
  0
BLOCK
  8
0
  2
*X0
 70
    65
 10
0.0
 20
0.0
 30
0.0
  3
*X
  0
LINE
  8
0
 62
     0
 10
-85.924418
 20
9.534997
 30
0.0
 11
-80.528485
 21
14.930931
 31
0.0
  0
LINE
  8
0
 62
     0
 10
-86.704253
 20
10.876483
 30
0.0
 11
-80.528485
 21
17.052251
 31
0.0
  0
LINE
  8
0
 62
     0
 10
-87.3342
 20
12.367857
 30
0.0
 11
-80.528485
 21
19.173572
 31
0.0
  0
LINE
  8
0
 62
     0
 10
-87.787955
 20
14.035421
 30
0.0
 11
-80.528485
 21
21.294892
 31
0.0
  0
LINE
  8
0
 62
     0
 10
-77.297589
 20
24.525787
 30
0.0
 11
-75.528485
 21
26.294892
 31
0.0
  0
LINE
  8
0
 62
     0
 10
-88.016485
 20
15.928212
 30
0.0
 11
-80.528485
 21
23.416212
 31
0.0
  0
LINE
  8
0
 62
     0
 10
-79.41891
 20
24.525787
 30
0.0
 11
-75.528485
 21
28.416212
 31
0.0
  0
LINE
  8
0
 62
     0
 10
-87.915833
 20
18.150184
 30
0.0
 11
-77.202882
 21
28.863135
 31
0.0
  0
LINE
  8
0
 62
     0
 10
-87.176996
 20
21.010342
 30
0.0
 11
-80.063039
 21
28.124298
 31
0.0
  0
LINE
  8
0
 62
     0
 10
-85.009035
 20
8.32906
 30
0.0
 11
-80.528485
 21
12.809611
 31
0.0
  0
LINE
  8
0
 62
     0
 10
-83.964796
 20
7.251979
 30
0.0
 11
-80.528485
 21
10.68829
 31
0.0
  0
LINE
  8
0
 62
     0
 10
-82.619667
 20
6.475787
 30
0.0
 11
-80.528485
 21
8.56697
 31
0.0
  0
LINE
  8
0
 62
     0
 10
-80.528485
 20
19.010195
 30
0.0
 11
-85.513721
 21
23.995431
 31
0.0
  0
LINE
  8
0
 62
     0
 10
-80.528485
 20
16.888874
 30
0.0
 11
-86.358044
 21
22.718434
 31
0.0
  0
LINE
  8
0
 62
     0
 10
-80.528485
 20
14.767554
 30
0.0
 11
-87.060309
 21
21.299378
 31
0.0
  0
LINE
  8
0
 62
     0
 10
-80.528485
 20
12.646234
 30
0.0
 11
-87.600594
 21
19.718343
 31
0.0
  0
LINE
  8
0
 62
     0
 10
-80.528485
 20
10.524913
 30
0.0
 11
-87.942552
 21
17.93898
 31
0.0
  0
LINE
  8
0
 62
     0
 10
-80.528485
 20
8.403593
 30
0.0
 11
-88.014744
 21
15.889853
 31
0.0
  0
LINE
  8
0
 62
     0
 10
-80.721999
 20
6.475787
 30
0.0
 11
-87.643458
 21
13.397246
 31
0.0
  0
LINE
  8
0
 62
     0
 10
-82.843319
 20
6.475787
 30
0.0
 11
-85.967509
 21
9.599977
 31
0.0
  0
LINE
  8
0
 62
     0
 10
-80.528485
 20
21.131515
 30
0.0
 11
-84.537779
 21
25.140809
 31
0.0
  0
LINE
  8
0
 62
     0
 10
-80.528485
 20
23.252835
 30
0.0
 11
-83.434022
 21
26.158373
 31
0.0
  0
LINE
  8
0
 62
     0
 10
-79.680116
 20
24.525787
 30
0.0
 11
-82.200535
 21
27.046206
 31
0.0
  0
LINE
  8
0
 62
     0
 10
-77.558796
 20
24.525787
 30
0.0
 11
-80.829226
 21
27.796217
 31
0.0
  0
LINE
  8
0
 62
     0
 10
-75.528485
 20
24.616796
 30
0.0
 11
-79.303743
 21
28.392054
 31
0.0
  0
LINE
  8
0
 62
     0
 10
-75.528485
 20
26.738117
 30
0.0
 11
-77.594274
 21
28.803906
 31
0.0
  0
LINE
  8
0
 62
     0
 10
-75.528485
 20
28.859437
 30
0.0
 11
-75.644298
 21
28.975251
 31
0.0
  0
ENDBLK
  8
0
  0
BLOCK
  8
0
  2
*X1
 70
    65
 10
0.0
 20
0.0
 30
0.0
  3
*X
  0
LINE
  8
0
 62
     0
 10
-37.417492
 20
7.837342
 30
0.0
 11
-30.449854
 21
14.80498
 31
0.0
  0
LINE
  8
0
 62
     0
 10
-38.4248
 20
9.658461
 30
0.0
 11
-30.449854
 21
17.633407
 31
0.0
  0
LINE
  8
0
 62
     0
 10
-39.21838
 20
11.693308
 30
0.0
 11
-30.449854
 21
20.461834
 31
0.0
  0
LINE
  8
0
 62
     0
 10
-24.035901
 20
26.875787
 30
0.0
 11
-23.949854
 21
26.961834
 31
0.0
  0
LINE
  8
0
 62
     0
 10
-39.754834
 20
13.985282
 30
0.0
 11
-30.449854
 21
23.290261
 31
0.0
  0
LINE
  8
0
 62
     0
 10
-26.864328
 20
26.875787
 30
0.0
 11
-23.949854
 21
29.790261
 31
0.0
  0
LINE
  8
0
 62
     0
 10
-39.94921
 20
16.619332
 30
0.0
 11
-30.449854
 21
26.118689
 31
0.0
  0
LINE
  8
0
 62
     0
 10
-29.692755
 20
26.875787
 30
0.0
 11
-24.093399
 21
32.475143
 31
0.0
  0
LINE
  8
0
 62
     0
 10
-39.60173
 20
19.795239
 30
0.0
 11
-27.269306
 21
32.127664
 31
0.0
  0
LINE
  8
0
 62
     0
 10
-37.881672
 20
24.343724
 30
0.0
 11
-31.817791
 21
30.407605
 31
0.0
  0
LINE
  8
0
 62
     0
 10
-36.219631
 20
6.206776
 30
0.0
 11
-30.449854
 21
11.976553
 31
0.0
  0
LINE
  8
0
 62
     0
 10
-34.842161
 20
4.755819
 30
0.0
 11
-30.449854
 21
9.148126
 31
0.0
  0
LINE
  8
0
 62
     0
 10
-33.286856
 20
3.482697
 30
0.0
 11
-30.449854
 21
6.319699
 31
0.0
  0
LINE
  8
0
 62
     0
 10
-30.465338
 20
3.475787
 30
0.0
 11
-30.449854
 21
3.491272
 31
0.0
  0
LINE
  8
0
 62
     0
 10
-30.449854
 20
21.964573
 30
0.0
 11
-35.757866
 21
27.272585
 31
0.0
  0
LINE
  8
0
 62
     0
 10
-30.449854
 20
19.136145
 30
0.0
 11
-37.019307
 21
25.705598
 31
0.0
  0
LINE
  8
0
 62
     0
 10
-30.449854
 20
16.307718
 30
0.0
 11
-38.095189
 21
23.953053
 31
0.0
  0
LINE
  8
0
 62
     0
 10
-30.449854
 20
13.479291
 30
0.0
 11
-38.967189
 21
21.996626
 31
0.0
  0
LINE
  8
0
 62
     0
 10
-30.449854
 20
10.650864
 30
0.0
 11
-39.600417
 21
19.801427
 31
0.0
  0
LINE
  8
0
 62
     0
 10
-30.449854
 20
7.822437
 30
0.0
 11
-39.928552
 21
17.301135
 31
0.0
  0
LINE
  8
0
 62
     0
 10
-30.449854
 20
4.99401
 30
0.0
 11
-39.808342
 21
14.352498
 31
0.0
  0
LINE
  8
0
 62
     0
 10
-31.760058
 20
3.475787
 30
0.0
 11
-38.797236
 21
10.512965
 31
0.0
  0
LINE
  8
0
 62
     0
 10
-30.449854
 20
24.793
 30
0.0
 11
-34.318412
 21
28.661558
 31
0.0
  0
LINE
  8
0
 62
     0
 10
-29.704214
 20
26.875787
 30
0.0
 11
-32.699726
 21
29.871299
 31
0.0
  0
LINE
  8
0
 62
     0
 10
-26.875787
 20
26.875787
 30
0.0
 11
-30.891518
 21
30.891518
 31
0.0
  0
LINE
  8
0
 62
     0
 10
-24.04736
 20
26.875787
 30
0.0
 11
-28.871574
 21
31.700001
 31
0.0
  0
LINE
  8
0
 62
     0
 10
-23.949854
 20
29.606708
 30
0.0
 11
-26.598227
 21
32.255081
 31
0.0
  0
LINE
  8
0
 62
     0
 10
-23.949854
 20
32.435135
 30
0.0
 11
-23.990454
 21
32.475736
 31
0.0
  0
ENDBLK
  8
0
  0
BLOCK
  8
0
  2
*X2
 70
    65
 10
0.0
 20
0.0
 30
0.0
  3
*X
  0
LINE
  8
0
 62
     0
 10
67.446357
 20
7.34228
 30
0.0
 11
77.626941
 21
17.522865
 31
0.0
  0
LINE
  8
0
 62
     0
 10
66.47691
 20
9.908367
 30
0.0
 11
77.626941
 21
21.058399
 31
0.0
  0
LINE
  8
0
 62
     0
 10
84.245471
 20
27.676928
 30
0.0
 11
85.626941
 21
29.058399
 31
0.0
  0
LINE
  8
0
 62
     0
 10
65.834695
 20
12.801687
 30
0.0
 11
77.626941
 21
24.593932
 31
0.0
  0
LINE
  8
0
 62
     0
 10
80.709937
 20
27.676928
 30
0.0
 11
85.626941
 21
32.593932
 31
0.0
  0
LINE
  8
0
 62
     0
 10
65.632181
 20
16.134706
 30
0.0
 11
85.169163
 21
35.671689
 31
0.0
  0
LINE
  8
0
 62
     0
 10
66.140035
 20
20.178094
 30
0.0
 11
81.125775
 21
35.163834
 31
0.0
  0
LINE
  8
0
 62
     0
 10
68.607412
 20
26.181005
 30
0.0
 11
75.122864
 21
32.696457
 31
0.0
  0
LINE
  8
0
 62
     0
 10
68.68607
 20
5.046459
 30
0.0
 11
77.626941
 21
13.987331
 31
0.0
  0
LINE
  8
0
 62
     0
 10
70.165594
 20
2.99045
 30
0.0
 11
77.626941
 21
10.451797
 31
0.0
  0
LINE
  8
0
 62
     0
 10
71.870253
 20
1.159575
 30
0.0
 11
77.626941
 21
6.916263
 31
0.0
  0
LINE
  8
0
 62
     0
 10
73.796998
 20
-0.449214
 30
0.0
 11
77.626941
 21
3.380729
 31
0.0
  0
LINE
  8
0
 62
     0
 10
76.458674
 20
-1.323072
 30
0.0
 11
77.626941
 21
-0.154805
 31
0.0
  0
LINE
  8
0
 62
     0
 10
77.626941
 20
17.832474
 30
0.0
 11
68.867786
 21
26.59163
 31
0.0
  0
LINE
  8
0
 62
     0
 10
77.626941
 20
14.29694
 30
0.0
 11
67.595135
 21
24.328747
 31
0.0
  0
LINE
  8
0
 62
     0
 10
77.626941
 20
10.761407
 30
0.0
 11
66.587554
 21
21.800794
 31
0.0
  0
LINE
  8
0
 62
     0
 10
77.626941
 20
7.225873
 30
0.0
 11
65.897471
 21
18.955343
 31
0.0
  0
LINE
  8
0
 62
     0
 10
77.626941
 20
3.690339
 30
0.0
 11
65.626946
 21
15.690334
 31
0.0
  0
LINE
  8
0
 62
     0
 10
77.626941
 20
0.154805
 30
0.0
 11
66.012382
 21
11.769364
 31
0.0
  0
LINE
  8
0
 62
     0
 10
75.569284
 20
-1.323072
 30
0.0
 11
67.97855
 21
6.267662
 31
0.0
  0
LINE
  8
0
 62
     0
 10
77.626941
 20
21.368008
 30
0.0
 11
70.377545
 21
28.617404
 31
0.0
  0
LINE
  8
0
 62
     0
 10
77.626941
 20
24.903542
 30
0.0
 11
72.111417
 21
30.419066
 31
0.0
  0
LINE
  8
0
 62
     0
 10
78.389089
 20
27.676928
 30
0.0
 11
74.067768
 21
31.998249
 31
0.0
  0
LINE
  8
0
 62
     0
 10
81.924623
 20
27.676928
 30
0.0
 11
76.255903
 21
33.345648
 31
0.0
  0
LINE
  8
0
 62
     0
 10
85.460157
 20
27.676928
 30
0.0
 11
78.698559
 21
34.438526
 31
0.0
  0
LINE
  8
0
 62
     0
 10
85.626941
 20
31.045678
 30
0.0
 11
81.439063
 21
35.233556
 31
0.0
  0
LINE
  8
0
 62
     0
 10
85.626941
 20
34.581212
 30
0.0
 11
84.559719
 21
35.648434
 31
0.0
  0
ENDBLK
  8
0
  0
BLOCK
  8
0
  2
*X3
 70
    65
 10
0.0
 20
0.0
 30
0.0
  3
*X
  0
LINE
  8
0
 62
     0
 10
144.450199
 20
4.443056
 30
0.0
 11
156.942693
 21
16.93555
 31
0.0
  0
LINE
  8
0
 62
     0
 10
143.222858
 20
7.458356
 30
0.0
 11
156.942693
 21
21.178191
 31
0.0
  0
LINE
  8
0
 62
     0
 10
166.020289
 20
30.255787
 30
0.0
 11
166.942693
 21
31.178191
 31
0.0
  0
LINE
  8
0
 62
     0
 10
142.355155
 20
10.833293
 30
0.0
 11
156.942693
 21
25.420832
 31
0.0
  0
LINE
  8
0
 62
     0
 10
161.777648
 20
30.255787
 30
0.0
 11
166.942693
 21
35.420832
 31
0.0
  0
LINE
  8
0
 62
     0
 10
141.952024
 20
14.672804
 30
0.0
 11
156.942693
 21
29.663472
 31
0.0
  0
LINE
  8
0
 62
     0
 10
157.535008
 20
30.255787
 30
0.0
 11
166.942693
 21
39.663472
 31
0.0
  0
LINE
  8
0
 62
     0
 10
142.240655
 20
19.204075
 30
0.0
 11
163.094405
 21
40.057825
 31
0.0
  0
LINE
  8
0
 62
     0
 10
143.938991
 20
25.145052
 30
0.0
 11
157.153428
 21
38.359489
 31
0.0
  0
LINE
  8
0
 62
     0
 10
145.981311
 20
1.731527
 30
0.0
 11
156.942693
 21
12.69291
 31
0.0
  0
LINE
  8
0
 62
     0
 10
147.785624
 20
-0.7068
 30
0.0
 11
156.942693
 21
8.450269
 31
0.0
  0
LINE
  8
0
 62
     0
 10
149.848427
 20
-2.886638
 30
0.0
 11
156.942693
 21
4.207628
 31
0.0
  0
LINE
  8
0
 62
     0
 10
152.167122
 20
-4.810583
 30
0.0
 11
156.942693
 21
-0.035012
 31
0.0
  0
LINE
  8
0
 62
     0
 10
154.750615
 20
-6.469731
 30
0.0
 11
156.942693
 21
-4.277653
 31
0.0
  0
LINE
  8
0
 62
     0
 10
156.942693
 20
17.005575
 30
0.0
 11
145.590029
 21
28.358239
 31
0.0
  0
LINE
  8
0
 62
     0
 10
156.942693
 20
12.762934
 30
0.0
 11
144.127943
 21
25.577684
 31
0.0
  0
LINE
  8
0
 62
     0
 10
156.942693
 20
8.520294
 30
0.0
 11
142.980123
 21
22.482864
 31
0.0
  0
LINE
  8
0
 62
     0
 10
156.942693
 20
4.277653
 30
0.0
 11
142.21109
 21
19.009256
 31
0.0
  0
LINE
  8
0
 62
     0
 10
156.942693
 20
0.035012
 30
0.0
 11
141.944778
 21
15.032927
 31
0.0
  0
LINE
  8
0
 62
     0
 10
156.942693
 20
-4.207628
 30
0.0
 11
142.465568
 21
10.269497
 31
0.0
  0
LINE
  8
0
 62
     0
 10
155.136637
 20
-6.644213
 30
0.0
 11
144.863987
 21
3.628437
 31
0.0
  0
LINE
  8
0
 62
     0
 10
156.942693
 20
21.248216
 30
0.0
 11
147.330947
 21
30.859962
 31
0.0
  0
LINE
  8
0
 62
     0
 10
156.942693
 20
25.490856
 30
0.0
 11
149.332687
 21
33.100862
 31
0.0
  0
LINE
  8
0
 62
     0
 10
156.942693
 20
29.733497
 30
0.0
 11
151.589914
 21
35.086276
 31
0.0
  0
LINE
  8
0
 62
     0
 10
160.663044
 20
30.255787
 30
0.0
 11
154.108704
 21
36.810127
 31
0.0
  0
LINE
  8
0
 62
     0
 10
164.905684
 20
30.255787
 30
0.0
 11
156.907985
 21
38.253486
 31
0.0
  0
LINE
  8
0
 62
     0
 10
166.942693
 20
32.461419
 30
0.0
 11
160.02459
 21
39.379522
 31
0.0
  0
LINE
  8
0
 62
     0
 10
166.942693
 20
36.70406
 30
0.0
 11
163.525598
 21
40.121155
 31
0.0
  0
ENDBLK
  8
0
  0
BLOCK
  8
0
  2
ACAD0F42
 70
     0
 10
0.0
 20
0.0
 30
0.0
  3
ACAD0F42
  0
LINE
  8
0
 10
-85.227685
 20
-285.700258
 30
0.0
 11
-85.227685
 21
-288.316924
 31
0.0
  0
LINE
  8
0
 10
-86.20918
 20
-285.450258
 30
0.0
 11
-86.20918
 21
-288.316924
 31
0.0
  0
LINE
  8
0
 10
-87.246189
 20
-287.816924
 30
0.0
 11
-81.246189
 21
-287.816924
 31
0.0
  0
LINE
  8
0
 10
-86.746189
 20
-288.316924
 30
0.0
 11
-81.746189
 21
-288.316924
 31
0.0
  0
LINE
  8
0
 10
-86.746189
 20
-288.316924
 30
0.0
 11
-87.246189
 21
-287.816924
 31
0.0
  0
LINE
  8
0
 10
-81.746189
 20
-288.316924
 30
0.0
 11
-81.246189
 21
-287.816924
 31
0.0
  0
ARC
  8
0
 10
-86.115776
 20
-287.135221
 30
0.0
 40
1.68755
 50
58.246853
 51
93.172888
  0
LINE
  8
0
 10
-84.246189
 20
-284.316924
 30
0.0
 11
-86.20918
 21
-285.450258
 31
0.0
  0
ARC
  8
0
 10
-84.246189
 20
-287.501924
 30
0.0
 40
2.051667
 50
90.0
 51
118.58026
  0
LINE
  8
0
 10
-49.701983
 20
-290.891991
 30
0.0
 11
-41.701983
 21
-290.891991
 31
0.0
  0
LINE
  8
0
 10
-49.101983
 20
-291.491991
 30
0.0
 11
-42.301983
 21
-291.491991
 31
0.0
  0
LINE
  8
0
 10
-49.101983
 20
-291.491991
 30
0.0
 11
-49.701983
 21
-290.891991
 31
0.0
  0
LINE
  8
0
 10
-45.701983
 20
-286.191991
 30
0.0
 11
-48.357794
 21
-287.725324
 31
0.0
  0
ARC
  8
0
 10
-48.304157
 20
-291.092091
 30
0.0
 40
3.367194
 50
67.763141
 51
90.912721
  0
ARC
  8
0
 10
-45.701983
 20
-291.376991
 30
0.0
 40
3.651667
 50
90.0
 51
111.324138
  0
LINE
  8
0
 10
-47.029889
 20
-287.975324
 30
0.0
 11
-47.029889
 21
-291.491991
 31
0.0
  0
LINE
  8
0
 10
-48.357794
 20
-287.725324
 30
0.0
 11
-48.357794
 21
-291.491991
 31
0.0
  0
LINE
  8
0
 10
-42.301983
 20
-291.491991
 30
0.0
 11
-41.701983
 21
-290.891991
 31
0.0
  0
LINE
  8
0
 10
-4.232246
 20
-291.481569
 30
0.0
 11
5.767754
 21
-291.481569
 31
0.0
  0
LINE
  8
0
 10
-3.482246
 20
-292.231569
 30
0.0
 11
-4.232246
 21
-291.481569
 31
0.0
  0
LINE
  8
0
 10
-3.482246
 20
-292.231569
 30
0.0
 11
5.017754
 21
-292.231569
 31
0.0
  0
ARC
  8
0
 10
0.767754
 20
-291.964903
 30
0.0
 40
3.466667
 50
90.0
 51
117.795772
  0
LINE
  8
0
 10
0.767754
 20
-286.631569
 30
0.0
 11
-2.465407
 21
-288.498236
 31
0.0
  0
ARC
  8
0
 10
-2.513553
 20
-292.159482
 30
0.0
 40
3.661562
 50
62.957631
 51
89.246596
  0
LINE
  8
0
 10
-0.848826
 20
-288.898236
 30
0.0
 11
-0.848826
 21
-292.231569
 31
0.0
  0
LINE
  8
0
 10
-2.465407
 20
-288.498236
 30
0.0
 11
-2.465407
 21
-292.231569
 31
0.0
  0
LINE
  8
0
 10
5.017754
 20
-292.231569
 30
0.0
 11
5.767754
 21
-291.481569
 31
0.0
  0
LINE
  8
0
 10
46.933978
 20
-297.554233
 30
0.0
 11
58.933978
 21
-297.554233
 31
0.0
  0
LINE
  8
0
 10
47.833978
 20
-298.454233
 30
0.0
 11
58.033978
 21
-298.454233
 31
0.0
  0
LINE
  8
0
 10
47.833978
 20
-298.454233
 30
0.0
 11
46.933978
 21
-297.554233
 31
0.0
  0
LINE
  8
0
 10
50.970987
 20
-294.1209
 30
0.0
 11
50.970987
 21
-298.454233
 31
0.0
  0
LINE
  8
0
 10
49.007996
 20
-293.7209
 30
0.0
 11
49.007996
 21
-298.454233
 31
0.0
  0
ARC
  8
0
 10
52.933978
 20
-298.737567
 30
0.0
 40
5.016667
 50
90.0
 51
113.035032
  0
LINE
  8
0
 10
52.933978
 20
-291.454233
 30
0.0
 11
49.007996
 21
-293.7209
 31
0.0
  0
ARC
  8
0
 10
49.135148
 20
-298.11357
 30
0.0
 40
4.39451
 50
65.30692
 51
91.658048
  0
LINE
  8
0
 10
58.033978
 20
-298.454233
 30
0.0
 11
58.933978
 21
-297.554233
 31
0.0
  0
ENDBLK
  8
0
  0
ENDSEC
  0
SECTION
  2
ENTITIES
  0
CIRCLE
  8
0
 10
-49.968453
 20
-36.838837
 30
0.0
 40
12.5
  0
ARC
  8
0
 10
-49.968453
 20
16.475787
 30
0.0
 40
12.5
 50
306.869898
 51
233.130102
  0
LINE
  8
0
  6
CENTER
 10
-49.968453
 20
31.226794
 30
0.0
 11
-49.968453
 21
-21.69825
 31
0.0
  0
LINE
  8
0
 10
-54.918453
 20
-8.524213
 30
0.0
 11
-52.468453
 21
-8.524213
 31
0.0
  0
LINE
  8
0
 10
-54.968453
 20
24.525787
 30
0.0
 11
-54.968453
 21
6.475787
 31
0.0
  0
LINE
  8
0
 10
-54.418453
 20
24.475787
 30
0.0
 11
-49.968453
 21
24.475787
 31
0.0
  0
LINE
  8
0
 10
-54.918453
 20
21.475787
 30
0.0
 11
-52.468453
 21
21.475787
 31
0.0
  0
LINE
  8
0
 10
-54.918453
 20
19.475787
 30
0.0
 11
-52.468453
 21
19.475787
 31
0.0
  0
LINE
  8
0
 10
-54.918453
 20
14.475787
 30
0.0
 11
-52.468453
 21
14.475787
 31
0.0
  0
LINE
  8
0
 10
-54.918453
 20
12.475787
 30
0.0
 11
-52.468453
 21
12.475787
 31
0.0
  0
LINE
  8
0
 10
-57.468453
 20
6.475787
 30
0.0
 11
-54.918453
 21
6.475787
 31
0.0
  0
LINE
  8
0
 10
-54.918453
 20
23.975787
 30
0.0
 11
-54.918453
 21
21.475787
 31
0.0
  0
LINE
  8
0
 10
-45.018453
 20
6.475787
 30
0.0
 11
-45.018453
 21
-8.524213
 31
0.0
  0
LINE
  8
0
 10
-54.968453
 20
24.525787
 30
0.0
 11
-49.968453
 21
24.525787
 31
0.0
  0
LINE
  8
0
 10
-54.918453
 20
23.975787
 30
0.0
 11
-54.418453
 21
24.475787
 31
0.0
  0
LINE
  8
0
 10
-52.468453
 20
21.475787
 30
0.0
 11
-52.468453
 21
19.475787
 31
0.0
  0
LINE
  8
0
 10
-52.468453
 20
14.475787
 30
0.0
 11
-52.468453
 21
12.475787
 31
0.0
  0
LINE
  8
0
 10
-54.918453
 20
19.475787
 30
0.0
 11
-54.918453
 21
14.475787
 31
0.0
  0
LINE
  8
0
 10
-54.918453
 20
12.475787
 30
0.0
 11
-54.918453
 21
-8.524213
 31
0.0
  0
LINE
  8
0
 10
-49.968453
 20
6.475787
 30
0.0
 11
-42.468453
 21
6.475787
 31
0.0
  0
CIRCLE
  8
0
 10
-54.168453
 20
20.475787
 30
0.0
 40
0.8
  0
CIRCLE
  8
0
 10
-54.168453
 20
13.475787
 30
0.0
 40
0.8
  0
LINE
  8
0
 10
-52.968453
 20
-8.524213
 30
0.0
 11
-52.968453
 21
-19.024213
 31
0.0
  0
LINE
  8
0
 10
-46.968453
 20
-8.524213
 30
0.0
 11
-46.968453
 21
-19.024213
 31
0.0
  0
LINE
  8
0
 10
-52.468453
 20
-19.524213
 30
0.0
 11
-47.468453
 21
-19.524213
 31
0.0
  0
LINE
  8
0
 10
-52.468453
 20
-8.524213
 30
0.0
 11
-52.468453
 21
-19.524213
 31
0.0
  0
LINE
  8
0
 10
-47.468453
 20
-8.524213
 30
0.0
 11
-47.468453
 21
-19.524213
 31
0.0
  0
LINE
  8
0
 10
-52.468453
 20
-19.524213
 30
0.0
 11
-52.968453
 21
-19.024213
 31
0.0
  0
LINE
  8
0
 10
-47.468453
 20
-19.524213
 30
0.0
 11
-46.968453
 21
-19.024213
 31
0.0
  0
INSERT
  8
0
  2
*X0
 10
25.560032
 20
0.0
 30
0.0
  0
CIRCLE
  8
0
 10
-7.517451
 20
-51.421527
 30
0.0
 40
16.0
  0
ARC
  8
0
 10
-7.517451
 20
16.475787
 30
0.0
 40
16.0
 50
305.659088
 51
234.340912
  0
LINE
  8
0
  6
CENTER
 10
-7.517451
 20
34.609036
 30
0.0
 11
-7.517451
 21
-30.352553
 31
0.0
  0
LINE
  8
0
 10
-13.917451
 20
26.325787
 30
0.0
 11
-13.917451
 21
22.325787
 31
0.0
  0
LINE
  8
0
 10
-14.017451
 20
26.875787
 30
0.0
 11
-14.017451
 21
3.475787
 31
0.0
  0
LINE
  8
0
 10
-13.917451
 20
-15.524213
 30
0.0
 11
-10.917451
 21
-15.524213
 31
0.0
  0
LINE
  8
0
 10
-16.84483
 20
3.475787
 30
0.0
 11
-13.917451
 21
3.475787
 31
0.0
  0
LINE
  8
0
 10
-14.017451
 20
26.875787
 30
0.0
 11
-7.517451
 21
26.875787
 31
0.0
  0
LINE
  8
0
 10
-13.417451
 20
26.825787
 30
0.0
 11
-7.517451
 21
26.825787
 31
0.0
  0
LINE
  8
0
 10
-13.917451
 20
26.325787
 30
0.0
 11
-13.417451
 21
26.825787
 31
0.0
  0
LINE
  8
0
 10
-13.917451
 20
22.325787
 30
0.0
 11
-11.517451
 21
22.325787
 31
0.0
  0
LINE
  8
0
 10
-13.917451
 20
20.025787
 30
0.0
 11
-11.517451
 21
20.025787
 31
0.0
  0
LINE
  8
0
 10
-13.917451
 20
14.625787
 30
0.0
 11
-11.517451
 21
14.625787
 31
0.0
  0
LINE
  8
0
 10
-13.917451
 20
12.325787
 30
0.0
 11
-11.517451
 21
12.325787
 31
0.0
  0
LINE
  8
0
 10
-11.517451
 20
22.325787
 30
0.0
 11
-11.517451
 21
20.025787
 31
0.0
  0
LINE
  8
0
 10
-11.517451
 20
14.625787
 30
0.0
 11
-11.517451
 21
12.325787
 31
0.0
  0
LINE
  8
0
 10
-13.917451
 20
20.025787
 30
0.0
 11
-13.917451
 21
14.625787
 31
0.0
  0
LINE
  8
0
 10
-13.917451
 20
12.325787
 30
0.0
 11
-13.917451
 21
-15.524213
 31
0.0
  0
LINE
  8
0
 10
-1.117451
 20
3.475787
 30
0.0
 11
-1.117451
 21
-15.524213
 31
0.0
  0
LINE
  8
0
 10
-7.517451
 20
3.475787
 30
0.0
 11
1.809928
 21
3.475787
 31
0.0
  0
CIRCLE
  8
0
 10
-13.017451
 20
21.175787
 30
0.0
 40
1.0
  0
CIRCLE
  8
0
 10
-13.017451
 20
13.475787
 30
0.0
 40
1.0
  0
LINE
  8
0
 10
-10.917451
 20
-28.524213
 30
0.0
 11
-4.117451
 21
-28.524213
 31
0.0
  0
LINE
  8
0
 10
-11.517451
 20
-15.524213
 30
0.0
 11
-11.517451
 21
-27.924213
 31
0.0
  0
LINE
  8
0
 10
-3.517451
 20
-15.524213
 30
0.0
 11
-3.517451
 21
-27.924213
 31
0.0
  0
LINE
  8
0
 10
-10.917451
 20
-15.524213
 30
0.0
 11
-10.917451
 21
-28.524213
 31
0.0
  0
LINE
  8
0
 10
-4.117451
 20
-15.524213
 30
0.0
 11
-4.117451
 21
-28.524213
 31
0.0
  0
LINE
  8
0
 10
-10.917451
 20
-28.524213
 30
0.0
 11
-11.517451
 21
-27.924213
 31
0.0
  0
LINE
  8
0
 10
-4.117451
 20
-28.524213
 30
0.0
 11
-3.517451
 21
-27.924213
 31
0.0
  0
LINE
  8
0
 10
-7.517451
 20
-15.524213
 30
0.0
 11
-1.117451
 21
-15.524213
 31
0.0
  0
LINE
  8
0
 10
-49.968453
 20
-8.524213
 30
0.0
 11
-45.018453
 21
-8.524213
 31
0.0
  0
INSERT
  8
0
  2
*X1
 10
16.432403
 20
0.0
 30
0.0
  0
ARC
  8
0
 10
42.62171
 20
16.475787
 30
0.0
 40
20.0
 50
301.788331
 51
238.211669
  0
CIRCLE
  8
0
 10
42.62171
 20
-68.645239
 30
0.0
 40
20.0
  0
LINE
  8
0
  6
CENTER
 10
42.62171
 20
39.804365
 30
0.0
 11
42.62171
 21
-41.27029
 31
0.0
  0
LINE
  8
0
 10
34.67171
 20
27.925787
 30
0.0
 11
34.67171
 21
23.125787
 31
0.0
  0
LINE
  8
0
 10
50.57171
 20
-0.524213
 30
0.0
 11
50.57171
 21
-24.524213
 31
0.0
  0
LINE
  8
0
 10
34.67171
 20
-24.524213
 30
0.0
 11
38.37171
 21
-24.524213
 31
0.0
  0
LINE
  8
0
 10
34.62171
 20
28.475787
 30
0.0
 11
34.62171
 21
-0.524213
 31
0.0
  0
LINE
  8
0
 10
32.086057
 20
-0.524213
 30
0.0
 11
34.67171
 21
-0.524213
 31
0.0
  0
LINE
  8
0
 10
34.62171
 20
28.475787
 30
0.0
 11
42.62171
 21
28.475787
 31
0.0
  0
LINE
  8
0
 10
35.17171
 20
28.425787
 30
0.0
 11
42.62171
 21
28.425787
 31
0.0
  0
LINE
  8
0
 10
34.67171
 20
27.925787
 30
0.0
 11
35.17171
 21
28.425787
 31
0.0
  0
LINE
  8
0
 10
34.67171
 20
23.125787
 30
0.0
 11
38.12171
 21
23.125787
 31
0.0
  0
LINE
  8
0
 10
34.67171
 20
20.275787
 30
0.0
 11
38.12171
 21
20.275787
 31
0.0
  0
LINE
  8
0
 10
34.67171
 20
12.275787
 30
0.0
 11
38.12171
 21
12.275787
 31
0.0
  0
LINE
  8
0
 10
34.67171
 20
9.425787
 30
0.0
 11
38.12171
 21
9.425787
 31
0.0
  0
LINE
  8
0
 10
38.12171
 20
23.125787
 30
0.0
 11
38.12171
 21
20.275787
 31
0.0
  0
LINE
  8
0
 10
34.67171
 20
9.425787
 30
0.0
 11
34.67171
 21
-24.524213
 31
0.0
  0
LINE
  8
0
 10
34.67171
 20
20.275787
 30
0.0
 11
34.67171
 21
12.275787
 31
0.0
  0
LINE
  8
0
 10
38.12171
 20
12.275787
 30
0.0
 11
38.12171
 21
9.425787
 31
0.0
  0
LINE
  8
0
 10
50.57471
 20
-0.524213
 30
0.0
 11
50.57871
 21
-0.524213
 31
0.0
  0
CIRCLE
  8
0
 10
35.87171
 20
21.700787
 30
0.0
 40
1.25
  0
CIRCLE
  8
0
 10
35.87171
 20
10.850787
 30
0.0
 40
1.25
  0
LINE
  8
0
 10
37.62171
 20
-24.524213
 30
0.0
 11
37.62171
 21
-37.774213
 31
0.0
  0
LINE
  8
0
 10
47.62171
 20
-24.524213
 30
0.0
 11
47.62171
 21
-37.774213
 31
0.0
  0
LINE
  8
0
 10
38.37171
 20
-38.524213
 30
0.0
 11
46.87171
 21
-38.524213
 31
0.0
  0
LINE
  8
0
 10
38.37171
 20
-24.524213
 30
0.0
 11
38.37171
 21
-38.524213
 31
0.0
  0
LINE
  8
0
 10
46.87171
 20
-24.524213
 30
0.0
 11
46.87171
 21
-38.524213
 31
0.0
  0
LINE
  8
0
 10
38.37171
 20
-38.524213
 30
0.0
 11
37.62171
 21
-37.774213
 31
0.0
  0
LINE
  8
0
 10
46.87171
 20
-38.524213
 30
0.0
 11
47.62171
 21
-37.774213
 31
0.0
  0
LINE
  8
0
 10
42.62171
 20
-24.524213
 30
0.0
 11
50.57171
 21
-24.524213
 31
0.0
  0
INSERT
  8
0
  2
*X2
 10
-43.005231
 20
0.798859
 30
0.0
  0
ARC
  8
0
 10
103.64136
 20
16.475787
 30
0.0
 40
25.0
 50
298.357637
 51
241.642363
  0
CIRCLE
  8
0
 10
103.64136
 20
-89.606596
 30
0.0
 40
25.0
  0
LINE
  8
0
  6
CENTER
 10
103.64136
 20
45.155787
 30
0.0
 11
103.64136
 21
-60.823956
 31
0.0
  0
LINE
  8
0
 10
93.74136
 20
-36.524213
 30
0.0
 11
98.54136
 21
-36.524213
 31
0.0
  0
LINE
  8
0
 10
93.74136
 20
30.775787
 30
0.0
 11
93.74136
 21
22.775787
 31
0.0
  0
LINE
  8
0
 10
113.54136
 20
-5.524213
 30
0.0
 11
113.54136
 21
-36.524213
 31
0.0
  0
LINE
  8
0
 10
93.64136
 20
31.375787
 30
0.0
 11
93.64136
 21
-5.524213
 31
0.0
  0
LINE
  8
0
 10
91.767018
 20
-5.524213
 30
0.0
 11
93.74136
 21
-5.524213
 31
0.0
  0
LINE
  8
0
 10
94.24136
 20
31.275787
 30
0.0
 11
103.64136
 21
31.275787
 31
0.0
  0
LINE
  8
0
 10
93.64136
 20
31.375787
 30
0.0
 11
103.64136
 21
31.375787
 31
0.0
  0
LINE
  8
0
 10
93.74136
 20
30.775787
 30
0.0
 11
94.24136
 21
31.275787
 31
0.0
  0
LINE
  8
0
 10
103.64136
 20
-5.524213
 30
0.0
 11
115.515702
 21
-5.524213
 31
0.0
  0
LINE
  8
0
 10
93.74136
 20
22.775787
 30
0.0
 11
98.74136
 21
22.775787
 31
0.0
  0
LINE
  8
0
 10
93.74136
 20
19.275787
 30
0.0
 11
98.74136
 21
19.275787
 31
0.0
  0
LINE
  8
0
 10
93.74136
 20
10.675787
 30
0.0
 11
98.74136
 21
10.675787
 31
0.0
  0
LINE
  8
0
 10
93.74136
 20
7.175787
 30
0.0
 11
98.74136
 21
7.175787
 31
0.0
  0
LINE
  8
0
 10
93.74136
 20
19.275787
 30
0.0
 11
93.74136
 21
10.675787
 31
0.0
  0
LINE
  8
0
 10
93.74136
 20
7.175787
 30
0.0
 11
93.74136
 21
-36.524213
 31
0.0
  0
LINE
  8
0
 10
98.74136
 20
22.775787
 30
0.0
 11
98.74136
 21
19.275787
 31
0.0
  0
LINE
  8
0
 10
98.74136
 20
10.675787
 30
0.0
 11
98.74136
 21
7.175787
 31
0.0
  0
CIRCLE
  8
0
 10
95.14136
 20
21.025787
 30
0.0
 40
1.5
  0
CIRCLE
  8
0
 10
95.14136
 20
8.925787
 30
0.0
 40
1.5
  0
LINE
  8
0
 10
97.64136
 20
-36.524213
 30
0.0
 11
97.64136
 21
-56.624213
 31
0.0
  0
LINE
  8
0
 10
109.64136
 20
-36.524213
 30
0.0
 11
109.64136
 21
-56.624213
 31
0.0
  0
LINE
  8
0
 10
98.54136
 20
-36.524213
 30
0.0
 11
98.54136
 21
-57.524213
 31
0.0
  0
LINE
  8
0
 10
108.74136
 20
-36.524213
 30
0.0
 11
108.74136
 21
-57.524213
 31
0.0
  0
LINE
  8
0
 10
98.54136
 20
-57.524213
 30
0.0
 11
108.74136
 21
-57.524213
 31
0.0
  0
LINE
  8
0
 10
98.54136
 20
-57.524213
 30
0.0
 11
97.64136
 21
-56.624213
 31
0.0
  0
LINE
  8
0
 10
108.74136
 20
-57.524213
 30
0.0
 11
109.64136
 21
-56.624213
 31
0.0
  0
LINE
  8
0
 10
103.64136
 20
-36.524213
 30
0.0
 11
113.54136
 21
-36.524213
 31
0.0
  0
INSERT
  8
0
  2
*X3
 10
-63.301333
 20
1.12
 30
0.0
  0
LINE
  8
0
 10
42.62171
 20
-0.524213
 30
0.0
 11
53.157364
 21
-0.524213
 31
0.0
  0
LINE
  8
0
 10
50.59271
 20
-0.524213
 30
0.0
 11
50.60141
 21
-0.524213
 31
0.0
  0
LINE
  8
0
 10
50.58171
 20
-0.524213
 30
0.0
 11
50.58971
 21
-0.524213
 31
0.0
  0
LINE
  8
0
 10
-50.949948
 20
-16.907546
 30
0.0
 11
-50.949948
 21
-19.524213
 31
0.0
  0
LINE
  8
0
 10
-51.931444
 20
-16.657546
 30
0.0
 11
-51.931444
 21
-19.524213
 31
0.0
  0
LINE
  8
0
 10
-49.968453
 20
-19.024213
 30
0.0
 11
-46.968453
 21
-19.024213
 31
0.0
  0
ARC
  8
0
 10
-51.83804
 20
-18.342509
 30
0.0
 40
1.68755
 50
58.246853
 51
93.172888
  0
LINE
  8
0
 10
-49.968453
 20
-15.524213
 30
0.0
 11
-51.931444
 21
-16.657546
 31
0.0
  0
ARC
  8
0
 10
-49.968453
 20
-18.709213
 30
0.0
 40
2.051667
 50
90.0
 51
118.58026
  0
LINE
  8
0
 10
-7.517451
 20
-27.924213
 30
0.0
 11
-3.517451
 21
-27.924213
 31
0.0
  0
LINE
  8
0
 10
-7.517451
 20
-23.224213
 30
0.0
 11
-10.173262
 21
-24.757546
 31
0.0
  0
ARC
  8
0
 10
-10.119625
 20
-28.124313
 30
0.0
 40
3.367194
 50
67.763141
 51
90.912721
  0
ARC
  8
0
 10
-7.517451
 20
-28.409213
 30
0.0
 40
3.651667
 50
90.0
 51
111.324138
  0
LINE
  8
0
 10
-8.845356
 20
-25.007546
 30
0.0
 11
-8.845356
 21
-28.524213
 31
0.0
  0
LINE
  8
0
 10
-10.173262
 20
-24.757546
 30
0.0
 11
-10.173262
 21
-28.524213
 31
0.0
  0
LINE
  8
0
 10
42.62171
 20
-37.774213
 30
0.0
 11
47.62171
 21
-37.774213
 31
0.0
  0
ARC
  8
0
 10
42.62171
 20
-38.257546
 30
0.0
 40
3.466667
 50
90.0
 51
117.795772
  0
LINE
  8
0
 10
42.62171
 20
-32.924213
 30
0.0
 11
39.388549
 21
-34.79088
 31
0.0
  0
ARC
  8
0
 10
39.340403
 20
-38.452125
 30
0.0
 40
3.661562
 50
62.957631
 51
89.246596
  0
LINE
  8
0
 10
41.00513
 20
-35.19088
 30
0.0
 11
41.00513
 21
-38.524213
 31
0.0
  0
LINE
  8
0
 10
39.388549
 20
-34.79088
 30
0.0
 11
39.388549
 21
-38.524213
 31
0.0
  0
LINE
  8
0
 10
103.64136
 20
-56.624213
 30
0.0
 11
109.64136
 21
-56.624213
 31
0.0
  0
LINE
  8
0
 10
101.678369
 20
-53.19088
 30
0.0
 11
101.678369
 21
-57.524213
 31
0.0
  0
LINE
  8
0
 10
99.715378
 20
-52.79088
 30
0.0
 11
99.715378
 21
-57.524213
 31
0.0
  0
ARC
  8
0
 10
103.64136
 20
-57.807546
 30
0.0
 40
5.016667
 50
90.0
 51
113.035032
  0
LINE
  8
0
 10
103.64136
 20
-50.524213
 30
0.0
 11
99.715378
 21
-52.79088
 31
0.0
  0
ARC
  8
0
 10
99.84253
 20
-57.183549
 30
0.0
 40
4.39451
 50
65.30692
 51
91.658048
  0
ENDSEC
  0
EOF
