  0
SECTION
  2
HEADER
  9
$ACADVER
  1
AC1009
  9
$INSBASE
 10
0.0
 20
0.0
 30
0.0
  9
$EXTMIN
 10
-142.301172
 20
-216.555834
 30
0.0
  9
$EXTMAX
 10
153.329897
 20
41.154145
 30
0.0
  9
$LIMMIN
 10
0.0
 20
0.0
  9
$LIMMAX
 10
12.0
 20
9.0
  9
$ORTHOMODE
 70
     1
  9
$REGENMODE
 70
     1
  9
$FILLMODE
 70
     1
  9
$QTEXTMODE
 70
     0
  9
$MIRRTEXT
 70
     1
  9
$DRAGMODE
 70
     2
  9
$LTSCALE
 40
7.0
  9
$OSMODE
 70
     0
  9
$ATTMODE
 70
     1
  9
$TEXTSIZE
 40
0.2
  9
$TRACEWID
 40
0.05
  9
$TEXTSTYLE
  7
STANDARD
  9
$CLAYER
  8
0
  9
$CELTYPE
  6
BYLAYER
  9
$CECOLOR
 62
   256
  9
$DIMSCALE
 40
1.0
  9
$DIMASZ
 40
2.5
  9
$DIMEXO
 40
0.0
  9
$DIMDLI
 40
5.0
  9
$DIMRND
 40
0.0
  9
$DIMDLE
 40
0.0
  9
$DIMEXE
 40
1.0
  9
$DIMTP
 40
0.0
  9
$DIMTM
 40
0.0
  9
$DIMTXT
 40
2.5
  9
$DIMCEN
 40
0.09
  9
$DIMTSZ
 40
0.0
  9
$DIMTOL
 70
     0
  9
$DIMLIM
 70
     0
  9
$DIMTIH
 70
     0
  9
$DIMTOH
 70
     0
  9
$DIMSE1
 70
     0
  9
$DIMSE2
 70
     0
  9
$DIMTAD
 70
     1
  9
$DIMZIN
 70
     0
  9
$DIMBLK
  1

  9
$DIMASO
 70
     0
  9
$DIMSHO
 70
     0
  9
$DIMPOST
  1

  9
$DIMAPOST
  1

  9
$DIMALT
 70
     0
  9
$DIMALTD
 70
     2
  9
$DIMALTF
 40
25.4
  9
$DIMLFAC
 40
1.0
  9
$DIMTOFL
 70
     1
  9
$DIMTVP
 40
0.0
  9
$DIMTIX
 70
     0
  9
$DIMSOXD
 70
     0
  9
$DIMSAH
 70
     0
  9
$DIMBLK1
  1

  9
$DIMBLK2
  1

  9
$DIMSTYLE
  2
*UNNAMED
  9
$DIMCLRD
 70
     0
  9
$DIMCLRE
 70
     0
  9
$DIMCLRT
 70
     0
  9
$DIMTFAC
 40
1.0
  9
$DIMGAP
 40
0.09
  9
$LUNITS
 70
     2
  9
$LUPREC
 70
     4
  9
$SKETCHINC
 40
0.1
  9
$FILLETRAD
 40
0.0
  9
$AUNITS
 70
     0
  9
$AUPREC
 70
     0
  9
$MENU
  1
wiberger
  9
$ELEVATION
 40
0.0
  9
$PELEVATION
 40
0.0
  9
$THICKNESS
 40
0.0
  9
$LIMCHECK
 70
     0
  9
$BLIPMODE
 70
     1
  9
$CHAMFERA
 40
0.7
  9
$CHAMFERB
 40
0.7
  9
$SKPOLY
 70
     0
  9
$TDCREATE
 40
2450189.582536921
  9
$TDUPDATE
 40
2450218.413986805
  9
$TDINDWG
 40
0.0024620370
  9
$TDUSRTIMER
 40
0.0024620370
  9
$USRTIMER
 70
     1
  9
$ANGBASE
 50
0.0
  9
$ANGDIR
 70
     0
  9
$PDMODE
 70
     0
  9
$PDSIZE
 40
0.0
  9
$PLINEWID
 40
0.0
  9
$COORDS
 70
     2
  9
$SPLFRAME
 70
     0
  9
$SPLINETYPE
 70
     6
  9
$SPLINESEGS
 70
     8
  9
$ATTDIA
 70
     0
  9
$ATTREQ
 70
     1
  9
$HANDLING
 70
     0
  9
$HANDSEED
  5
0
  9
$SURFTAB1
 70
     6
  9
$SURFTAB2
 70
     6
  9
$SURFTYPE
 70
     6
  9
$SURFU
 70
     6
  9
$SURFV
 70
     6
  9
$UCSNAME
  2

  9
$UCSORG
 10
0.0
 20
0.0
 30
0.0
  9
$UCSXDIR
 10
1.0
 20
0.0
 30
0.0
  9
$UCSYDIR
 10
0.0
 20
1.0
 30
0.0
  9
$PUCSNAME
  2

  9
$PUCSORG
 10
0.0
 20
0.0
 30
0.0
  9
$PUCSXDIR
 10
1.0
 20
0.0
 30
0.0
  9
$PUCSYDIR
 10
0.0
 20
1.0
 30
0.0
  9
$USERI1
 70
     0
  9
$USERI2
 70
     0
  9
$USERI3
 70
     0
  9
$USERI4
 70
     0
  9
$USERI5
 70
     0
  9
$USERR1
 40
0.0
  9
$USERR2
 40
0.0
  9
$USERR3
 40
0.0
  9
$USERR4
 40
0.0
  9
$USERR5
 40
0.0
  9
$WORLDVIEW
 70
     1
  9
$SHADEDGE
 70
     3
  9
$SHADEDIF
 70
    70
  9
$TILEMODE
 70
     1
  9
$MAXACTVP
 70
    16
  9
$PINSBASE
 10
0.0
 20
0.0
 30
0.0
  9
$PLIMCHECK
 70
     0
  9
$PEXTMIN
 10
1.000000E+20
 20
1.000000E+20
 30
1.000000E+20
  9
$PEXTMAX
 10
-1.000000E+20
 20
-1.000000E+20
 30
-1.000000E+20
  9
$PLIMMIN
 10
0.0
 20
0.0
  9
$PLIMMAX
 10
12.0
 20
9.0
  9
$UNITMODE
 70
     0
  9
$VISRETAIN
 70
     0
  9
$PLINEGEN
 70
     0
  9
$PSLTSCALE
 70
     0
  9
$TREEDEPTH
 70
  3020
  9
$DWGCODEPAGE
  3
undefined
  0
ENDSEC
  0
SECTION
  2
TABLES
  0
TABLE
  2
VPORT
 70
     2
  0
VPORT
  2
*ACTIVE
 70
     0
 10
0.0
 20
0.0
 11
1.0
 21
1.0
 12
67.360789
 22
-87.700844
 13
0.0
 23
0.0
 14
1.0
 24
1.0
 15
0.0
 25
0.0
 16
0.0
 26
0.0
 36
1.0
 17
0.0
 27
0.0
 37
0.0
 40
286.344421
 41
1.767507
 42
50.0
 43
0.0
 44
0.0
 50
0.0
 51
0.0
 71
     0
 72
   100
 73
     1
 74
     0
 75
     0
 76
     0
 77
     0
 78
     0
  0
ENDTAB
  0
TABLE
  2
LTYPE
 70
     2
  0
LTYPE
  2
CONTINUOUS
 70
    64
  3
Solid line
 72
    65
 73
     0
 40
0.0
  0
LTYPE
  2
CENTER
 70
    64
  3
____ _ ____ _ ____ _ ____ _ ____ _ ____ _ ____
 72
    65
 73
     4
 40
2.0
 49
1.25
 49
-0.25
 49
0.25
 49
-0.25
  0
ENDTAB
  0
TABLE
  2
LAYER
 70
     1
  0
LAYER
  2
0
 70
    64
 62
     7
  6
CONTINUOUS
  0
ENDTAB
  0
TABLE
  2
STYLE
 70
     1
  0
STYLE
  2
STANDARD
 70
     0
 40
0.0
 41
1.0
 50
0.0
 71
     0
 42
0.2
  3
txt
  4

  0
ENDTAB
  0
TABLE
  2
VIEW
 70
     0
  0
ENDTAB
  0
TABLE
  2
UCS
 70
     0
  0
ENDTAB
  0
TABLE
  2
APPID
 70
     1
  0
APPID
  2
ACAD
 70
    64
  0
ENDTAB
  0
TABLE
  2
DIMSTYLE
 70
     0
  0
ENDTAB
  0
ENDSEC
  0
SECTION
  2
BLOCKS
  0
BLOCK
  8
0
  2
*X0
 70
    65
 10
0.0
 20
0.0
 30
0.0
  3
*X
  0
LINE
  8
0
 62
     0
 10
-70.043902
 20
43.093183
 30
0.0
 11
-67.445172
 21
45.691913
 31
0.0
  0
LINE
  8
0
 62
     0
 10
-65.043902
 20
48.093183
 30
0.0
 11
-60.043902
 21
53.093183
 31
0.0
  0
LINE
  8
0
 62
     0
 10
-71.908751
 20
44.056761
 30
0.0
 11
-62.872329
 21
53.093183
 31
0.0
  0
LINE
  8
0
 62
     0
 10
-72.445172
 20
46.348767
 30
0.0
 11
-65.700757
 21
53.093183
 31
0.0
  0
LINE
  8
0
 62
     0
 10
-72.445172
 20
49.177194
 30
0.0
 11
-67.445172
 21
54.177194
 31
0.0
  0
LINE
  8
0
 62
     0
 10
-72.445172
 20
52.005622
 30
0.0
 11
-67.445172
 21
57.005622
 31
0.0
  0
LINE
  8
0
 62
     0
 10
-72.445172
 20
54.834049
 30
0.0
 11
-69.186038
 21
58.093183
 31
0.0
  0
LINE
  8
0
 62
     0
 10
-62.215475
 20
48.093183
 30
0.0
 11
-57.215475
 21
53.093183
 31
0.0
  0
LINE
  8
0
 62
     0
 10
-61.445172
 20
46.035059
 30
0.0
 11
-54.445172
 21
53.035059
 31
0.0
  0
LINE
  8
0
 62
     0
 10
-61.445172
 20
43.206632
 30
0.0
 11
-54.445172
 21
50.206632
 31
0.0
  0
LINE
  8
0
 62
     0
 10
-58.730194
 20
43.093183
 30
0.0
 11
-54.445172
 21
47.378205
 31
0.0
  0
LINE
  8
0
 62
     0
 10
-56.406891
 20
45.093183
 30
0.0
 11
-64.406891
 21
53.093183
 31
0.0
  0
LINE
  8
0
 62
     0
 10
-67.445172
 20
56.131463
 30
0.0
 11
-69.406891
 21
58.093183
 31
0.0
  0
LINE
  8
0
 62
     0
 10
-57.235318
 20
43.093183
 30
0.0
 11
-61.445172
 21
47.303036
 31
0.0
  0
LINE
  8
0
 62
     0
 10
-67.445172
 20
53.303036
 30
0.0
 11
-71.590245
 21
57.448109
 31
0.0
  0
LINE
  8
0
 62
     0
 10
-62.235318
 20
48.093183
 30
0.0
 11
-67.235318
 21
53.093183
 31
0.0
  0
LINE
  8
0
 62
     0
 10
-60.063745
 20
43.093183
 30
0.0
 11
-61.445172
 21
44.474609
 31
0.0
  0
LINE
  8
0
 62
     0
 10
-65.063745
 20
48.093183
 30
0.0
 11
-72.445172
 21
55.474609
 31
0.0
  0
LINE
  8
0
 62
     0
 10
-67.445172
 20
47.646182
 30
0.0
 11
-72.445172
 21
52.646182
 31
0.0
  0
LINE
  8
0
 62
     0
 10
-67.445172
 20
44.817755
 30
0.0
 11
-72.445172
 21
49.817755
 31
0.0
  0
LINE
  8
0
 62
     0
 10
-68.549027
 20
43.093183
 30
0.0
 11
-72.445172
 21
46.989328
 31
0.0
  0
LINE
  8
0
 62
     0
 10
-54.445172
 20
45.95989
 30
0.0
 11
-61.578464
 21
53.093183
 31
0.0
  0
LINE
  8
0
 62
     0
 10
-54.445172
 20
48.788318
 30
0.0
 11
-58.750037
 21
53.093183
 31
0.0
  0
LINE
  8
0
 62
     0
 10
-54.445172
 20
51.616745
 30
0.0
 11
-55.92161
 21
53.093183
 31
0.0
  0
ENDBLK
  8
0
  0
BLOCK
  8
0
  2
*X1
 70
    65
 10
0.0
 20
0.0
 30
0.0
  3
*X
  0
LINE
  8
0
 62
     0
 10
14.083611
 20
42.367882
 30
0.0
 11
14.799242
 21
43.083513
 31
0.0
  0
LINE
  8
0
 62
     0
 10
21.083611
 20
49.367882
 30
0.0
 11
26.083611
 21
54.367882
 31
0.0
  0
LINE
  8
0
 62
     0
 10
11.255184
 20
42.367882
 30
0.0
 11
14.799242
 21
45.91194
 31
0.0
  0
LINE
  8
0
 62
     0
 10
18.255184
 20
49.367882
 30
0.0
 11
23.255184
 21
54.367882
 31
0.0
  0
LINE
  8
0
 62
     0
 10
9.362999
 20
43.304125
 30
0.0
 11
14.799242
 21
48.740367
 31
0.0
  0
LINE
  8
0
 62
     0
 10
15.426756
 20
49.367882
 30
0.0
 11
20.426756
 21
54.367882
 31
0.0
  0
LINE
  8
0
 62
     0
 10
9.299242
 20
46.068794
 30
0.0
 11
17.598329
 21
54.367882
 31
0.0
  0
LINE
  8
0
 62
     0
 10
9.299242
 20
48.897222
 30
0.0
 11
14.799242
 21
54.397222
 31
0.0
  0
LINE
  8
0
 62
     0
 10
9.299242
 20
51.725649
 30
0.0
 11
14.799242
 21
57.225649
 31
0.0
  0
LINE
  8
0
 62
     0
 10
9.299242
 20
54.554076
 30
0.0
 11
14.799242
 21
60.054076
 31
0.0
  0
LINE
  8
0
 62
     0
 10
9.299242
 20
57.382503
 30
0.0
 11
12.284621
 21
60.367882
 31
0.0
  0
LINE
  8
0
 62
     0
 10
23.912038
 20
49.367882
 30
0.0
 11
28.912038
 21
54.367882
 31
0.0
  0
LINE
  8
0
 62
     0
 10
24.799242
 20
47.426659
 30
0.0
 11
31.740465
 21
54.367882
 31
0.0
  0
LINE
  8
0
 62
     0
 10
24.799242
 20
44.598232
 30
0.0
 11
32.799242
 21
52.598232
 31
0.0
  0
LINE
  8
0
 62
     0
 10
25.397319
 20
42.367882
 30
0.0
 11
32.799242
 21
49.769805
 31
0.0
  0
LINE
  8
0
 62
     0
 10
28.225746
 20
42.367882
 30
0.0
 11
30.799242
 21
44.941377
 31
0.0
  0
LINE
  8
0
 62
     0
 10
32.225746
 20
46.367882
 30
0.0
 11
32.799242
 21
46.941377
 31
0.0
  0
LINE
  8
0
 62
     0
 10
28.342796
 20
42.367882
 30
0.0
 11
24.799242
 21
45.911436
 31
0.0
  0
LINE
  8
0
 62
     0
 10
14.799242
 20
55.911436
 30
0.0
 11
10.342796
 21
60.367882
 31
0.0
  0
LINE
  8
0
 62
     0
 10
21.342796
 20
49.367882
 30
0.0
 11
16.342796
 21
54.367882
 31
0.0
  0
LINE
  8
0
 62
     0
 10
25.514369
 20
42.367882
 30
0.0
 11
24.799242
 21
43.083009
 31
0.0
  0
LINE
  8
0
 62
     0
 10
18.514369
 20
49.367882
 30
0.0
 11
9.299242
 21
58.583009
 31
0.0
  0
LINE
  8
0
 62
     0
 10
15.685942
 20
49.367882
 30
0.0
 11
9.299242
 21
55.754582
 31
0.0
  0
LINE
  8
0
 62
     0
 10
14.799242
 20
47.426155
 30
0.0
 11
9.299242
 21
52.926155
 31
0.0
  0
LINE
  8
0
 62
     0
 10
14.799242
 20
44.597728
 30
0.0
 11
9.299242
 21
50.097728
 31
0.0
  0
LINE
  8
0
 62
     0
 10
14.200661
 20
42.367882
 30
0.0
 11
9.299242
 21
47.269301
 31
0.0
  0
LINE
  8
0
 62
     0
 10
11.372233
 20
42.367882
 30
0.0
 11
9.299242
 21
44.440874
 31
0.0
  0
LINE
  8
0
 62
     0
 10
30.799242
 20
42.739863
 30
0.0
 11
24.799242
 21
48.739863
 31
0.0
  0
LINE
  8
0
 62
     0
 10
14.799242
 20
58.739863
 30
0.0
 11
13.171223
 21
60.367882
 31
0.0
  0
LINE
  8
0
 62
     0
 10
24.171223
 20
49.367882
 30
0.0
 11
19.171223
 21
54.367882
 31
0.0
  0
LINE
  8
0
 62
     0
 10
30.799242
 20
45.568291
 30
0.0
 11
21.99965
 21
54.367882
 31
0.0
  0
LINE
  8
0
 62
     0
 10
32.799242
 20
46.396718
 30
0.0
 11
24.828078
 21
54.367882
 31
0.0
  0
LINE
  8
0
 62
     0
 10
32.799242
 20
49.225145
 30
0.0
 11
27.656505
 21
54.367882
 31
0.0
  0
LINE
  8
0
 62
     0
 10
32.799242
 20
52.053572
 30
0.0
 11
30.484932
 21
54.367882
 31
0.0
  0
ENDBLK
  8
0
  0
BLOCK
  8
0
  2
*X2
 70
    65
 10
0.0
 20
0.0
 30
0.0
  3
*X
  0
LINE
  8
0
 62
     0
 10
105.577038
 20
60.322204
 30
0.0
 11
108.588575
 21
63.333741
 31
0.0
  0
LINE
  8
0
 62
     0
 10
114.577038
 20
69.322204
 30
0.0
 11
120.577038
 21
75.322204
 31
0.0
  0
LINE
  8
0
 62
     0
 10
103.268593
 20
60.842186
 30
0.0
 11
108.588575
 21
66.162168
 31
0.0
  0
LINE
  8
0
 62
     0
 10
111.748611
 20
69.322204
 30
0.0
 11
117.748611
 21
75.322204
 31
0.0
  0
LINE
  8
0
 62
     0
 10
102.588575
 20
62.990595
 30
0.0
 11
108.588575
 21
68.990595
 31
0.0
  0
LINE
  8
0
 62
     0
 10
108.920183
 20
69.322204
 30
0.0
 11
114.920183
 21
75.322204
 31
0.0
  0
LINE
  8
0
 62
     0
 10
102.588575
 20
65.819023
 30
0.0
 11
112.091756
 21
75.322204
 31
0.0
  0
LINE
  8
0
 62
     0
 10
102.588575
 20
68.64745
 30
0.0
 11
109.263329
 21
75.322204
 31
0.0
  0
LINE
  8
0
 62
     0
 10
102.588575
 20
71.475877
 30
0.0
 11
108.588575
 21
77.475877
 31
0.0
  0
LINE
  8
0
 62
     0
 10
102.588575
 20
74.304304
 30
0.0
 11
108.588575
 21
80.304304
 31
0.0
  0
LINE
  8
0
 62
     0
 10
102.588575
 20
77.132731
 30
0.0
 11
107.778048
 21
82.322204
 31
0.0
  0
LINE
  8
0
 62
     0
 10
102.588575
 20
79.961158
 30
0.0
 11
104.949621
 21
82.322204
 31
0.0
  0
LINE
  8
0
 62
     0
 10
108.405465
 20
60.322204
 30
0.0
 11
108.588575
 21
60.505314
 31
0.0
  0
LINE
  8
0
 62
     0
 10
117.405465
 20
69.322204
 30
0.0
 11
123.405465
 21
75.322204
 31
0.0
  0
LINE
  8
0
 62
     0
 10
120.233892
 20
69.322204
 30
0.0
 11
126.233892
 21
75.322204
 31
0.0
  0
LINE
  8
0
 62
     0
 10
123.062319
 20
69.322204
 30
0.0
 11
129.062319
 21
75.322204
 31
0.0
  0
LINE
  8
0
 62
     0
 10
123.588575
 20
67.020033
 30
0.0
 11
131.890746
 21
75.322204
 31
0.0
  0
LINE
  8
0
 62
     0
 10
123.588575
 20
64.191606
 30
0.0
 11
132.588575
 21
73.191606
 31
0.0
  0
LINE
  8
0
 62
     0
 10
123.588575
 20
61.363178
 30
0.0
 11
132.588575
 21
70.363178
 31
0.0
  0
LINE
  8
0
 62
     0
 10
125.376028
 20
60.322204
 30
0.0
 11
130.088575
 21
65.034751
 31
0.0
  0
LINE
  8
0
 62
     0
 10
130.376028
 20
65.322204
 30
0.0
 11
132.588575
 21
67.534751
 31
0.0
  0
LINE
  8
0
 62
     0
 10
128.204455
 20
60.322204
 30
0.0
 11
130.088575
 21
62.206324
 31
0.0
  0
LINE
  8
0
 62
     0
 10
126.353987
 20
60.322204
 30
0.0
 11
123.588575
 21
63.087615
 31
0.0
  0
LINE
  8
0
 62
     0
 10
108.588575
 20
78.087615
 30
0.0
 11
104.353987
 21
82.322204
 31
0.0
  0
LINE
  8
0
 62
     0
 10
117.353987
 20
69.322204
 30
0.0
 11
111.353987
 21
75.322204
 31
0.0
  0
LINE
  8
0
 62
     0
 10
114.525559
 20
69.322204
 30
0.0
 11
102.657067
 21
81.190696
 31
0.0
  0
LINE
  8
0
 62
     0
 10
111.697132
 20
69.322204
 30
0.0
 11
102.588575
 21
78.430761
 31
0.0
  0
LINE
  8
0
 62
     0
 10
108.868705
 20
69.322204
 30
0.0
 11
102.588575
 21
75.602334
 31
0.0
  0
LINE
  8
0
 62
     0
 10
108.588575
 20
66.773907
 30
0.0
 11
102.588575
 21
72.773907
 31
0.0
  0
LINE
  8
0
 62
     0
 10
108.588575
 20
63.945479
 30
0.0
 11
102.588575
 21
69.945479
 31
0.0
  0
LINE
  8
0
 62
     0
 10
108.588575
 20
61.117052
 30
0.0
 11
102.588575
 21
67.117052
 31
0.0
  0
LINE
  8
0
 62
     0
 10
106.554997
 20
60.322204
 30
0.0
 11
102.588575
 21
64.288625
 31
0.0
  0
LINE
  8
0
 62
     0
 10
129.182414
 20
60.322204
 30
0.0
 11
123.588575
 21
65.916042
 31
0.0
  0
LINE
  8
0
 62
     0
 10
108.588575
 20
80.916042
 30
0.0
 11
107.182414
 21
82.322204
 31
0.0
  0
LINE
  8
0
 62
     0
 10
120.182414
 20
69.322204
 30
0.0
 11
114.182414
 21
75.322204
 31
0.0
  0
LINE
  8
0
 62
     0
 10
130.088575
 20
62.244469
 30
0.0
 11
123.588575
 21
68.744469
 31
0.0
  0
LINE
  8
0
 62
     0
 10
123.010841
 20
69.322204
 30
0.0
 11
117.010841
 21
75.322204
 31
0.0
  0
LINE
  8
0
 62
     0
 10
130.088575
 20
65.072896
 30
0.0
 11
119.839268
 21
75.322204
 31
0.0
  0
LINE
  8
0
 62
     0
 10
132.588575
 20
65.401324
 30
0.0
 11
122.667695
 21
75.322204
 31
0.0
  0
LINE
  8
0
 62
     0
 10
132.588575
 20
68.229751
 30
0.0
 11
125.496122
 21
75.322204
 31
0.0
  0
LINE
  8
0
 62
     0
 10
132.588575
 20
71.058178
 30
0.0
 11
128.324549
 21
75.322204
 31
0.0
  0
LINE
  8
0
 62
     0
 10
132.588575
 20
73.886605
 30
0.0
 11
131.152976
 21
75.322204
 31
0.0
  0
ENDBLK
  8
0
  0
BLOCK
  8
0
  2
*X3
 70
    65
 10
0.0
 20
0.0
 30
0.0
  3
*X
  0
LINE
  8
0
 62
     0
 10
-126.301172
 20
18.655718
 30
0.0
 11
-122.301172
 21
22.655718
 31
0.0
  0
LINE
  8
0
 62
     0
 10
-126.301172
 20
20.423485
 30
0.0
 11
-122.301172
 21
24.423485
 31
0.0
  0
LINE
  8
0
 62
     0
 10
-126.301172
 20
22.191252
 30
0.0
 11
-124.394326
 21
24.098098
 31
0.0
  0
LINE
  8
0
 62
     0
 10
-124.301172
 20
24.191252
 30
0.0
 11
-122.301172
 21
26.191252
 31
0.0
  0
LINE
  8
0
 62
     0
 10
-126.301172
 20
23.959019
 30
0.0
 11
-126.162093
 21
24.098098
 31
0.0
  0
LINE
  8
0
 62
     0
 10
-124.301172
 20
25.959019
 30
0.0
 11
-122.301172
 21
27.959019
 31
0.0
  0
LINE
  8
0
 62
     0
 10
-124.301172
 20
27.726786
 30
0.0
 11
-122.301172
 21
29.726786
 31
0.0
  0
LINE
  8
0
 62
     0
 10
-124.301172
 20
29.494553
 30
0.0
 11
-122.301172
 21
31.494553
 31
0.0
  0
LINE
  8
0
 62
     0
 10
-124.301172
 20
31.26232
 30
0.0
 11
-123.465394
 21
32.098098
 31
0.0
  0
LINE
  8
0
 62
     0
 10
-126.301172
 20
16.887951
 30
0.0
 11
-122.301172
 21
20.887951
 31
0.0
  0
LINE
  8
0
 62
     0
 10
-126.301172
 20
15.120184
 30
0.0
 11
-122.301172
 21
19.120184
 31
0.0
  0
LINE
  8
0
 62
     0
 10
-126.301172
 20
13.352417
 30
0.0
 11
-122.301172
 21
17.352417
 31
0.0
  0
LINE
  8
0
 62
     0
 10
-125.787724
 20
12.098098
 30
0.0
 11
-122.301172
 21
15.58465
 31
0.0
  0
LINE
  8
0
 62
     0
 10
-124.019957
 20
12.098098
 30
0.0
 11
-122.301172
 21
13.816884
 31
0.0
  0
ENDBLK
  8
0
  0
BLOCK
  8
0
  2
*X4
 70
    65
 10
0.0
 20
0.0
 30
0.0
  3
*X
  0
LINE
  8
0
 62
     0
 10
30.799242
 20
20.19264
 30
0.0
 11
34.799242
 21
24.19264
 31
0.0
  0
LINE
  8
0
 62
     0
 10
30.799242
 20
22.844291
 30
0.0
 11
34.799242
 21
26.844291
 31
0.0
  0
LINE
  8
0
 62
     0
 10
32.799242
 20
27.495941
 30
0.0
 11
34.799242
 21
29.495941
 31
0.0
  0
LINE
  8
0
 62
     0
 10
32.799242
 20
30.147591
 30
0.0
 11
34.799242
 21
32.147591
 31
0.0
  0
LINE
  8
0
 62
     0
 10
32.799242
 20
32.799242
 30
0.0
 11
33.46647
 21
33.46647
 31
0.0
  0
LINE
  8
0
 62
     0
 10
30.799242
 20
17.54099
 30
0.0
 11
34.799242
 21
21.54099
 31
0.0
  0
LINE
  8
0
 62
     0
 10
30.799242
 20
14.889339
 30
0.0
 11
34.799242
 21
18.889339
 31
0.0
  0
LINE
  8
0
 62
     0
 10
30.799242
 20
12.237689
 30
0.0
 11
34.799242
 21
16.237689
 31
0.0
  0
LINE
  8
0
 62
     0
 10
31.089458
 20
9.876254
 30
0.0
 11
34.799242
 21
13.586038
 31
0.0
  0
LINE
  8
0
 62
     0
 10
33.331324
 20
9.46647
 30
0.0
 11
34.799242
 21
10.934388
 31
0.0
  0
ENDBLK
  8
0
  0
BLOCK
  8
0
  2
*X5
 70
    65
 10
0.0
 20
0.0
 30
0.0
  3
*X
  0
LINE
  8
0
 62
     0
 10
-86.380758
 20
-110.245612
 30
0.0
 11
-81.880758
 21
-105.745612
 31
0.0
  0
LINE
  8
0
 62
     0
 10
-86.380758
 20
-107.593962
 30
0.0
 11
-84.670993
 21
-105.884196
 31
0.0
  0
LINE
  8
0
 62
     0
 10
-83.880758
 20
-105.093962
 30
0.0
 11
-81.880758
 21
-103.093962
 31
0.0
  0
LINE
  8
0
 62
     0
 10
-83.880758
 20
-102.442311
 30
0.0
 11
-81.880758
 21
-100.442311
 31
0.0
  0
LINE
  8
0
 62
     0
 10
-83.880758
 20
-99.790661
 30
0.0
 11
-81.880758
 21
-97.790661
 31
0.0
  0
LINE
  8
0
 62
     0
 10
-83.880758
 20
-97.13901
 30
0.0
 11
-82.625944
 21
-95.884196
 31
0.0
  0
LINE
  8
0
 62
     0
 10
-86.380758
 20
-112.897262
 30
0.0
 11
-81.880758
 21
-108.397262
 31
0.0
  0
LINE
  8
0
 62
     0
 10
-86.380758
 20
-115.548913
 30
0.0
 11
-81.880758
 21
-111.048913
 31
0.0
  0
LINE
  8
0
 62
     0
 10
-86.380758
 20
-118.200563
 30
0.0
 11
-81.880758
 21
-113.700563
 31
0.0
  0
LINE
  8
0
 62
     0
 10
-86.380758
 20
-120.852214
 30
0.0
 11
-81.880758
 21
-116.352214
 31
0.0
  0
LINE
  8
0
 62
     0
 10
-86.380758
 20
-123.503864
 30
0.0
 11
-81.880758
 21
-119.003864
 31
0.0
  0
LINE
  8
0
 62
     0
 10
-85.10944
 20
-124.884196
 30
0.0
 11
-81.880758
 21
-121.655515
 31
0.0
  0
LINE
  8
0
 62
     0
 10
-82.457789
 20
-124.884196
 30
0.0
 11
-81.880758
 21
-124.307165
 31
0.0
  0
ENDBLK
  8
0
  0
ENDSEC
  0
SECTION
  2
ENTITIES
  0
LINE
  8
0
 10
-92.301172
 20
23.598098
 30
0.0
 11
-92.301172
 21
35.598098
 31
0.0
  0
LINE
  8
0
 10
-142.301172
 20
23.598098
 30
0.0
 11
-142.301172
 21
35.598098
 31
0.0
  0
LINE
  8
0
 10
-93.801172
 20
22.098098
 30
0.0
 11
-117.301172
 21
22.098098
 31
0.0
  0
LINE
  8
0
 10
-93.801172
 20
37.098098
 30
0.0
 11
-140.801172
 21
37.098098
 31
0.0
  0
LINE
  8
0
 10
-92.301172
 20
23.598098
 30
0.0
 11
-93.801172
 21
22.098098
 31
0.0
  0
LINE
  8
0
 10
-92.301172
 20
35.598098
 30
0.0
 11
-93.801172
 21
37.098098
 31
0.0
  0
LINE
  8
0
 10
-140.801172
 20
37.098098
 30
0.0
 11
-142.301172
 21
35.598098
 31
0.0
  0
LINE
  8
0
 10
-140.801172
 20
22.098098
 30
0.0
 11
-142.301172
 21
23.598098
 31
0.0
  0
CIRCLE
  8
0
 10
-117.301172
 20
-23.403308
 30
0.0
 40
25.0
  0
CIRCLE
  8
0
 10
-117.301172
 20
-23.403308
 30
0.0
 40
23.5
  0
LINE
  8
0
  6
CENTER
 10
-117.301172
 20
8.978653
 30
0.0
 11
-117.301172
 21
39.403146
 31
0.0
  0
LINE
  8
0
 10
-116.254281
 20
23.598098
 30
0.0
 11
-116.254281
 21
35.598098
 31
0.0
  0
LINE
  8
0
 10
-115.209226
 20
23.598098
 30
0.0
 11
-115.209226
 21
35.598098
 31
0.0
  0
LINE
  8
0
 10
-114.167841
 20
23.598098
 30
0.0
 11
-114.167841
 21
35.598098
 31
0.0
  0
LINE
  8
0
 10
-113.131953
 20
23.598098
 30
0.0
 11
-113.131953
 21
35.598098
 31
0.0
  0
LINE
  8
0
 10
-112.10338
 20
23.598098
 30
0.0
 11
-112.10338
 21
35.598098
 31
0.0
  0
LINE
  8
0
 10
-111.083925
 20
23.598098
 30
0.0
 11
-111.083925
 21
35.598098
 31
0.0
  0
LINE
  8
0
 10
-110.075377
 20
23.598098
 30
0.0
 11
-110.075377
 21
35.598098
 31
0.0
  0
LINE
  8
0
 10
-109.079506
 20
23.598098
 30
0.0
 11
-109.079506
 21
35.598098
 31
0.0
  0
LINE
  8
0
 10
-108.098058
 20
23.598098
 30
0.0
 11
-108.098058
 21
35.598098
 31
0.0
  0
LINE
  8
0
 10
-107.132756
 20
23.598098
 30
0.0
 11
-107.132756
 21
35.598098
 31
0.0
  0
LINE
  8
0
 10
-106.185292
 20
23.598098
 30
0.0
 11
-106.185292
 21
35.598098
 31
0.0
  0
LINE
  8
0
 10
-105.25733
 20
23.598098
 30
0.0
 11
-105.25733
 21
35.598098
 31
0.0
  0
LINE
  8
0
 10
-104.350497
 20
23.598098
 30
0.0
 11
-104.350497
 21
35.598098
 31
0.0
  0
LINE
  8
0
 10
-103.466383
 20
23.598098
 30
0.0
 11
-103.466383
 21
35.598098
 31
0.0
  0
LINE
  8
0
 10
-102.606541
 20
23.598098
 30
0.0
 11
-102.606541
 21
35.598098
 31
0.0
  0
LINE
  8
0
 10
-101.772477
 20
23.598098
 30
0.0
 11
-101.772477
 21
35.598098
 31
0.0
  0
LINE
  8
0
 10
-100.965657
 20
23.598098
 30
0.0
 11
-100.965657
 21
35.598098
 31
0.0
  0
LINE
  8
0
 10
-100.187494
 20
23.598098
 30
0.0
 11
-100.187494
 21
35.598098
 31
0.0
  0
LINE
  8
0
 10
-99.439355
 20
23.598098
 30
0.0
 11
-99.439355
 21
35.598098
 31
0.0
  0
LINE
  8
0
 10
-98.722551
 20
23.598098
 30
0.0
 11
-98.722551
 21
35.598098
 31
0.0
  0
LINE
  8
0
 10
-98.038341
 20
23.598098
 30
0.0
 11
-98.038341
 21
35.598098
 31
0.0
  0
LINE
  8
0
 10
-97.387924
 20
23.598098
 30
0.0
 11
-97.387924
 21
35.598098
 31
0.0
  0
LINE
  8
0
 10
-96.772442
 20
23.598098
 30
0.0
 11
-96.772442
 21
35.598098
 31
0.0
  0
LINE
  8
0
 10
-96.192974
 20
23.598098
 30
0.0
 11
-96.192974
 21
35.598098
 31
0.0
  0
LINE
  8
0
 10
-95.650537
 20
23.598098
 30
0.0
 11
-95.650537
 21
35.598098
 31
0.0
  0
LINE
  8
0
 10
-95.146082
 20
23.598098
 30
0.0
 11
-95.146082
 21
35.598098
 31
0.0
  0
LINE
  8
0
 10
-95.146082
 20
35.598098
 30
0.0
 11
-95.146082
 21
33.821972
 31
0.0
  0
LINE
  8
0
 10
-94.680496
 20
23.598098
 30
0.0
 11
-94.680496
 21
35.598098
 31
0.0
  0
LINE
  8
0
 10
-94.254593
 20
23.598098
 30
0.0
 11
-94.254593
 21
35.598098
 31
0.0
  0
LINE
  8
0
 10
-93.869122
 20
23.598098
 30
0.0
 11
-93.869122
 21
35.598098
 31
0.0
  0
LINE
  8
0
 10
-93.524759
 20
23.598098
 30
0.0
 11
-93.524759
 21
35.598098
 31
0.0
  0
LINE
  8
0
 10
-93.222108
 20
23.598098
 30
0.0
 11
-93.222108
 21
35.598098
 31
0.0
  0
LINE
  8
0
 10
-92.961699
 20
23.598098
 30
0.0
 11
-92.961699
 21
35.598098
 31
0.0
  0
LINE
  8
0
 10
-92.569364
 20
23.598098
 30
0.0
 11
-92.569364
 21
35.598098
 31
0.0
  0
LINE
  8
0
 10
-92.438124
 20
23.598098
 30
0.0
 11
-92.438124
 21
35.598098
 31
0.0
  0
LINE
  8
0
 10
-92.350504
 20
23.598098
 30
0.0
 11
-92.350504
 21
35.598098
 31
0.0
  0
LINE
  8
0
 10
-92.306655
 20
23.598098
 30
0.0
 11
-92.306655
 21
35.598098
 31
0.0
  0
LINE
  8
0
 10
-117.301172
 20
23.598098
 30
0.0
 11
-92.301172
 21
23.598098
 31
0.0
  0
LINE
  8
0
 10
-117.301172
 20
35.598098
 30
0.0
 11
-92.301172
 21
35.598098
 31
0.0
  0
LINE
  8
0
 10
-108.801172
 20
12.098098
 30
0.0
 11
-125.801172
 21
12.098098
 31
0.0
  0
LINE
  8
0
 10
-126.301172
 20
12.598098
 30
0.0
 11
-126.301172
 21
24.098098
 31
0.0
  0
LINE
  8
0
 10
-108.301172
 20
12.598098
 30
0.0
 11
-108.301172
 21
22.098098
 31
0.0
  0
LINE
  8
0
 10
-117.301172
 20
32.098098
 30
0.0
 11
-137.301172
 21
32.098098
 31
0.0
  0
LINE
  8
0
 10
-131.301172
 20
27.098098
 30
0.0
 11
-137.301172
 21
27.098098
 31
0.0
  0
LINE
  8
0
 10
-131.301172
 20
22.098098
 30
0.0
 11
-131.301172
 21
27.098098
 31
0.0
  0
LINE
  8
0
 10
-137.301172
 20
22.098098
 30
0.0
 11
-137.301172
 21
27.098098
 31
0.0
  0
LINE
  8
0
 10
-137.301172
 20
32.098098
 30
0.0
 11
-137.301172
 21
37.098098
 31
0.0
  0
LINE
  8
0
 10
-124.301172
 20
24.098098
 30
0.0
 11
-124.301172
 21
32.098098
 31
0.0
  0
LINE
  8
0
 10
-126.301172
 20
22.098098
 30
0.0
 11
-140.801172
 21
22.098098
 31
0.0
  0
LINE
  8
0
 10
-124.301172
 20
24.098098
 30
0.0
 11
-126.301172
 21
24.098098
 31
0.0
  0
LINE
  8
0
 10
-122.301172
 20
12.098098
 30
0.0
 11
-122.301172
 21
32.098098
 31
0.0
  0
LINE
  8
0
 10
-92.961699
 20
23.804916
 30
0.0
 11
-92.569364
 21
23.804916
 31
0.0
  0
LINE
  8
0
 10
-92.736784
 20
23.598098
 30
0.0
 11
-92.736784
 21
35.598098
 31
0.0
  0
INSERT
  8
0
  2
*X0
 10
-69.856
 20
-20.995084
 30
0.0
  0
CIRCLE
  8
0
 10
-117.301172
 20
-23.403308
 30
0.0
 40
5.0
  0
CIRCLE
  8
0
 10
-117.301172
 20
-23.403308
 30
0.0
 40
7.0
  0
CIRCLE
  8
0
 10
-117.301172
 20
-23.403308
 30
0.0
 40
20.0
  0
LINE
  8
0
 10
9.299242
 20
22.46647
 30
0.0
 11
9.299242
 21
38.46647
 31
0.0
  0
LINE
  8
0
 10
72.299242
 20
22.46647
 30
0.0
 11
72.299242
 21
38.46647
 31
0.0
  0
LINE
  8
0
 10
10.299242
 20
21.46647
 30
0.0
 11
30.799242
 21
21.46647
 31
0.0
  0
LINE
  8
0
 10
10.299242
 20
39.46647
 30
0.0
 11
71.299242
 21
39.46647
 31
0.0
  0
LINE
  8
0
 10
9.299242
 20
22.46647
 30
0.0
 11
10.299242
 21
21.46647
 31
0.0
  0
LINE
  8
0
 10
71.299242
 20
21.46647
 30
0.0
 11
72.299242
 21
22.46647
 31
0.0
  0
LINE
  8
0
 10
71.299242
 20
39.46647
 30
0.0
 11
72.299242
 21
38.46647
 31
0.0
  0
LINE
  8
0
 10
9.299242
 20
38.46647
 30
0.0
 11
10.299242
 21
39.46647
 31
0.0
  0
LINE
  8
0
 10
40.799242
 20
38.46647
 30
0.0
 11
72.299242
 21
38.46647
 31
0.0
  0
LINE
  8
0
 10
72.299242
 20
22.46647
 30
0.0
 11
40.799242
 21
22.46647
 31
0.0
  0
CIRCLE
  8
0
 10
40.799242
 20
-34.658863
 30
0.0
 40
31.5
  0
CIRCLE
  8
0
 10
40.799242
 20
-34.658863
 30
0.0
 40
30.5
  0
LINE
  8
0
  6
CENTER
 10
40.799242
 20
8.009461
 30
0.0
 11
40.799242
 21
41.154145
 31
0.0
  0
LINE
  8
0
 10
41.788681
 20
22.46647
 30
0.0
 11
41.788681
 21
38.46647
 31
0.0
  0
LINE
  8
0
 10
42.777143
 20
22.46647
 30
0.0
 11
42.777143
 21
38.46647
 31
0.0
  0
LINE
  8
0
 10
43.763654
 20
22.46647
 30
0.0
 11
43.763654
 21
38.46647
 31
0.0
  0
LINE
  8
0
 10
44.747239
 20
22.46647
 30
0.0
 11
44.747239
 21
38.46647
 31
0.0
  0
LINE
  8
0
 10
45.726927
 20
22.46647
 30
0.0
 11
45.726927
 21
38.46647
 31
0.0
  0
LINE
  8
0
 10
46.701753
 20
22.46647
 30
0.0
 11
46.701753
 21
38.46647
 31
0.0
  0
LINE
  8
0
 10
47.670754
 20
22.46647
 30
0.0
 11
47.670754
 21
38.46647
 31
0.0
  0
LINE
  8
0
 10
48.632973
 20
22.46647
 30
0.0
 11
48.632973
 21
38.46647
 31
0.0
  0
LINE
  8
0
 10
49.587462
 20
22.46647
 30
0.0
 11
49.587462
 21
38.46647
 31
0.0
  0
LINE
  8
0
 10
50.533277
 20
22.46647
 30
0.0
 11
50.533277
 21
38.46647
 31
0.0
  0
LINE
  8
0
 10
51.469486
 20
22.46647
 30
0.0
 11
51.469486
 21
38.46647
 31
0.0
  0
LINE
  8
0
 10
52.395165
 20
22.46647
 30
0.0
 11
52.395165
 21
38.46647
 31
0.0
  0
LINE
  8
0
 10
53.3094
 20
22.46647
 30
0.0
 11
53.3094
 21
38.46647
 31
0.0
  0
LINE
  8
0
 10
54.21129
 20
22.46647
 30
0.0
 11
54.21129
 21
38.46647
 31
0.0
  0
LINE
  8
0
 10
55.099943
 20
22.46647
 30
0.0
 11
55.099943
 21
38.46647
 31
0.0
  0
LINE
  8
0
 10
55.974483
 20
22.46647
 30
0.0
 11
55.974483
 21
38.46647
 31
0.0
  0
LINE
  8
0
 10
56.834046
 20
22.46647
 30
0.0
 11
56.834046
 21
38.46647
 31
0.0
  0
LINE
  8
0
 10
57.677786
 20
22.46647
 30
0.0
 11
57.677786
 21
38.46647
 31
0.0
  0
LINE
  8
0
 10
58.504868
 20
22.46647
 30
0.0
 11
58.504868
 21
38.46647
 31
0.0
  0
LINE
  8
0
 10
59.314477
 20
22.46647
 30
0.0
 11
59.314477
 21
38.46647
 31
0.0
  0
LINE
  8
0
 10
60.105814
 20
22.46647
 30
0.0
 11
60.105814
 21
38.46647
 31
0.0
  0
LINE
  8
0
 10
60.878098
 20
22.46647
 30
0.0
 11
60.878098
 21
38.46647
 31
0.0
  0
LINE
  8
0
 10
61.630566
 20
22.46647
 30
0.0
 11
61.630566
 21
38.46647
 31
0.0
  0
LINE
  8
0
 10
62.362476
 20
22.46647
 30
0.0
 11
62.362476
 21
38.46647
 31
0.0
  0
LINE
  8
0
 10
63.073105
 20
22.46647
 30
0.0
 11
63.073105
 21
38.46647
 31
0.0
  0
LINE
  8
0
 10
63.761754
 20
22.46647
 30
0.0
 11
63.761754
 21
38.46647
 31
0.0
  0
LINE
  8
0
 10
64.427741
 20
22.46647
 30
0.0
 11
64.427741
 21
38.46647
 31
0.0
  0
LINE
  8
0
 10
65.070409
 20
22.46647
 30
0.0
 11
65.070409
 21
38.46647
 31
0.0
  0
LINE
  8
0
 10
65.689125
 20
22.46647
 30
0.0
 11
65.689125
 21
38.46647
 31
0.0
  0
LINE
  8
0
 10
66.283277
 20
22.46647
 30
0.0
 11
66.283277
 21
38.46647
 31
0.0
  0
LINE
  8
0
 10
66.85228
 20
22.46647
 30
0.0
 11
66.85228
 21
38.46647
 31
0.0
  0
LINE
  8
0
 10
67.395571
 20
22.46647
 30
0.0
 11
67.395571
 21
38.46647
 31
0.0
  0
LINE
  8
0
 10
67.912616
 20
22.46647
 30
0.0
 11
67.912616
 21
38.46647
 31
0.0
  0
LINE
  8
0
 10
68.402902
 20
22.46647
 30
0.0
 11
68.402902
 21
38.46647
 31
0.0
  0
LINE
  8
0
 10
68.865947
 20
22.46647
 30
0.0
 11
68.865947
 21
38.46647
 31
0.0
  0
LINE
  8
0
 10
69.301294
 20
22.46647
 30
0.0
 11
69.301294
 21
38.46647
 31
0.0
  0
LINE
  8
0
 10
69.708513
 20
22.46647
 30
0.0
 11
69.708513
 21
38.46647
 31
0.0
  0
LINE
  8
0
 10
70.087201
 20
22.46647
 30
0.0
 11
70.087201
 21
38.46647
 31
0.0
  0
LINE
  8
0
 10
70.436986
 20
22.46647
 30
0.0
 11
70.436986
 21
38.46647
 31
0.0
  0
LINE
  8
0
 10
70.757522
 20
22.46647
 30
0.0
 11
70.757522
 21
38.46647
 31
0.0
  0
LINE
  8
0
 10
71.048493
 20
22.46647
 30
0.0
 11
71.048493
 21
38.46647
 31
0.0
  0
LINE
  8
0
 10
71.309611
 20
22.46647
 30
0.0
 11
71.309611
 21
38.46647
 31
0.0
  0
LINE
  8
0
 10
71.54062
 20
22.46647
 30
0.0
 11
71.54062
 21
38.46647
 31
0.0
  0
LINE
  8
0
 10
71.74129
 20
22.46647
 30
0.0
 11
71.74129
 21
38.46647
 31
0.0
  0
LINE
  8
0
 10
71.911425
 20
22.46647
 30
0.0
 11
71.911425
 21
38.46647
 31
0.0
  0
LINE
  8
0
 10
72.050855
 20
22.46647
 30
0.0
 11
72.050855
 21
38.46647
 31
0.0
  0
LINE
  8
0
 10
72.159444
 20
22.46647
 30
0.0
 11
72.159444
 21
38.46647
 31
0.0
  0
LINE
  8
0
 10
72.283698
 20
22.46647
 30
0.0
 11
72.283698
 21
38.46647
 31
0.0
  0
LINE
  8
0
 10
14.799242
 20
33.46647
 30
0.0
 11
40.799242
 21
33.46647
 31
0.0
  0
LINE
  8
0
 10
14.799242
 20
28.46647
 30
0.0
 11
24.799242
 21
28.46647
 31
0.0
  0
LINE
  8
0
 10
24.799242
 20
21.46647
 30
0.0
 11
24.799242
 21
28.46647
 31
0.0
  0
LINE
  8
0
 10
14.799242
 20
21.46647
 30
0.0
 11
14.799242
 21
28.46647
 31
0.0
  0
LINE
  8
0
 10
14.799242
 20
33.46647
 30
0.0
 11
14.799242
 21
39.46647
 31
0.0
  0
LINE
  8
0
 10
30.799242
 20
10.16647
 30
0.0
 11
30.799242
 21
25.46647
 31
0.0
  0
LINE
  8
0
 10
50.799242
 20
10.16647
 30
0.0
 11
50.799242
 21
21.46647
 31
0.0
  0
LINE
  8
0
 10
31.499242
 20
9.46647
 30
0.0
 11
50.099242
 21
9.46647
 31
0.0
  0
LINE
  8
0
 10
40.799242
 20
21.46647
 30
0.0
 11
71.299242
 21
21.46647
 31
0.0
  0
LINE
  8
0
 10
32.799242
 20
25.46647
 30
0.0
 11
32.799242
 21
33.46647
 31
0.0
  0
LINE
  8
0
 10
30.799242
 20
25.46647
 30
0.0
 11
32.799242
 21
25.46647
 31
0.0
  0
LINE
  8
0
 10
30.799242
 20
10.16647
 30
0.0
 11
31.499242
 21
9.46647
 31
0.0
  0
LINE
  8
0
 10
50.799242
 20
10.16647
 30
0.0
 11
50.099242
 21
9.46647
 31
0.0
  0
LINE
  8
0
 10
50.799242
 20
10.16647
 30
0.0
 11
40.799242
 21
10.16647
 31
0.0
  0
LINE
  8
0
 10
34.799242
 20
9.46647
 30
0.0
 11
34.799242
 21
33.46647
 31
0.0
  0
CIRCLE
  8
0
 10
40.799242
 20
-34.658863
 30
0.0
 40
26.0
  0
CIRCLE
  8
0
 10
40.799242
 20
-34.658863
 30
0.0
 40
8.0
  0
CIRCLE
  8
0
 10
40.799242
 20
-34.658863
 30
0.0
 40
6.0
  0
INSERT
  8
0
  2
*X1
 10
0.0
 20
-20.901412
 30
0.0
  0
LINE
  8
0
  6
CENTER
 10
-73.880758
 20
-127.403364
 30
0.0
 11
-73.880758
 21
-85.53951
 31
0.0
  0
LINE
  8
0
 10
-113.880758
 20
-109.684196
 30
0.0
 11
-113.880758
 21
-90.084196
 31
0.0
  0
LINE
  8
0
 10
-33.880758
 20
-109.684196
 30
0.0
 11
-33.880758
 21
-90.084196
 31
0.0
  0
LINE
  8
0
 10
-112.680758
 20
-110.884196
 30
0.0
 11
-86.380758
 21
-110.884196
 31
0.0
  0
LINE
  8
0
 10
-112.680758
 20
-88.884196
 30
0.0
 11
-35.080758
 21
-88.884196
 31
0.0
  0
LINE
  8
0
 10
-113.880758
 20
-90.084196
 30
0.0
 11
-112.680758
 21
-88.884196
 31
0.0
  0
LINE
  8
0
 10
-113.880758
 20
-109.684196
 30
0.0
 11
-112.680758
 21
-110.884196
 31
0.0
  0
LINE
  8
0
 10
-35.080758
 20
-110.884196
 30
0.0
 11
-33.880758
 21
-109.684196
 31
0.0
  0
LINE
  8
0
 10
-35.080758
 20
-88.884196
 30
0.0
 11
-33.880758
 21
-90.084196
 31
0.0
  0
LINE
  8
0
 10
-33.880758
 20
-109.684196
 30
0.0
 11
-73.880758
 21
-109.684196
 31
0.0
  0
LINE
  8
0
 10
-33.880758
 20
-90.084196
 30
0.0
 11
-73.880758
 21
-90.084196
 31
0.0
  0
LINE
  8
0
 10
-108.301172
 20
12.598098
 30
0.0
 11
-108.801172
 21
12.098098
 31
0.0
  0
LINE
  8
0
 10
-126.301172
 20
12.598098
 30
0.0
 11
-125.801172
 21
12.098098
 31
0.0
  0
LINE
  8
0
 10
-108.301172
 20
12.598098
 30
0.0
 11
-117.301172
 21
12.598098
 31
0.0
  0
CIRCLE
  8
0
 10
-73.880758
 20
-176.555834
 30
0.0
 40
40.0
  0
LINE
  8
0
 10
-72.83368
 20
-109.684196
 30
0.0
 11
-72.83368
 21
-90.084196
 31
0.0
  0
LINE
  8
0
 10
-71.78732
 20
-109.684196
 30
0.0
 11
-71.78732
 21
-90.084196
 31
0.0
  0
LINE
  8
0
 10
-70.742394
 20
-109.684196
 30
0.0
 11
-70.742394
 21
-90.084196
 31
0.0
  0
LINE
  8
0
 10
-69.69962
 20
-109.684196
 30
0.0
 11
-69.69962
 21
-90.084196
 31
0.0
  0
LINE
  8
0
 10
-68.65971
 20
-109.684196
 30
0.0
 11
-68.65971
 21
-90.084196
 31
0.0
  0
LINE
  8
0
 10
-67.62338
 20
-109.684196
 30
0.0
 11
-67.62338
 21
-90.084196
 31
0.0
  0
LINE
  8
0
 10
-66.591337
 20
-109.684196
 30
0.0
 11
-66.591337
 21
-90.084196
 31
0.0
  0
LINE
  8
0
 10
-65.564291
 20
-109.684196
 30
0.0
 11
-65.564291
 21
-90.084196
 31
0.0
  0
LINE
  8
0
 10
-64.542944
 20
-109.684196
 30
0.0
 11
-64.542944
 21
-90.084196
 31
0.0
  0
LINE
  8
0
 10
-63.527996
 20
-109.684196
 30
0.0
 11
-63.527996
 21
-90.084196
 31
0.0
  0
LINE
  8
0
 10
-62.520144
 20
-109.684196
 30
0.0
 11
-62.520144
 21
-90.084196
 31
0.0
  0
LINE
  8
0
 10
-61.520078
 20
-109.684196
 30
0.0
 11
-61.520078
 21
-90.084196
 31
0.0
  0
LINE
  8
0
 10
-60.528484
 20
-109.684196
 30
0.0
 11
-60.528484
 21
-90.084196
 31
0.0
  0
LINE
  8
0
 10
-59.54604
 20
-109.684196
 30
0.0
 11
-59.54604
 21
-90.084196
 31
0.0
  0
LINE
  8
0
 10
-58.573421
 20
-109.684196
 30
0.0
 11
-58.573421
 21
-90.084196
 31
0.0
  0
LINE
  8
0
 10
-57.611292
 20
-109.684196
 30
0.0
 11
-57.611292
 21
-90.084196
 31
0.0
  0
LINE
  8
0
 10
-56.660314
 20
-109.684196
 30
0.0
 11
-56.660314
 21
-90.084196
 31
0.0
  0
LINE
  8
0
 10
-55.721138
 20
-109.684196
 30
0.0
 11
-55.721138
 21
-90.084196
 31
0.0
  0
LINE
  8
0
 10
-54.794408
 20
-109.684196
 30
0.0
 11
-54.794408
 21
-90.084196
 31
0.0
  0
LINE
  8
0
 10
-53.880758
 20
-109.684196
 30
0.0
 11
-53.880758
 21
-90.084196
 31
0.0
  0
LINE
  8
0
 10
-52.980816
 20
-109.684196
 30
0.0
 11
-52.980816
 21
-90.084196
 31
0.0
  0
LINE
  8
0
 10
-52.095197
 20
-109.684196
 30
0.0
 11
-52.095197
 21
-90.084196
 31
0.0
  0
LINE
  8
0
 10
-51.224509
 20
-109.684196
 30
0.0
 11
-51.224509
 21
-90.084196
 31
0.0
  0
LINE
  8
0
 10
-50.369348
 20
-109.684196
 30
0.0
 11
-50.369348
 21
-90.084196
 31
0.0
  0
LINE
  8
0
 10
-49.530301
 20
-109.684196
 30
0.0
 11
-49.530301
 21
-90.084196
 31
0.0
  0
LINE
  8
0
 10
-48.707943
 20
-109.684196
 30
0.0
 11
-48.707943
 21
-90.084196
 31
0.0
  0
LINE
  8
0
 10
-47.902836
 20
-109.684196
 30
0.0
 11
-47.902836
 21
-90.084196
 31
0.0
  0
LINE
  8
0
 10
-47.115534
 20
-109.684196
 30
0.0
 11
-47.115534
 21
-90.084196
 31
0.0
  0
LINE
  8
0
 10
-46.346575
 20
-109.684196
 30
0.0
 11
-46.346575
 21
-90.084196
 31
0.0
  0
LINE
  8
0
 10
-45.596487
 20
-109.684196
 30
0.0
 11
-45.596487
 21
-90.084196
 31
0.0
  0
LINE
  8
0
 10
-44.865783
 20
-109.684196
 30
0.0
 11
-44.865783
 21
-90.084196
 31
0.0
  0
LINE
  8
0
 10
-44.154965
 20
-109.684196
 30
0.0
 11
-44.154965
 21
-90.084196
 31
0.0
  0
LINE
  8
0
 10
-43.46452
 20
-109.684196
 30
0.0
 11
-43.46452
 21
-90.084196
 31
0.0
  0
LINE
  8
0
 10
-42.79492
 20
-109.684196
 30
0.0
 11
-42.79492
 21
-90.084196
 31
0.0
  0
LINE
  8
0
 10
-42.146625
 20
-109.684196
 30
0.0
 11
-42.146625
 21
-90.084196
 31
0.0
  0
LINE
  8
0
 10
-41.520078
 20
-109.684196
 30
0.0
 11
-41.520078
 21
-90.084196
 31
0.0
  0
LINE
  8
0
 10
-40.915711
 20
-109.684196
 30
0.0
 11
-40.915711
 21
-90.084196
 31
0.0
  0
LINE
  8
0
 10
-40.333935
 20
-109.684196
 30
0.0
 11
-40.333935
 21
-90.084196
 31
0.0
  0
LINE
  8
0
 10
-39.775152
 20
-109.684196
 30
0.0
 11
-39.775152
 21
-90.084196
 31
0.0
  0
LINE
  8
0
 10
-39.239742
 20
-109.684196
 30
0.0
 11
-39.239742
 21
-90.084196
 31
0.0
  0
LINE
  8
0
 10
-38.728074
 20
-109.684196
 30
0.0
 11
-38.728074
 21
-90.084196
 31
0.0
  0
LINE
  8
0
 10
-38.240497
 20
-109.684196
 30
0.0
 11
-38.240497
 21
-90.084196
 31
0.0
  0
LINE
  8
0
 10
-37.777347
 20
-109.684196
 30
0.0
 11
-37.777347
 21
-90.084196
 31
0.0
  0
LINE
  8
0
 10
-37.33894
 20
-109.684196
 30
0.0
 11
-37.33894
 21
-90.084196
 31
0.0
  0
LINE
  8
0
 10
-36.925577
 20
-109.684196
 30
0.0
 11
-36.925577
 21
-90.084196
 31
0.0
  0
LINE
  8
0
 10
-36.537541
 20
-109.684196
 30
0.0
 11
-36.537541
 21
-90.084196
 31
0.0
  0
LINE
  8
0
 10
-36.175099
 20
-109.684196
 30
0.0
 11
-36.175099
 21
-90.084196
 31
0.0
  0
LINE
  8
0
 10
-35.838498
 20
-109.684196
 30
0.0
 11
-35.838498
 21
-90.084196
 31
0.0
  0
LINE
  8
0
 10
-35.527969
 20
-109.684196
 30
0.0
 11
-35.527969
 21
-90.084196
 31
0.0
  0
LINE
  8
0
 10
-35.243725
 20
-109.684196
 30
0.0
 11
-35.243725
 21
-90.084196
 31
0.0
  0
LINE
  8
0
 10
-34.985961
 20
-109.684196
 30
0.0
 11
-34.985961
 21
-90.084196
 31
0.0
  0
LINE
  8
0
 10
-34.754854
 20
-109.684196
 30
0.0
 11
-34.754854
 21
-90.084196
 31
0.0
  0
LINE
  8
0
 10
-34.550562
 20
-109.684196
 30
0.0
 11
-34.550562
 21
-90.084196
 31
0.0
  0
LINE
  8
0
 10
-34.373225
 20
-109.684196
 30
0.0
 11
-34.373225
 21
-90.084196
 31
0.0
  0
LINE
  8
0
 10
-34.222964
 20
-109.684196
 30
0.0
 11
-34.222964
 21
-90.084196
 31
0.0
  0
LINE
  8
0
 10
-34.099882
 20
-109.684196
 30
0.0
 11
-34.099882
 21
-90.084196
 31
0.0
  0
LINE
  8
0
 10
-34.004065
 20
-109.684196
 30
0.0
 11
-34.004065
 21
-90.084196
 31
0.0
  0
LINE
  8
0
 10
-33.935577
 20
-109.684196
 30
0.0
 11
-33.935577
 21
-90.084196
 31
0.0
  0
LINE
  8
0
 10
-33.894465
 20
-109.684196
 30
0.0
 11
-33.894465
 21
-90.084196
 31
0.0
  0
LINE
  8
0
 10
-107.880758
 20
-110.884196
 30
0.0
 11
-107.880758
 21
-101.884196
 31
0.0
  0
LINE
  8
0
 10
-107.880758
 20
-95.884196
 30
0.0
 11
-73.880758
 21
-95.884196
 31
0.0
  0
LINE
  8
0
 10
-107.880758
 20
-101.884196
 30
0.0
 11
-92.880758
 21
-101.884196
 31
0.0
  0
LINE
  8
0
 10
-92.880758
 20
-110.884196
 30
0.0
 11
-92.880758
 21
-101.884196
 31
0.0
  0
LINE
  8
0
 10
-107.880758
 20
-95.884196
 30
0.0
 11
-107.880758
 21
-88.884196
 31
0.0
  0
LINE
  8
0
 10
-86.380758
 20
-124.184196
 30
0.0
 11
-86.380758
 21
-105.884196
 31
0.0
  0
LINE
  8
0
 10
-61.380758
 20
-124.184196
 30
0.0
 11
-61.380758
 21
-110.884196
 31
0.0
  0
LINE
  8
0
 10
-85.680758
 20
-124.884196
 30
0.0
 11
-62.080758
 21
-124.884196
 31
0.0
  0
LINE
  8
0
 10
-83.880758
 20
-105.884196
 30
0.0
 11
-83.880758
 21
-95.884196
 31
0.0
  0
LINE
  8
0
 10
-86.380758
 20
-105.884196
 30
0.0
 11
-83.880758
 21
-105.884196
 31
0.0
  0
LINE
  8
0
 10
-73.880758
 20
-110.884196
 30
0.0
 11
-35.080758
 21
-110.884196
 31
0.0
  0
LINE
  8
0
 10
-81.880758
 20
-124.884196
 30
0.0
 11
-81.880758
 21
-95.884196
 31
0.0
  0
LINE
  8
0
 10
-86.380758
 20
-124.184196
 30
0.0
 11
-85.680758
 21
-124.884196
 31
0.0
  0
LINE
  8
0
 10
-61.380758
 20
-124.184196
 30
0.0
 11
-62.080758
 21
-124.884196
 31
0.0
  0
CIRCLE
  8
0
 10
-73.880758
 20
-176.555834
 30
0.0
 40
34.0
  0
CIRCLE
  8
0
 10
-73.880758
 20
-176.555834
 30
0.0
 40
38.8
  0
CIRCLE
  8
0
 10
-73.880758
 20
-176.555834
 30
0.0
 40
10.0
  0
CIRCLE
  8
0
 10
-73.880758
 20
-176.555834
 30
0.0
 40
8.0
  0
INSERT
  8
0
  2
*X2
 10
-216.469333
 20
-171.2064
 30
0.0
  0
CIRCLE
  8
0
 10
-51.034103
 20
-23.403308
 30
0.0
 40
20.0
  0
CIRCLE
  8
0
 10
-51.034103
 20
-23.403308
 30
0.0
 40
23.5
  0
CIRCLE
  8
0
 10
-51.034103
 20
-23.403308
 30
0.0
 40
25.0
  0
CIRCLE
  8
0
 10
121.829897
 20
-34.658863
 30
0.0
 40
26.0
  0
CIRCLE
  8
0
 10
121.829897
 20
-34.658863
 30
0.0
 40
30.5
  0
CIRCLE
  8
0
 10
121.829897
 20
-34.658863
 30
0.0
 40
31.5
  0
CIRCLE
  8
0
 10
31.253897
 20
-176.555834
 30
0.0
 40
38.8
  0
CIRCLE
  8
0
 10
31.253897
 20
-176.555834
 30
0.0
 40
34.0
  0
CIRCLE
  8
0
 10
31.253897
 20
-176.555834
 30
0.0
 40
40.0
  0
LINE
  8
0
 10
-59.37652
 20
-17.889318
 30
0.0
 11
-66.519564
 21
-10.746274
 31
0.0
  0
LINE
  8
0
 10
-56.548093
 20
-15.060891
 30
0.0
 11
-63.691137
 21
-7.917847
 31
0.0
  0
LINE
  8
0
 10
110.32175
 20
-26.68625
 30
0.0
 11
101.76254
 21
-18.12704
 31
0.0
  0
LINE
  8
0
 10
113.857284
 20
-23.150716
 30
0.0
 11
105.298073
 21
-14.591506
 31
0.0
  0
LINE
  8
0
 10
15.866077
 20
-165.410655
 30
0.0
 11
5.184716
 21
-154.729294
 31
0.0
  0
LINE
  8
0
 10
20.108718
 20
-161.168014
 30
0.0
 11
9.427357
 21
-150.486653
 31
0.0
  0
LINE
  8
0
 10
-59.37652
 20
-17.889318
 30
0.0
 11
-56.548093
 21
-15.060891
 31
0.0
  0
LINE
  8
0
 10
110.32175
 20
-26.68625
 30
0.0
 11
113.857284
 21
-23.150716
 31
0.0
  0
LINE
  8
0
 10
15.866077
 20
-165.410655
 30
0.0
 11
20.108718
 21
-161.168014
 31
0.0
  0
LINE
  8
0
 10
-61.380758
 20
-124.184196
 30
0.0
 11
-73.880758
 21
-124.184196
 31
0.0
  0
LINE
  8
0
 10
-42.034103
 20
12.598098
 30
0.0
 11
-51.034103
 21
12.598098
 31
0.0
  0
LINE
  8
0
 10
-60.034103
 20
12.598098
 30
0.0
 11
-59.534103
 21
12.098098
 31
0.0
  0
LINE
  8
0
 10
-42.034103
 20
12.598098
 30
0.0
 11
-42.534103
 21
12.098098
 31
0.0
  0
INSERT
  8
0
  2
*X0
 10
-3.588931
 20
-20.995084
 30
0.0
  0
LINE
  8
0
 10
-26.469715
 20
23.598098
 30
0.0
 11
-26.469715
 21
35.598098
 31
0.0
  0
LINE
  8
0
 10
-26.694631
 20
23.804916
 30
0.0
 11
-26.302295
 21
23.804916
 31
0.0
  0
LINE
  8
0
 10
-56.034103
 20
12.098098
 30
0.0
 11
-56.034103
 21
32.098098
 31
0.0
  0
LINE
  8
0
 10
-58.034103
 20
24.098098
 30
0.0
 11
-60.034103
 21
24.098098
 31
0.0
  0
LINE
  8
0
 10
-60.034103
 20
22.098098
 30
0.0
 11
-74.534103
 21
22.098098
 31
0.0
  0
LINE
  8
0
 10
-58.034103
 20
24.098098
 30
0.0
 11
-58.034103
 21
32.098098
 31
0.0
  0
LINE
  8
0
 10
-71.034103
 20
32.098098
 30
0.0
 11
-71.034103
 21
37.098098
 31
0.0
  0
LINE
  8
0
 10
-71.034103
 20
22.098098
 30
0.0
 11
-71.034103
 21
27.098098
 31
0.0
  0
LINE
  8
0
 10
-65.034103
 20
22.098098
 30
0.0
 11
-65.034103
 21
27.098098
 31
0.0
  0
LINE
  8
0
 10
-65.034103
 20
27.098098
 30
0.0
 11
-71.034103
 21
27.098098
 31
0.0
  0
LINE
  8
0
 10
-51.034103
 20
32.098098
 30
0.0
 11
-71.034103
 21
32.098098
 31
0.0
  0
LINE
  8
0
 10
-42.034103
 20
12.598098
 30
0.0
 11
-42.034103
 21
22.098098
 31
0.0
  0
LINE
  8
0
 10
-60.034103
 20
12.598098
 30
0.0
 11
-60.034103
 21
24.098098
 31
0.0
  0
LINE
  8
0
 10
-42.534103
 20
12.098098
 30
0.0
 11
-59.534103
 21
12.098098
 31
0.0
  0
LINE
  8
0
 10
-51.034103
 20
35.598098
 30
0.0
 11
-26.034103
 21
35.598098
 31
0.0
  0
LINE
  8
0
 10
-51.034103
 20
23.598098
 30
0.0
 11
-26.034103
 21
23.598098
 31
0.0
  0
LINE
  8
0
 10
-26.039586
 20
23.598098
 30
0.0
 11
-26.039586
 21
35.598098
 31
0.0
  0
LINE
  8
0
 10
-26.083435
 20
23.598098
 30
0.0
 11
-26.083435
 21
35.598098
 31
0.0
  0
LINE
  8
0
 10
-26.171056
 20
23.598098
 30
0.0
 11
-26.171056
 21
35.598098
 31
0.0
  0
LINE
  8
0
 10
-26.302295
 20
23.598098
 30
0.0
 11
-26.302295
 21
35.598098
 31
0.0
  0
LINE
  8
0
 10
-26.694631
 20
23.598098
 30
0.0
 11
-26.694631
 21
35.598098
 31
0.0
  0
LINE
  8
0
 10
-26.955039
 20
23.598098
 30
0.0
 11
-26.955039
 21
35.598098
 31
0.0
  0
LINE
  8
0
 10
-27.25769
 20
23.598098
 30
0.0
 11
-27.25769
 21
35.598098
 31
0.0
  0
LINE
  8
0
 10
-27.602054
 20
23.598098
 30
0.0
 11
-27.602054
 21
35.598098
 31
0.0
  0
LINE
  8
0
 10
-27.987525
 20
23.598098
 30
0.0
 11
-27.987525
 21
35.598098
 31
0.0
  0
LINE
  8
0
 10
-28.413427
 20
23.598098
 30
0.0
 11
-28.413427
 21
35.598098
 31
0.0
  0
LINE
  8
0
 10
-28.879014
 20
35.598098
 30
0.0
 11
-28.879014
 21
33.821972
 31
0.0
  0
LINE
  8
0
 10
-28.879014
 20
23.598098
 30
0.0
 11
-28.879014
 21
35.598098
 31
0.0
  0
LINE
  8
0
 10
-29.383468
 20
23.598098
 30
0.0
 11
-29.383468
 21
35.598098
 31
0.0
  0
LINE
  8
0
 10
-29.925905
 20
23.598098
 30
0.0
 11
-29.925905
 21
35.598098
 31
0.0
  0
LINE
  8
0
 10
-30.505373
 20
23.598098
 30
0.0
 11
-30.505373
 21
35.598098
 31
0.0
  0
LINE
  8
0
 10
-31.120855
 20
23.598098
 30
0.0
 11
-31.120855
 21
35.598098
 31
0.0
  0
LINE
  8
0
 10
-31.771272
 20
23.598098
 30
0.0
 11
-31.771272
 21
35.598098
 31
0.0
  0
LINE
  8
0
 10
-32.455483
 20
23.598098
 30
0.0
 11
-32.455483
 21
35.598098
 31
0.0
  0
LINE
  8
0
 10
-33.172286
 20
23.598098
 30
0.0
 11
-33.172286
 21
35.598098
 31
0.0
  0
LINE
  8
0
 10
-33.920426
 20
23.598098
 30
0.0
 11
-33.920426
 21
35.598098
 31
0.0
  0
LINE
  8
0
 10
-34.698588
 20
23.598098
 30
0.0
 11
-34.698588
 21
35.598098
 31
0.0
  0
LINE
  8
0
 10
-35.505409
 20
23.598098
 30
0.0
 11
-35.505409
 21
35.598098
 31
0.0
  0
LINE
  8
0
 10
-36.339472
 20
23.598098
 30
0.0
 11
-36.339472
 21
35.598098
 31
0.0
  0
LINE
  8
0
 10
-37.199315
 20
23.598098
 30
0.0
 11
-37.199315
 21
35.598098
 31
0.0
  0
LINE
  8
0
 10
-38.083428
 20
23.598098
 30
0.0
 11
-38.083428
 21
35.598098
 31
0.0
  0
LINE
  8
0
 10
-38.990261
 20
23.598098
 30
0.0
 11
-38.990261
 21
35.598098
 31
0.0
  0
LINE
  8
0
 10
-39.918224
 20
23.598098
 30
0.0
 11
-39.918224
 21
35.598098
 31
0.0
  0
LINE
  8
0
 10
-40.865687
 20
23.598098
 30
0.0
 11
-40.865687
 21
35.598098
 31
0.0
  0
LINE
  8
0
 10
-41.83099
 20
23.598098
 30
0.0
 11
-41.83099
 21
35.598098
 31
0.0
  0
LINE
  8
0
 10
-42.812437
 20
23.598098
 30
0.0
 11
-42.812437
 21
35.598098
 31
0.0
  0
LINE
  8
0
 10
-43.808308
 20
23.598098
 30
0.0
 11
-43.808308
 21
35.598098
 31
0.0
  0
LINE
  8
0
 10
-44.816856
 20
23.598098
 30
0.0
 11
-44.816856
 21
35.598098
 31
0.0
  0
LINE
  8
0
 10
-45.836311
 20
23.598098
 30
0.0
 11
-45.836311
 21
35.598098
 31
0.0
  0
LINE
  8
0
 10
-46.864885
 20
23.598098
 30
0.0
 11
-46.864885
 21
35.598098
 31
0.0
  0
LINE
  8
0
 10
-47.900772
 20
23.598098
 30
0.0
 11
-47.900772
 21
35.598098
 31
0.0
  0
LINE
  8
0
 10
-48.942157
 20
23.598098
 30
0.0
 11
-48.942157
 21
35.598098
 31
0.0
  0
LINE
  8
0
 10
-49.987212
 20
23.598098
 30
0.0
 11
-49.987212
 21
35.598098
 31
0.0
  0
LINE
  8
0
  6
CENTER
 10
-51.034103
 20
8.978653
 30
0.0
 11
-51.034103
 21
39.403146
 31
0.0
  0
LINE
  8
0
 10
-74.534103
 20
22.098098
 30
0.0
 11
-76.034103
 21
23.598098
 31
0.0
  0
LINE
  8
0
 10
-74.534103
 20
37.098098
 30
0.0
 11
-76.034103
 21
35.598098
 31
0.0
  0
LINE
  8
0
 10
-26.034103
 20
35.598098
 30
0.0
 11
-27.534103
 21
37.098098
 31
0.0
  0
LINE
  8
0
 10
-26.034103
 20
23.598098
 30
0.0
 11
-27.534103
 21
22.098098
 31
0.0
  0
LINE
  8
0
 10
-27.534103
 20
37.098098
 30
0.0
 11
-74.534103
 21
37.098098
 31
0.0
  0
LINE
  8
0
 10
-27.534103
 20
22.098098
 30
0.0
 11
-51.034103
 21
22.098098
 31
0.0
  0
LINE
  8
0
 10
-76.034103
 20
23.598098
 30
0.0
 11
-76.034103
 21
35.598098
 31
0.0
  0
LINE
  8
0
 10
-26.034103
 20
23.598098
 30
0.0
 11
-26.034103
 21
35.598098
 31
0.0
  0
INSERT
  8
0
  2
*X1
 10
81.030655
 20
-20.901412
 30
0.0
  0
LINE
  8
0
 10
115.829897
 20
9.46647
 30
0.0
 11
115.829897
 21
33.46647
 31
0.0
  0
LINE
  8
0
 10
131.829897
 20
10.16647
 30
0.0
 11
121.829897
 21
10.16647
 31
0.0
  0
LINE
  8
0
 10
131.829897
 20
10.16647
 30
0.0
 11
131.129897
 21
9.46647
 31
0.0
  0
LINE
  8
0
 10
111.829897
 20
10.16647
 30
0.0
 11
112.529897
 21
9.46647
 31
0.0
  0
LINE
  8
0
 10
111.829897
 20
25.46647
 30
0.0
 11
113.829897
 21
25.46647
 31
0.0
  0
LINE
  8
0
 10
113.829897
 20
25.46647
 30
0.0
 11
113.829897
 21
33.46647
 31
0.0
  0
LINE
  8
0
 10
121.829897
 20
21.46647
 30
0.0
 11
152.329897
 21
21.46647
 31
0.0
  0
LINE
  8
0
 10
112.529897
 20
9.46647
 30
0.0
 11
131.129897
 21
9.46647
 31
0.0
  0
LINE
  8
0
 10
131.829897
 20
10.16647
 30
0.0
 11
131.829897
 21
21.46647
 31
0.0
  0
LINE
  8
0
 10
111.829897
 20
10.16647
 30
0.0
 11
111.829897
 21
25.46647
 31
0.0
  0
LINE
  8
0
 10
95.829897
 20
33.46647
 30
0.0
 11
95.829897
 21
39.46647
 31
0.0
  0
LINE
  8
0
 10
95.829897
 20
21.46647
 30
0.0
 11
95.829897
 21
28.46647
 31
0.0
  0
LINE
  8
0
 10
105.829897
 20
21.46647
 30
0.0
 11
105.829897
 21
28.46647
 31
0.0
  0
LINE
  8
0
 10
95.829897
 20
28.46647
 30
0.0
 11
105.829897
 21
28.46647
 31
0.0
  0
LINE
  8
0
 10
95.829897
 20
33.46647
 30
0.0
 11
121.829897
 21
33.46647
 31
0.0
  0
LINE
  8
0
 10
153.314353
 20
22.46647
 30
0.0
 11
153.314353
 21
38.46647
 31
0.0
  0
LINE
  8
0
 10
153.190099
 20
22.46647
 30
0.0
 11
153.190099
 21
38.46647
 31
0.0
  0
LINE
  8
0
 10
153.08151
 20
22.46647
 30
0.0
 11
153.08151
 21
38.46647
 31
0.0
  0
LINE
  8
0
 10
152.942079
 20
22.46647
 30
0.0
 11
152.942079
 21
38.46647
 31
0.0
  0
LINE
  8
0
 10
152.771945
 20
22.46647
 30
0.0
 11
152.771945
 21
38.46647
 31
0.0
  0
LINE
  8
0
 10
152.571275
 20
22.46647
 30
0.0
 11
152.571275
 21
38.46647
 31
0.0
  0
LINE
  8
0
 10
152.340266
 20
22.46647
 30
0.0
 11
152.340266
 21
38.46647
 31
0.0
  0
LINE
  8
0
 10
152.079148
 20
22.46647
 30
0.0
 11
152.079148
 21
38.46647
 31
0.0
  0
LINE
  8
0
 10
151.788177
 20
22.46647
 30
0.0
 11
151.788177
 21
38.46647
 31
0.0
  0
LINE
  8
0
 10
151.467641
 20
22.46647
 30
0.0
 11
151.467641
 21
38.46647
 31
0.0
  0
LINE
  8
0
 10
151.117856
 20
22.46647
 30
0.0
 11
151.117856
 21
38.46647
 31
0.0
  0
LINE
  8
0
 10
150.739167
 20
22.46647
 30
0.0
 11
150.739167
 21
38.46647
 31
0.0
  0
LINE
  8
0
 10
150.331949
 20
22.46647
 30
0.0
 11
150.331949
 21
38.46647
 31
0.0
  0
LINE
  8
0
 10
149.896602
 20
22.46647
 30
0.0
 11
149.896602
 21
38.46647
 31
0.0
  0
LINE
  8
0
 10
149.433557
 20
22.46647
 30
0.0
 11
149.433557
 21
38.46647
 31
0.0
  0
LINE
  8
0
 10
148.943271
 20
22.46647
 30
0.0
 11
148.943271
 21
38.46647
 31
0.0
  0
LINE
  8
0
 10
148.426226
 20
22.46647
 30
0.0
 11
148.426226
 21
38.46647
 31
0.0
  0
LINE
  8
0
 10
147.882935
 20
22.46647
 30
0.0
 11
147.882935
 21
38.46647
 31
0.0
  0
LINE
  8
0
 10
147.313932
 20
22.46647
 30
0.0
 11
147.313932
 21
38.46647
 31
0.0
  0
LINE
  8
0
 10
146.71978
 20
22.46647
 30
0.0
 11
146.71978
 21
38.46647
 31
0.0
  0
LINE
  8
0
 10
146.101064
 20
22.46647
 30
0.0
 11
146.101064
 21
38.46647
 31
0.0
  0
LINE
  8
0
 10
145.458395
 20
22.46647
 30
0.0
 11
145.458395
 21
38.46647
 31
0.0
  0
LINE
  8
0
 10
144.792408
 20
22.46647
 30
0.0
 11
144.792408
 21
38.46647
 31
0.0
  0
LINE
  8
0
 10
144.10376
 20
22.46647
 30
0.0
 11
144.10376
 21
38.46647
 31
0.0
  0
LINE
  8
0
 10
143.393131
 20
22.46647
 30
0.0
 11
143.393131
 21
38.46647
 31
0.0
  0
LINE
  8
0
 10
142.66122
 20
22.46647
 30
0.0
 11
142.66122
 21
38.46647
 31
0.0
  0
LINE
  8
0
 10
141.908752
 20
22.46647
 30
0.0
 11
141.908752
 21
38.46647
 31
0.0
  0
LINE
  8
0
 10
141.136469
 20
22.46647
 30
0.0
 11
141.136469
 21
38.46647
 31
0.0
  0
LINE
  8
0
 10
140.345132
 20
22.46647
 30
0.0
 11
140.345132
 21
38.46647
 31
0.0
  0
LINE
  8
0
 10
139.535523
 20
22.46647
 30
0.0
 11
139.535523
 21
38.46647
 31
0.0
  0
LINE
  8
0
 10
138.708441
 20
22.46647
 30
0.0
 11
138.708441
 21
38.46647
 31
0.0
  0
LINE
  8
0
 10
137.864701
 20
22.46647
 30
0.0
 11
137.864701
 21
38.46647
 31
0.0
  0
LINE
  8
0
 10
137.005137
 20
22.46647
 30
0.0
 11
137.005137
 21
38.46647
 31
0.0
  0
LINE
  8
0
 10
136.130597
 20
22.46647
 30
0.0
 11
136.130597
 21
38.46647
 31
0.0
  0
LINE
  8
0
 10
135.241944
 20
22.46647
 30
0.0
 11
135.241944
 21
38.46647
 31
0.0
  0
LINE
  8
0
 10
134.340055
 20
22.46647
 30
0.0
 11
134.340055
 21
38.46647
 31
0.0
  0
LINE
  8
0
 10
133.42582
 20
22.46647
 30
0.0
 11
133.42582
 21
38.46647
 31
0.0
  0
LINE
  8
0
 10
132.500141
 20
22.46647
 30
0.0
 11
132.500141
 21
38.46647
 31
0.0
  0
LINE
  8
0
 10
131.563932
 20
22.46647
 30
0.0
 11
131.563932
 21
38.46647
 31
0.0
  0
LINE
  8
0
 10
130.618117
 20
22.46647
 30
0.0
 11
130.618117
 21
38.46647
 31
0.0
  0
LINE
  8
0
 10
129.663628
 20
22.46647
 30
0.0
 11
129.663628
 21
38.46647
 31
0.0
  0
LINE
  8
0
 10
128.701409
 20
22.46647
 30
0.0
 11
128.701409
 21
38.46647
 31
0.0
  0
LINE
  8
0
 10
127.732408
 20
22.46647
 30
0.0
 11
127.732408
 21
38.46647
 31
0.0
  0
LINE
  8
0
 10
126.757582
 20
22.46647
 30
0.0
 11
126.757582
 21
38.46647
 31
0.0
  0
LINE
  8
0
 10
125.777894
 20
22.46647
 30
0.0
 11
125.777894
 21
38.46647
 31
0.0
  0
LINE
  8
0
 10
124.794309
 20
22.46647
 30
0.0
 11
124.794309
 21
38.46647
 31
0.0
  0
LINE
  8
0
 10
123.807798
 20
22.46647
 30
0.0
 11
123.807798
 21
38.46647
 31
0.0
  0
LINE
  8
0
 10
122.819336
 20
22.46647
 30
0.0
 11
122.819336
 21
38.46647
 31
0.0
  0
LINE
  8
0
  6
CENTER
 10
121.829897
 20
8.009461
 30
0.0
 11
121.829897
 21
41.154145
 31
0.0
  0
LINE
  8
0
 10
153.329897
 20
22.46647
 30
0.0
 11
121.829897
 21
22.46647
 31
0.0
  0
LINE
  8
0
 10
121.829897
 20
38.46647
 30
0.0
 11
153.329897
 21
38.46647
 31
0.0
  0
LINE
  8
0
 10
90.329897
 20
38.46647
 30
0.0
 11
91.329897
 21
39.46647
 31
0.0
  0
LINE
  8
0
 10
152.329897
 20
39.46647
 30
0.0
 11
153.329897
 21
38.46647
 31
0.0
  0
LINE
  8
0
 10
152.329897
 20
21.46647
 30
0.0
 11
153.329897
 21
22.46647
 31
0.0
  0
LINE
  8
0
 10
90.329897
 20
22.46647
 30
0.0
 11
91.329897
 21
21.46647
 31
0.0
  0
LINE
  8
0
 10
91.329897
 20
39.46647
 30
0.0
 11
152.329897
 21
39.46647
 31
0.0
  0
LINE
  8
0
 10
91.329897
 20
21.46647
 30
0.0
 11
111.829897
 21
21.46647
 31
0.0
  0
LINE
  8
0
 10
153.329897
 20
22.46647
 30
0.0
 11
153.329897
 21
38.46647
 31
0.0
  0
LINE
  8
0
 10
90.329897
 20
22.46647
 30
0.0
 11
90.329897
 21
38.46647
 31
0.0
  0
LINE
  8
0
 10
43.753897
 20
-124.184196
 30
0.0
 11
31.253897
 21
-124.184196
 31
0.0
  0
INSERT
  8
0
  2
*X2
 10
-111.334678
 20
-171.2064
 30
0.0
  0
LINE
  8
0
 10
43.753897
 20
-124.184196
 30
0.0
 11
43.053897
 21
-124.884196
 31
0.0
  0
LINE
  8
0
 10
18.753897
 20
-124.184196
 30
0.0
 11
19.453897
 21
-124.884196
 31
0.0
  0
LINE
  8
0
 10
23.253897
 20
-124.884196
 30
0.0
 11
23.253897
 21
-95.884196
 31
0.0
  0
LINE
  8
0
 10
31.253897
 20
-110.884196
 30
0.0
 11
70.053897
 21
-110.884196
 31
0.0
  0
LINE
  8
0
 10
18.753897
 20
-105.884196
 30
0.0
 11
21.253897
 21
-105.884196
 31
0.0
  0
LINE
  8
0
 10
21.253897
 20
-105.884196
 30
0.0
 11
21.253897
 21
-95.884196
 31
0.0
  0
LINE
  8
0
 10
19.453897
 20
-124.884196
 30
0.0
 11
43.053897
 21
-124.884196
 31
0.0
  0
LINE
  8
0
 10
43.753897
 20
-124.184196
 30
0.0
 11
43.753897
 21
-110.884196
 31
0.0
  0
LINE
  8
0
 10
18.753897
 20
-124.184196
 30
0.0
 11
18.753897
 21
-105.884196
 31
0.0
  0
LINE
  8
0
 10
-2.746103
 20
-95.884196
 30
0.0
 11
-2.746103
 21
-88.884196
 31
0.0
  0
LINE
  8
0
 10
12.253897
 20
-110.884196
 30
0.0
 11
12.253897
 21
-101.884196
 31
0.0
  0
LINE
  8
0
 10
-2.746103
 20
-101.884196
 30
0.0
 11
12.253897
 21
-101.884196
 31
0.0
  0
LINE
  8
0
 10
-2.746103
 20
-95.884196
 30
0.0
 11
31.253897
 21
-95.884196
 31
0.0
  0
LINE
  8
0
 10
-2.746103
 20
-110.884196
 30
0.0
 11
-2.746103
 21
-101.884196
 31
0.0
  0
LINE
  8
0
 10
71.24019
 20
-109.684196
 30
0.0
 11
71.24019
 21
-90.084196
 31
0.0
  0
LINE
  8
0
 10
71.199078
 20
-109.684196
 30
0.0
 11
71.199078
 21
-90.084196
 31
0.0
  0
LINE
  8
0
 10
71.13059
 20
-109.684196
 30
0.0
 11
71.13059
 21
-90.084196
 31
0.0
  0
LINE
  8
0
 10
71.034772
 20
-109.684196
 30
0.0
 11
71.034772
 21
-90.084196
 31
0.0
  0
LINE
  8
0
 10
70.911691
 20
-109.684196
 30
0.0
 11
70.911691
 21
-90.084196
 31
0.0
  0
LINE
  8
0
 10
70.76143
 20
-109.684196
 30
0.0
 11
70.76143
 21
-90.084196
 31
0.0
  0
LINE
  8
0
 10
70.584093
 20
-109.684196
 30
0.0
 11
70.584093
 21
-90.084196
 31
0.0
  0
LINE
  8
0
 10
70.379801
 20
-109.684196
 30
0.0
 11
70.379801
 21
-90.084196
 31
0.0
  0
LINE
  8
0
 10
70.148693
 20
-109.684196
 30
0.0
 11
70.148693
 21
-90.084196
 31
0.0
  0
LINE
  8
0
 10
69.89093
 20
-109.684196
 30
0.0
 11
69.89093
 21
-90.084196
 31
0.0
  0
LINE
  8
0
 10
69.606686
 20
-109.684196
 30
0.0
 11
69.606686
 21
-90.084196
 31
0.0
  0
LINE
  8
0
 10
69.296157
 20
-109.684196
 30
0.0
 11
69.296157
 21
-90.084196
 31
0.0
  0
LINE
  8
0
 10
68.959556
 20
-109.684196
 30
0.0
 11
68.959556
 21
-90.084196
 31
0.0
  0
LINE
  8
0
 10
68.597114
 20
-109.684196
 30
0.0
 11
68.597114
 21
-90.084196
 31
0.0
  0
LINE
  8
0
 10
68.209078
 20
-109.684196
 30
0.0
 11
68.209078
 21
-90.084196
 31
0.0
  0
LINE
  8
0
 10
67.795715
 20
-109.684196
 30
0.0
 11
67.795715
 21
-90.084196
 31
0.0
  0
LINE
  8
0
 10
67.357308
 20
-109.684196
 30
0.0
 11
67.357308
 21
-90.084196
 31
0.0
  0
LINE
  8
0
 10
66.894158
 20
-109.684196
 30
0.0
 11
66.894158
 21
-90.084196
 31
0.0
  0
LINE
  8
0
 10
66.406581
 20
-109.684196
 30
0.0
 11
66.406581
 21
-90.084196
 31
0.0
  0
LINE
  8
0
 10
65.894913
 20
-109.684196
 30
0.0
 11
65.894913
 21
-90.084196
 31
0.0
  0
LINE
  8
0
 10
65.359503
 20
-109.684196
 30
0.0
 11
65.359503
 21
-90.084196
 31
0.0
  0
LINE
  8
0
 10
64.800719
 20
-109.684196
 30
0.0
 11
64.800719
 21
-90.084196
 31
0.0
  0
LINE
  8
0
 10
64.218944
 20
-109.684196
 30
0.0
 11
64.218944
 21
-90.084196
 31
0.0
  0
LINE
  8
0
 10
63.614576
 20
-109.684196
 30
0.0
 11
63.614576
 21
-90.084196
 31
0.0
  0
LINE
  8
0
 10
62.98803
 20
-109.684196
 30
0.0
 11
62.98803
 21
-90.084196
 31
0.0
  0
LINE
  8
0
 10
62.339735
 20
-109.684196
 30
0.0
 11
62.339735
 21
-90.084196
 31
0.0
  0
LINE
  8
0
 10
61.670135
 20
-109.684196
 30
0.0
 11
61.670135
 21
-90.084196
 31
0.0
  0
LINE
  8
0
 10
60.97969
 20
-109.684196
 30
0.0
 11
60.97969
 21
-90.084196
 31
0.0
  0
LINE
  8
0
 10
60.268872
 20
-109.684196
 30
0.0
 11
60.268872
 21
-90.084196
 31
0.0
  0
LINE
  8
0
 10
59.538168
 20
-109.684196
 30
0.0
 11
59.538168
 21
-90.084196
 31
0.0
  0
LINE
  8
0
 10
58.78808
 20
-109.684196
 30
0.0
 11
58.78808
 21
-90.084196
 31
0.0
  0
LINE
  8
0
 10
58.019121
 20
-109.684196
 30
0.0
 11
58.019121
 21
-90.084196
 31
0.0
  0
LINE
  8
0
 10
57.231819
 20
-109.684196
 30
0.0
 11
57.231819
 21
-90.084196
 31
0.0
  0
LINE
  8
0
 10
56.426712
 20
-109.684196
 30
0.0
 11
56.426712
 21
-90.084196
 31
0.0
  0
LINE
  8
0
 10
55.604354
 20
-109.684196
 30
0.0
 11
55.604354
 21
-90.084196
 31
0.0
  0
LINE
  8
0
 10
54.765307
 20
-109.684196
 30
0.0
 11
54.765307
 21
-90.084196
 31
0.0
  0
LINE
  8
0
 10
53.910146
 20
-109.684196
 30
0.0
 11
53.910146
 21
-90.084196
 31
0.0
  0
LINE
  8
0
 10
53.039458
 20
-109.684196
 30
0.0
 11
53.039458
 21
-90.084196
 31
0.0
  0
LINE
  8
0
 10
52.153839
 20
-109.684196
 30
0.0
 11
52.153839
 21
-90.084196
 31
0.0
  0
LINE
  8
0
 10
51.253897
 20
-109.684196
 30
0.0
 11
51.253897
 21
-90.084196
 31
0.0
  0
LINE
  8
0
 10
50.340247
 20
-109.684196
 30
0.0
 11
50.340247
 21
-90.084196
 31
0.0
  0
LINE
  8
0
 10
49.413517
 20
-109.684196
 30
0.0
 11
49.413517
 21
-90.084196
 31
0.0
  0
LINE
  8
0
 10
48.474341
 20
-109.684196
 30
0.0
 11
48.474341
 21
-90.084196
 31
0.0
  0
LINE
  8
0
 10
47.523362
 20
-109.684196
 30
0.0
 11
47.523362
 21
-90.084196
 31
0.0
  0
LINE
  8
0
 10
46.561234
 20
-109.684196
 30
0.0
 11
46.561234
 21
-90.084196
 31
0.0
  0
LINE
  8
0
 10
45.588615
 20
-109.684196
 30
0.0
 11
45.588615
 21
-90.084196
 31
0.0
  0
LINE
  8
0
 10
44.606171
 20
-109.684196
 30
0.0
 11
44.606171
 21
-90.084196
 31
0.0
  0
LINE
  8
0
 10
43.614576
 20
-109.684196
 30
0.0
 11
43.614576
 21
-90.084196
 31
0.0
  0
LINE
  8
0
 10
42.61451
 20
-109.684196
 30
0.0
 11
42.61451
 21
-90.084196
 31
0.0
  0
LINE
  8
0
 10
41.606658
 20
-109.684196
 30
0.0
 11
41.606658
 21
-90.084196
 31
0.0
  0
LINE
  8
0
 10
40.591711
 20
-109.684196
 30
0.0
 11
40.591711
 21
-90.084196
 31
0.0
  0
LINE
  8
0
 10
39.570364
 20
-109.684196
 30
0.0
 11
39.570364
 21
-90.084196
 31
0.0
  0
LINE
  8
0
 10
38.543318
 20
-109.684196
 30
0.0
 11
38.543318
 21
-90.084196
 31
0.0
  0
LINE
  8
0
 10
37.511275
 20
-109.684196
 30
0.0
 11
37.511275
 21
-90.084196
 31
0.0
  0
LINE
  8
0
 10
36.474944
 20
-109.684196
 30
0.0
 11
36.474944
 21
-90.084196
 31
0.0
  0
LINE
  8
0
 10
35.435035
 20
-109.684196
 30
0.0
 11
35.435035
 21
-90.084196
 31
0.0
  0
LINE
  8
0
 10
34.39226
 20
-109.684196
 30
0.0
 11
34.39226
 21
-90.084196
 31
0.0
  0
LINE
  8
0
 10
33.347335
 20
-109.684196
 30
0.0
 11
33.347335
 21
-90.084196
 31
0.0
  0
LINE
  8
0
 10
32.300975
 20
-109.684196
 30
0.0
 11
32.300975
 21
-90.084196
 31
0.0
  0
LINE
  8
0
 10
71.253897
 20
-90.084196
 30
0.0
 11
31.253897
 21
-90.084196
 31
0.0
  0
LINE
  8
0
 10
71.253897
 20
-109.684196
 30
0.0
 11
31.253897
 21
-109.684196
 31
0.0
  0
LINE
  8
0
 10
70.053897
 20
-88.884196
 30
0.0
 11
71.253897
 21
-90.084196
 31
0.0
  0
LINE
  8
0
 10
70.053897
 20
-110.884196
 30
0.0
 11
71.253897
 21
-109.684196
 31
0.0
  0
LINE
  8
0
 10
-8.746103
 20
-109.684196
 30
0.0
 11
-7.546103
 21
-110.884196
 31
0.0
  0
LINE
  8
0
 10
-8.746103
 20
-90.084196
 30
0.0
 11
-7.546103
 21
-88.884196
 31
0.0
  0
LINE
  8
0
 10
-7.546103
 20
-88.884196
 30
0.0
 11
70.053897
 21
-88.884196
 31
0.0
  0
LINE
  8
0
 10
-7.546103
 20
-110.884196
 30
0.0
 11
18.753897
 21
-110.884196
 31
0.0
  0
LINE
  8
0
 10
71.253897
 20
-109.684196
 30
0.0
 11
71.253897
 21
-90.084196
 31
0.0
  0
LINE
  8
0
 10
-8.746103
 20
-109.684196
 30
0.0
 11
-8.746103
 21
-90.084196
 31
0.0
  0
LINE
  8
0
  6
CENTER
 10
31.253897
 20
-127.403364
 30
0.0
 11
31.253897
 21
-85.53951
 31
0.0
  0
LINE
  8
0
 10
-51.034103
 20
32.598098
 30
0.0
 11
-71.034103
 21
32.598098
 31
0.0
  0
LINE
  8
0
 10
95.829897
 20
33.96647
 30
0.0
 11
121.829897
 21
33.96647
 31
0.0
  0
LINE
  8
0
 10
-2.746103
 20
-95.384196
 30
0.0
 11
31.253897
 21
-95.384196
 31
0.0
  0
INSERT
  8
0
  2
*X3
 10
0.0
 20
0.0
 30
0.0
1001
ACAD
1000
HATCH
1002
{
1070
    16
1000
ANSI31
1040
10.0
1040
0.0
1002
}
  0
INSERT
  8
0
  2
*X4
 10
0.0
 20
0.0
 30
0.0
1001
ACAD
1000
HATCH
1002
{
1070
    16
1000
ANSI31
1040
15.0
1040
0.0
1002
}
  0
INSERT
  8
0
  2
*X5
 10
0.0
 20
0.0
 30
0.0
1001
ACAD
1000
HATCH
1002
{
1070
    16
1000
ANSI31
1040
15.0
1040
0.0
1002
}
  0
INSERT
  8
0
  2
*X5
 10
105.134655
 20
0.0
 30
0.0
1001
ACAD
1000
HATCH
1002
{
1070
    16
1000
ANSI31
1040
15.0
1040
0.0
1002
}
  0
INSERT
  8
0
  2
*X4
 10
81.030655
 20
0.0
 30
0.0
1001
ACAD
1000
HATCH
1002
{
1070
    16
1000
ANSI31
1040
15.0
1040
0.0
1002
}
  0
INSERT
  8
0
  2
*X3
 10
66.267069
 20
0.0
 30
0.0
1001
ACAD
1000
HATCH
1002
{
1070
    16
1000
ANSI31
1040
10.0
1040
0.0
1002
}
  0
ENDSEC
  0
EOF
