  0
SECTION
  2
HEADER
  9
$ACADVER
  1
AC1009
  9
$INSBASE
 10
0.0
 20
0.0
 30
0.0
  9
$EXTMIN
 10
-111.101982
 20
-180.751742
 30
0.0
  9
$EXTMAX
 10
338.2919
 20
37.041431
 30
0.0
  9
$LIMMIN
 10
0.0
 20
0.0
  9
$LIMMAX
 10
12.0
 20
9.0
  9
$ORTHOMODE
 70
     1
  9
$REGENMODE
 70
     1
  9
$FILLMODE
 70
     1
  9
$QTEXTMODE
 70
     0
  9
$MIRRTEXT
 70
     1
  9
$DRAGMODE
 70
     2
  9
$LTSCALE
 40
7.0
  9
$OSMODE
 70
     0
  9
$ATTMODE
 70
     1
  9
$TEXTSIZE
 40
0.2
  9
$TRACEWID
 40
0.05
  9
$TEXTSTYLE
  7
STANDARD
  9
$CLAYER
  8
0
  9
$CELTYPE
  6
BYLAYER
  9
$CECOLOR
 62
   256
  9
$DIMSCALE
 40
1.0
  9
$DIMASZ
 40
2.5
  9
$DIMEXO
 40
0.0
  9
$DIMDLI
 40
5.0
  9
$DIMRND
 40
0.0
  9
$DIMDLE
 40
0.0
  9
$DIMEXE
 40
1.0
  9
$DIMTP
 40
0.0
  9
$DIMTM
 40
0.0
  9
$DIMTXT
 40
2.5
  9
$DIMCEN
 40
0.09
  9
$DIMTSZ
 40
0.0
  9
$DIMTOL
 70
     0
  9
$DIMLIM
 70
     0
  9
$DIMTIH
 70
     0
  9
$DIMTOH
 70
     0
  9
$DIMSE1
 70
     0
  9
$DIMSE2
 70
     0
  9
$DIMTAD
 70
     1
  9
$DIMZIN
 70
     0
  9
$DIMBLK
  1

  9
$DIMASO
 70
     0
  9
$DIMSHO
 70
     0
  9
$DIMPOST
  1

  9
$DIMAPOST
  1

  9
$DIMALT
 70
     0
  9
$DIMALTD
 70
     2
  9
$DIMALTF
 40
25.4
  9
$DIMLFAC
 40
1.0
  9
$DIMTOFL
 70
     1
  9
$DIMTVP
 40
0.0
  9
$DIMTIX
 70
     0
  9
$DIMSOXD
 70
     0
  9
$DIMSAH
 70
     0
  9
$DIMBLK1
  1

  9
$DIMBLK2
  1

  9
$DIMSTYLE
  2
*UNNAMED
  9
$DIMCLRD
 70
     0
  9
$DIMCLRE
 70
     0
  9
$DIMCLRT
 70
     0
  9
$DIMTFAC
 40
1.0
  9
$DIMGAP
 40
0.09
  9
$LUNITS
 70
     2
  9
$LUPREC
 70
     4
  9
$SKETCHINC
 40
0.1
  9
$FILLETRAD
 40
45.0
  9
$AUNITS
 70
     0
  9
$AUPREC
 70
     0
  9
$MENU
  1
wiberger
  9
$ELEVATION
 40
0.0
  9
$PELEVATION
 40
0.0
  9
$THICKNESS
 40
0.0
  9
$LIMCHECK
 70
     0
  9
$BLIPMODE
 70
     1
  9
$CHAMFERA
 40
0.0
  9
$CHAMFERB
 40
0.0
  9
$SKPOLY
 70
     0
  9
$TDCREATE
 40
2450190.587120370
  9
$TDUPDATE
 40
2450210.390540509
  9
$TDINDWG
 40
0.0018480324
  9
$TDUSRTIMER
 40
0.0018480324
  9
$USRTIMER
 70
     1
  9
$ANGBASE
 50
0.0
  9
$ANGDIR
 70
     0
  9
$PDMODE
 70
     0
  9
$PDSIZE
 40
0.0
  9
$PLINEWID
 40
0.0
  9
$COORDS
 70
     0
  9
$SPLFRAME
 70
     0
  9
$SPLINETYPE
 70
     6
  9
$SPLINESEGS
 70
     8
  9
$ATTDIA
 70
     0
  9
$ATTREQ
 70
     1
  9
$HANDLING
 70
     0
  9
$HANDSEED
  5
0
  9
$SURFTAB1
 70
     6
  9
$SURFTAB2
 70
     6
  9
$SURFTYPE
 70
     6
  9
$SURFU
 70
     6
  9
$SURFV
 70
     6
  9
$UCSNAME
  2

  9
$UCSORG
 10
0.0
 20
0.0
 30
0.0
  9
$UCSXDIR
 10
1.0
 20
0.0
 30
0.0
  9
$UCSYDIR
 10
0.0
 20
1.0
 30
0.0
  9
$PUCSNAME
  2

  9
$PUCSORG
 10
0.0
 20
0.0
 30
0.0
  9
$PUCSXDIR
 10
1.0
 20
0.0
 30
0.0
  9
$PUCSYDIR
 10
0.0
 20
1.0
 30
0.0
  9
$USERI1
 70
     0
  9
$USERI2
 70
     0
  9
$USERI3
 70
     0
  9
$USERI4
 70
     0
  9
$USERI5
 70
     0
  9
$USERR1
 40
0.0
  9
$USERR2
 40
0.0
  9
$USERR3
 40
0.0
  9
$USERR4
 40
0.0
  9
$USERR5
 40
0.0
  9
$WORLDVIEW
 70
     1
  9
$SHADEDGE
 70
     3
  9
$SHADEDIF
 70
    70
  9
$TILEMODE
 70
     1
  9
$MAXACTVP
 70
    16
  9
$PINSBASE
 10
0.0
 20
0.0
 30
0.0
  9
$PLIMCHECK
 70
     0
  9
$PEXTMIN
 10
1.000000E+20
 20
1.000000E+20
 30
1.000000E+20
  9
$PEXTMAX
 10
-1.000000E+20
 20
-1.000000E+20
 30
-1.000000E+20
  9
$PLIMMIN
 10
0.0
 20
0.0
  9
$PLIMMAX
 10
12.0
 20
9.0
  9
$UNITMODE
 70
     0
  9
$VISRETAIN
 70
     0
  9
$PLINEGEN
 70
     0
  9
$PSLTSCALE
 70
     0
  9
$TREEDEPTH
 70
  3020
  9
$DWGCODEPAGE
  3
undefined
  0
ENDSEC
  0
SECTION
  2
TABLES
  0
TABLE
  2
VPORT
 70
     2
  0
VPORT
  2
*ACTIVE
 70
     0
 10
0.0
 20
0.0
 11
1.0
 21
1.0
 12
184.730476
 22
-71.959046
 13
0.0
 23
0.0
 14
1.0
 24
1.0
 15
0.0
 25
0.0
 16
0.0
 26
0.0
 36
1.0
 17
0.0
 27
0.0
 37
0.0
 40
353.595772
 41
1.767507
 42
50.0
 43
0.0
 44
0.0
 50
0.0
 51
0.0
 71
     0
 72
   100
 73
     1
 74
     0
 75
     0
 76
     0
 77
     0
 78
     0
  0
ENDTAB
  0
TABLE
  2
LTYPE
 70
     2
  0
LTYPE
  2
CONTINUOUS
 70
    64
  3
Solid line
 72
    65
 73
     0
 40
0.0
  0
LTYPE
  2
CENTER
 70
    64
  3
____ _ ____ _ ____ _ ____ _ ____ _ ____ _ ____
 72
    65
 73
     4
 40
2.0
 49
1.25
 49
-0.25
 49
0.25
 49
-0.25
  0
ENDTAB
  0
TABLE
  2
LAYER
 70
     1
  0
LAYER
  2
0
 70
    64
 62
     7
  6
CONTINUOUS
  0
ENDTAB
  0
TABLE
  2
STYLE
 70
     1
  0
STYLE
  2
STANDARD
 70
     0
 40
0.0
 41
1.0
 50
0.0
 71
     0
 42
0.2
  3
txt
  4

  0
ENDTAB
  0
TABLE
  2
VIEW
 70
     0
  0
ENDTAB
  0
TABLE
  2
UCS
 70
     0
  0
ENDTAB
  0
TABLE
  2
APPID
 70
     1
  0
APPID
  2
ACAD
 70
    64
  0
ENDTAB
  0
TABLE
  2
DIMSTYLE
 70
     0
  0
ENDTAB
  0
ENDSEC
  0
SECTION
  2
BLOCKS
  0
BLOCK
  8
0
  2
*X0
 70
    65
 10
0.0
 20
0.0
 30
0.0
  3
*X
  0
LINE
  8
0
 62
     0
 10
-91.231924
 20
32.511763
 30
0.0
 11
-85.231924
 21
38.511763
 31
0.0
  0
LINE
  8
0
 62
     0
 10
-61.607886
 20
62.1358
 30
0.0
 11
-49.607886
 21
74.1358
 31
0.0
  0
LINE
  8
0
 62
     0
 10
-91.231924
 20
36.047296
 30
0.0
 11
-85.231924
 21
42.047296
 31
0.0
  0
LINE
  8
0
 62
     0
 10
-65.14342
 20
62.1358
 30
0.0
 11
-53.14342
 21
74.1358
 31
0.0
  0
LINE
  8
0
 62
     0
 10
-98.678954
 20
32.1358
 30
0.0
 11
-97.231924
 21
33.58283
 31
0.0
  0
LINE
  8
0
 62
     0
 10
-68.684993
 20
62.129762
 30
0.0
 11
-56.678954
 21
74.1358
 31
0.0
  0
LINE
  8
0
 62
     0
 10
-91.231924
 20
39.58283
 30
0.0
 11
-85.225886
 21
45.588869
 31
0.0
  0
LINE
  8
0
 62
     0
 10
-102.214488
 20
32.1358
 30
0.0
 11
-97.231924
 21
37.118364
 31
0.0
  0
LINE
  8
0
 62
     0
 10
-72.855242
 20
61.495047
 30
0.0
 11
-60.214488
 21
74.1358
 31
0.0
  0
LINE
  8
0
 62
     0
 10
-91.231924
 20
43.118364
 30
0.0
 11
-84.59117
 21
49.759118
 31
0.0
  0
LINE
  8
0
 62
     0
 10
-103.231924
 20
34.653898
 30
0.0
 11
-97.231924
 21
40.653898
 31
0.0
  0
LINE
  8
0
 62
     0
 10
-91.731924
 20
46.153898
 30
0.0
 11
-63.750022
 21
74.1358
 31
0.0
  0
LINE
  8
0
 62
     0
 10
-103.231924
 20
38.189432
 30
0.0
 11
-96.731924
 21
44.689432
 31
0.0
  0
LINE
  8
0
 62
     0
 10
-91.731924
 20
49.689432
 30
0.0
 11
-67.285556
 21
74.1358
 31
0.0
  0
LINE
  8
0
 62
     0
 10
-103.231924
 20
41.724966
 30
0.0
 11
-96.731924
 21
48.224966
 31
0.0
  0
LINE
  8
0
 62
     0
 10
-93.337491
 20
51.619399
 30
0.0
 11
-70.82109
 21
74.1358
 31
0.0
  0
LINE
  8
0
 62
     0
 10
-103.210004
 20
45.28242
 30
0.0
 11
-74.378544
 21
74.11388
 31
0.0
  0
LINE
  8
0
 62
     0
 10
-102.79589
 20
49.232068
 30
0.0
 11
-78.328192
 21
73.699766
 31
0.0
  0
LINE
  8
0
 62
     0
 10
-101.564029
 20
53.999463
 30
0.0
 11
-83.095587
 21
72.467905
 31
0.0
  0
LINE
  8
0
 62
     0
 10
-97.92179
 20
61.177235
 30
0.0
 11
-90.273359
 21
68.825667
 31
0.0
  0
LINE
  8
0
 62
     0
 10
-88.072352
 20
32.1358
 30
0.0
 11
-85.231924
 21
34.976229
 31
0.0
  0
LINE
  8
0
 62
     0
 10
-58.072352
 20
62.1358
 30
0.0
 11
-46.072352
 21
74.1358
 31
0.0
  0
LINE
  8
0
 62
     0
 10
-54.536818
 20
62.1358
 30
0.0
 11
-44.231924
 21
72.440695
 31
0.0
  0
LINE
  8
0
 62
     0
 10
-51.001285
 20
62.1358
 30
0.0
 11
-44.231924
 21
68.905161
 31
0.0
  0
LINE
  8
0
 62
     0
 10
-47.465751
 20
62.1358
 30
0.0
 11
-44.231924
 21
65.369627
 31
0.0
  0
ENDBLK
  8
0
  0
BLOCK
  8
0
  2
A_GN_225__100_
 70
     0
 10
0.0
 20
0.0
 30
0.0
  3
A_GN_225__100_
  0
INSERT
  8
0
  2
*X0
 10
94.231924
 20
-32.1358
 30
0.0
  0
LINE
  8
0
 10
0.0
 20
20.0
 30
0.0
 11
2.5
 21
18.556624
 31
0.0
  0
LINE
  8
0
 10
2.5
 20
0.0
 30
0.0
 11
2.5
 21
18.556624
 31
0.0
  0
LINE
  8
0
 10
-2.5
 20
0.0
 30
0.0
 11
-2.5
 21
18.556624
 31
0.0
  0
LINE
  8
0
 10
3.0
 20
0.0
 30
0.0
 11
3.0
 21
12.0
 31
0.0
  0
LINE
  8
0
 10
-3.0
 20
0.0
 30
0.0
 11
-3.0
 21
12.0
 31
0.0
  0
LINE
  8
0
 10
0.0
 20
20.0
 30
0.0
 11
-2.5
 21
18.556624
 31
0.0
  0
LINE
  8
0
 10
-3.0
 20
12.0
 30
0.0
 11
3.0
 21
12.0
 31
0.0
  0
LINE
  8
0
  6
CENTER
 10
50.0
 20
-3.236531
 30
0.0
 11
50.0
 21
43.907469
 31
0.0
  0
ARC
  8
0
 10
79.0
 20
12.0
 30
0.0
 40
30.0
 50
0.0
 51
90.0
  0
ARC
  8
0
 10
21.0
 20
12.0
 30
0.0
 40
30.0
 50
90.0
 51
180.0
  0
LINE
  8
0
 10
91.0
 20
0.0
 30
0.0
 11
109.0
 21
0.0
 31
0.0
  0
ARC
  8
0
 10
74.0
 20
13.0
 30
0.0
 40
17.0
 50
0.0
 51
90.0
  0
ARC
  8
0
 10
26.0
 20
13.0
 30
0.0
 40
17.0
 50
90.0
 51
180.0
  0
LINE
  8
0
 10
109.0
 20
0.0
 30
0.0
 11
109.0
 21
12.0
 31
0.0
  0
LINE
  8
0
 10
91.0
 20
0.0
 30
0.0
 11
91.0
 21
13.0
 31
0.0
  0
LINE
  8
0
 10
9.0
 20
0.0
 30
0.0
 11
9.0
 21
13.0
 31
0.0
  0
LINE
  8
0
 10
-9.0
 20
0.0
 30
0.0
 11
-9.0
 21
12.0
 31
0.0
  0
LINE
  8
0
 10
26.0
 20
30.0
 30
0.0
 11
74.0
 21
30.0
 31
0.0
  0
LINE
  8
0
 10
21.0
 20
42.0
 30
0.0
 11
79.0
 21
42.0
 31
0.0
  0
LINE
  8
0
 10
-9.0
 20
0.0
 30
0.0
 11
9.0
 21
0.0
 31
0.0
  0
LINE
  8
0
  6
CENTER
 10
100.0
 20
-3.236531
 30
0.0
 11
100.0
 21
23.323469
 31
0.0
  0
LINE
  8
0
  6
CENTER
 10
0.0
 20
-3.236531
 30
0.0
 11
0.0
 21
23.323469
 31
0.0
  0
ENDBLK
  8
0
  0
BLOCK
  8
0
  2
B_GN_225__100_
 70
     0
 10
0.0
 20
0.0
 30
0.0
  3
B_GN_225__100_
  0
LINE
  8
0
 10
74.0
 20
-6.0
 30
0.0
 11
98.947282
 21
-8.93822
 31
0.0
  0
LINE
  8
0
 10
74.0
 20
6.0
 30
0.0
 11
98.947282
 21
8.93822
 31
0.0
  0
LINE
  8
0
 10
26.0
 20
-6.0
 30
0.0
 11
1.052718
 21
-8.93822
 31
0.0
  0
LINE
  8
0
 10
26.0
 20
6.0
 30
0.0
 11
1.052718
 21
8.93822
 31
0.0
  0
LINE
  8
0
 10
26.0
 20
-6.0
 30
0.0
 11
74.0
 21
-6.0
 31
0.0
  0
LINE
  8
0
 10
26.0
 20
6.0
 30
0.0
 11
74.0
 21
6.0
 31
0.0
  0
ARC
  8
0
 10
100.0
 20
0.0
 30
0.0
 40
9.0
 50
263.282812
 51
96.717188
  0
ARC
  8
0
 10
0.0
 20
0.0
 30
0.0
 40
9.0
 50
83.28281
 51
276.71719
  0
ENDBLK
  8
0
  0
BLOCK
  8
0
  2
C_GN_225__100_
 70
     0
 10
0.0
 20
0.0
 30
0.0
  3
C_GN_225__100_
  0
LINE
  8
0
 10
9.0
 20
0.0
 30
0.0
 11
9.0
 21
9.376154
 31
0.0
  0
ARC
  8
0
 10
-143.615116
 20
6.304957
 30
0.0
 40
152.646015
 50
1.152854
 51
11.571625
  0
ARC
  8
0
 10
143.615116
 20
6.304957
 30
0.0
 40
152.646015
 50
168.428375
 51
178.847146
  0
ARC
  8
0
 10
0.0
 20
36.0
 30
0.0
 40
6.0
 50
8.865042
 51
171.134958
  0
LINE
  8
0
 10
-9.0
 20
0.0
 30
0.0
 11
-9.0
 21
9.376154
 31
0.0
  0
LINE
  8
0
 10
-9.0
 20
0.0
 30
0.0
 11
9.0
 21
0.0
 31
0.0
  0
ENDBLK
  8
0
  0
BLOCK
  8
0
  2
*X4
 70
    65
 10
0.0
 20
0.0
 30
0.0
  3
*X
  0
LINE
  8
0
 62
     0
 10
-91.239168
 20
-16.992956
 30
0.0
 11
-85.231924
 21
-10.985712
 31
0.0
  0
LINE
  8
0
 62
     0
 10
-61.246412
 20
12.9998
 30
0.0
 11
-49.246412
 21
24.9998
 31
0.0
  0
LINE
  8
0
 62
     0
 10
-91.731924
 20
-13.950178
 30
0.0
 11
-85.231924
 21
-7.450178
 31
0.0
  0
LINE
  8
0
 62
     0
 10
-64.781945
 20
12.9998
 30
0.0
 11
-52.781945
 21
24.9998
 31
0.0
  0
LINE
  8
0
 62
     0
 10
-98.317479
 20
-17.0002
 30
0.0
 11
-96.731924
 21
-15.414644
 31
0.0
  0
LINE
  8
0
 62
     0
 10
-68.317696
 20
12.999584
 30
0.0
 11
-56.317479
 21
24.9998
 31
0.0
  0
LINE
  8
0
 62
     0
 10
-91.731924
 20
-10.414644
 30
0.0
 11
-85.231708
 21
-3.914428
 31
0.0
  0
LINE
  8
0
 62
     0
 10
-101.853013
 20
-17.0002
 30
0.0
 11
-96.731924
 21
-11.87911
 31
0.0
  0
LINE
  8
0
 62
     0
 10
-72.362447
 20
12.490367
 30
0.0
 11
-59.853013
 21
24.9998
 31
0.0
  0
LINE
  8
0
 62
     0
 10
-91.731924
 20
-6.87911
 30
0.0
 11
-84.722491
 21
0.130323
 31
0.0
  0
LINE
  8
0
 62
     0
 10
-103.231924
 20
-14.843576
 30
0.0
 11
-96.731924
 21
-8.343576
 31
0.0
  0
LINE
  8
0
 62
     0
 10
-91.731924
 20
-3.343576
 30
0.0
 11
-63.388547
 21
24.9998
 31
0.0
  0
LINE
  8
0
 62
     0
 10
-103.231924
 20
-11.308043
 30
0.0
 11
-96.731924
 21
-4.808043
 31
0.0
  0
LINE
  8
0
 62
     0
 10
-91.731924
 20
0.191957
 30
0.0
 11
-66.924081
 21
24.9998
 31
0.0
  0
LINE
  8
0
 62
     0
 10
-103.231924
 20
-7.772509
 30
0.0
 11
-96.731924
 21
-1.272509
 31
0.0
  0
LINE
  8
0
 62
     0
 10
-93.108325
 20
2.35109
 30
0.0
 11
-70.459615
 21
24.9998
 31
0.0
  0
LINE
  8
0
 62
     0
 10
-103.221959
 20
-4.227009
 30
0.0
 11
-74.005114
 21
24.989835
 31
0.0
  0
LINE
  8
0
 62
     0
 10
-102.867247
 20
-0.336764
 30
0.0
 11
-77.89536
 21
24.635123
 31
0.0
  0
LINE
  8
0
 62
     0
 10
-101.748111
 20
4.317906
 30
0.0
 11
-82.55003
 21
23.515987
 31
0.0
  0
LINE
  8
0
 62
     0
 10
-98.621555
 20
10.979997
 30
0.0
 11
-89.21212
 21
20.389431
 31
0.0
  0
LINE
  8
0
 62
     0
 10
-87.710878
 20
-17.0002
 30
0.0
 11
-85.231924
 21
-14.521246
 31
0.0
  0
LINE
  8
0
 62
     0
 10
-57.710878
 20
12.9998
 30
0.0
 11
-45.710878
 21
24.9998
 31
0.0
  0
LINE
  8
0
 62
     0
 10
-54.175344
 20
12.9998
 30
0.0
 11
-44.231924
 21
22.94322
 31
0.0
  0
LINE
  8
0
 62
     0
 10
-50.63981
 20
12.9998
 30
0.0
 11
-44.231924
 21
19.407686
 31
0.0
  0
LINE
  8
0
 62
     0
 10
-47.104276
 20
12.9998
 30
0.0
 11
-44.231924
 21
15.872152
 31
0.0
  0
ENDBLK
  8
0
  0
BLOCK
  8
0
  2
*X5
 70
    65
 10
0.0
 20
0.0
 30
0.0
  3
*X
  0
LINE
  8
0
 62
     0
 10
94.36779
 20
-11.698227
 30
0.0
 11
100.96779
 21
-5.098227
 31
0.0
  0
LINE
  8
0
 62
     0
 10
122.065818
 20
15.9998
 30
0.0
 11
136.065818
 21
29.9998
 31
0.0
  0
LINE
  8
0
 62
     0
 10
85.530284
 20
-17.0002
 30
0.0
 11
87.56779
 21
-14.962693
 31
0.0
  0
LINE
  8
0
 62
     0
 10
118.359471
 20
15.828988
 30
0.0
 11
132.530284
 21
29.9998
 31
0.0
  0
LINE
  8
0
 62
     0
 10
94.36779
 20
-8.162693
 30
0.0
 11
101.138602
 21
-1.391881
 31
0.0
  0
LINE
  8
0
 62
     0
 10
81.99475
 20
-17.0002
 30
0.0
 11
87.56779
 21
-11.42716
 31
0.0
  0
LINE
  8
0
 62
     0
 10
113.580403
 20
14.585454
 30
0.0
 11
128.99475
 21
29.9998
 31
0.0
  0
LINE
  8
0
 62
     0
 10
94.36779
 20
-4.62716
 30
0.0
 11
102.382136
 21
3.387187
 31
0.0
  0
LINE
  8
0
 62
     0
 10
80.96779
 20
-14.491626
 30
0.0
 11
87.56779
 21
-7.891626
 31
0.0
  0
LINE
  8
0
 62
     0
 10
94.36779
 20
-1.091626
 30
0.0
 11
125.459216
 21
29.9998
 31
0.0
  0
LINE
  8
0
 62
     0
 10
80.96779
 20
-10.956092
 30
0.0
 11
87.56779
 21
-4.356092
 31
0.0
  0
LINE
  8
0
 62
     0
 10
94.36779
 20
2.443908
 30
0.0
 11
121.923682
 21
29.9998
 31
0.0
  0
LINE
  8
0
 62
     0
 10
80.96779
 20
-7.420558
 30
0.0
 11
87.56779
 21
-0.820558
 31
0.0
  0
LINE
  8
0
 62
     0
 10
93.770185
 20
5.381837
 30
0.0
 11
118.388148
 21
29.9998
 31
0.0
  0
LINE
  8
0
 62
     0
 10
80.967986
 20
-3.884828
 30
0.0
 11
87.56779
 21
2.714976
 31
0.0
  0
LINE
  8
0
 62
     0
 10
91.528746
 20
6.675932
 30
0.0
 11
114.852418
 21
29.999605
 31
0.0
  0
LINE
  8
0
 62
     0
 10
81.188973
 20
-0.128306
 30
0.0
 11
111.095897
 21
29.778617
 31
0.0
  0
LINE
  8
0
 62
     0
 10
81.968084
 20
4.186338
 30
0.0
 11
106.781253
 21
28.999507
 31
0.0
  0
LINE
  8
0
 62
     0
 10
83.775669
 20
9.529457
 30
0.0
 11
101.438133
 21
27.191921
 31
0.0
  0
LINE
  8
0
 62
     0
 10
94.36779
 20
-15.233761
 30
0.0
 11
100.96779
 21
-8.633761
 31
0.0
  0
LINE
  8
0
 62
     0
 10
125.601352
 20
15.9998
 30
0.0
 11
139.601352
 21
29.9998
 31
0.0
  0
LINE
  8
0
 62
     0
 10
96.136885
 20
-17.0002
 30
0.0
 11
100.96779
 21
-12.169295
 31
0.0
  0
LINE
  8
0
 62
     0
 10
129.136885
 20
15.9998
 30
0.0
 11
143.136885
 21
29.9998
 31
0.0
  0
LINE
  8
0
 62
     0
 10
99.672419
 20
-17.0002
 30
0.0
 11
100.96779
 21
-15.704829
 31
0.0
  0
LINE
  8
0
 62
     0
 10
132.672419
 20
15.9998
 30
0.0
 11
146.672419
 21
29.9998
 31
0.0
  0
LINE
  8
0
 62
     0
 10
136.207953
 20
15.9998
 30
0.0
 11
146.96779
 21
26.759637
 31
0.0
  0
LINE
  8
0
 62
     0
 10
139.743487
 20
15.9998
 30
0.0
 11
146.96779
 21
23.224103
 31
0.0
  0
LINE
  8
0
 62
     0
 10
143.279021
 20
15.9998
 30
0.0
 11
146.96779
 21
19.688569
 31
0.0
  0
LINE
  8
0
 62
     0
 10
146.814555
 20
15.9998
 30
0.0
 11
146.96779
 21
16.153035
 31
0.0
  0
ENDBLK
  8
0
  0
BLOCK
  8
0
  2
*X6
 70
    65
 10
0.0
 20
0.0
 30
0.0
  3
*X
  0
LINE
  8
0
 62
     0
 10
-87.981924
 20
-127.756681
 30
0.0
 11
-81.231924
 21
-121.006681
 31
0.0
  0
LINE
  8
0
 62
     0
 10
-58.239916
 20
-98.014672
 30
0.0
 11
-42.239916
 21
-82.014672
 31
0.0
  0
LINE
  8
0
 62
     0
 10
-99.659333
 20
-135.014672
 30
0.0
 11
-96.481924
 21
-131.837263
 31
0.0
  0
LINE
  8
0
 62
     0
 10
-62.714349
 20
-98.069688
 30
0.0
 11
-46.659333
 21
-82.014672
 31
0.0
  0
LINE
  8
0
 62
     0
 10
-87.981924
 20
-123.337263
 30
0.0
 11
-81.176909
 21
-116.532248
 31
0.0
  0
LINE
  8
0
 62
     0
 10
-103.231924
 20
-134.167846
 30
0.0
 11
-96.481924
 21
-127.417846
 31
0.0
  0
LINE
  8
0
 62
     0
 10
-68.412047
 20
-99.347968
 30
0.0
 11
-51.078751
 21
-82.014672
 31
0.0
  0
LINE
  8
0
 62
     0
 10
-87.981924
 20
-118.917846
 30
0.0
 11
-79.898628
 21
-110.83455
 31
0.0
  0
LINE
  8
0
 62
     0
 10
-103.231924
 20
-129.748428
 30
0.0
 11
-96.481924
 21
-122.998428
 31
0.0
  0
LINE
  8
0
 62
     0
 10
-87.981924
 20
-114.498428
 30
0.0
 11
-55.498168
 21
-82.014672
 31
0.0
  0
LINE
  8
0
 62
     0
 10
-103.231924
 20
-125.329011
 30
0.0
 11
-96.481924
 21
-118.579011
 31
0.0
  0
LINE
  8
0
 62
     0
 10
-87.981924
 20
-110.079011
 30
0.0
 11
-59.917585
 21
-82.014672
 31
0.0
  0
LINE
  8
0
 62
     0
 10
-103.231924
 20
-120.909594
 30
0.0
 11
-96.481924
 21
-114.159594
 31
0.0
  0
LINE
  8
0
 62
     0
 10
-90.396618
 20
-108.074287
 30
0.0
 11
-64.337003
 21
-82.014672
 31
0.0
  0
LINE
  8
0
 62
     0
 10
-103.050815
 20
-116.309067
 30
0.0
 11
-96.481924
 21
-109.740176
 31
0.0
  0
LINE
  8
0
 62
     0
 10
-95.838921
 20
-109.097173
 30
0.0
 11
-68.93753
 21
-82.195782
 31
0.0
  0
LINE
  8
0
 62
     0
 10
-102.142647
 20
-110.981482
 30
0.0
 11
-74.265115
 21
-83.103949
 31
0.0
  0
LINE
  8
0
 62
     0
 10
-99.788222
 20
-104.207639
 30
0.0
 11
-81.038958
 21
-85.458375
 31
0.0
  0
LINE
  8
0
 62
     0
 10
-87.981924
 20
-132.176098
 30
0.0
 11
-81.231924
 21
-125.426098
 31
0.0
  0
LINE
  8
0
 62
     0
 10
-53.820499
 20
-98.014672
 30
0.0
 11
-37.820499
 21
-82.014672
 31
0.0
  0
LINE
  8
0
 62
     0
 10
-86.401081
 20
-135.014672
 30
0.0
 11
-81.231924
 21
-129.845515
 31
0.0
  0
LINE
  8
0
 62
     0
 10
-49.401081
 20
-98.014672
 30
0.0
 11
-33.401081
 21
-82.014672
 31
0.0
  0
LINE
  8
0
 62
     0
 10
-81.981664
 20
-135.014672
 30
0.0
 11
-81.231924
 21
-134.264933
 31
0.0
  0
LINE
  8
0
 62
     0
 10
-44.981664
 20
-98.014672
 30
0.0
 11
-29.731924
 21
-82.764933
 31
0.0
  0
LINE
  8
0
 62
     0
 10
-40.562246
 20
-98.014672
 30
0.0
 11
-29.731924
 21
-87.18435
 31
0.0
  0
LINE
  8
0
 62
     0
 10
-36.142829
 20
-98.014672
 30
0.0
 11
-29.731924
 21
-91.603767
 31
0.0
  0
LINE
  8
0
 62
     0
 10
-31.723412
 20
-98.014672
 30
0.0
 11
-29.731924
 21
-96.023185
 31
0.0
  0
ENDBLK
  8
0
  0
BLOCK
  8
0
  2
*X7
 70
    65
 10
0.0
 20
0.0
 30
0.0
  3
*X
  0
LINE
  8
0
 62
     0
 10
140.464003
 20
-129.120458
 30
0.0
 11
147.864003
 21
-121.720458
 31
0.0
  0
LINE
  8
0
 62
     0
 10
175.569788
 20
-94.014672
 30
0.0
 11
193.569788
 21
-76.014672
 31
0.0
  0
LINE
  8
0
 62
     0
 10
140.464003
 20
-124.70104
 30
0.0
 11
147.864003
 21
-117.30104
 31
0.0
  0
LINE
  8
0
 62
     0
 10
171.150371
 20
-94.014672
 30
0.0
 11
189.150371
 21
-76.014672
 31
0.0
  0
LINE
  8
0
 62
     0
 10
125.730953
 20
-135.014672
 30
0.0
 11
130.264003
 21
-130.481623
 31
0.0
  0
LINE
  8
0
 62
     0
 10
166.467127
 20
-94.278499
 30
0.0
 11
184.730953
 21
-76.014672
 31
0.0
  0
LINE
  8
0
 62
     0
 10
140.464003
 20
-120.281623
 30
0.0
 11
148.127829
 21
-112.617796
 31
0.0
  0
LINE
  8
0
 62
     0
 10
122.864003
 20
-133.462205
 30
0.0
 11
130.264003
 21
-126.062205
 31
0.0
  0
LINE
  8
0
 62
     0
 10
159.952224
 20
-96.373984
 30
0.0
 11
180.311536
 21
-76.014672
 31
0.0
  0
LINE
  8
0
 62
     0
 10
140.464003
 20
-115.862205
 30
0.0
 11
150.223314
 21
-106.102894
 31
0.0
  0
LINE
  8
0
 62
     0
 10
122.864003
 20
-129.042788
 30
0.0
 11
130.264003
 21
-121.642788
 31
0.0
  0
LINE
  8
0
 62
     0
 10
140.464003
 20
-111.442788
 30
0.0
 11
175.892118
 21
-76.014672
 31
0.0
  0
LINE
  8
0
 62
     0
 10
122.864003
 20
-124.623371
 30
0.0
 11
130.264003
 21
-117.223371
 31
0.0
  0
LINE
  8
0
 62
     0
 10
140.464003
 20
-107.023371
 30
0.0
 11
171.472701
 21
-76.014672
 31
0.0
  0
LINE
  8
0
 62
     0
 10
122.864003
 20
-120.203953
 30
0.0
 11
130.264003
 21
-112.803953
 31
0.0
  0
LINE
  8
0
 62
     0
 10
138.336888
 20
-104.731068
 30
0.0
 11
167.053284
 21
-76.014672
 31
0.0
  0
LINE
  8
0
 62
     0
 10
122.92663
 20
-115.721909
 30
0.0
 11
130.264003
 21
-108.384536
 31
0.0
  0
LINE
  8
0
 62
     0
 10
135.535089
 20
-103.113449
 30
0.0
 11
162.571239
 21
-76.0773
 31
0.0
  0
LINE
  8
0
 62
     0
 10
123.50088
 20
-110.728241
 30
0.0
 11
157.577572
 21
-76.65155
 31
0.0
  0
LINE
  8
0
 62
     0
 10
124.990811
 20
-104.818893
 30
0.0
 11
151.668223
 21
-78.141481
 31
0.0
  0
LINE
  8
0
 62
     0
 10
128.65179
 20
-96.738496
 30
0.0
 11
143.587826
 21
-81.80246
 31
0.0
  0
LINE
  8
0
 62
     0
 10
140.464003
 20
-133.539875
 30
0.0
 11
147.864003
 21
-126.139875
 31
0.0
  0
LINE
  8
0
 62
     0
 10
179.989205
 20
-94.014672
 30
0.0
 11
197.989205
 21
-76.014672
 31
0.0
  0
LINE
  8
0
 62
     0
 10
143.408623
 20
-135.014672
 30
0.0
 11
147.864003
 21
-130.559292
 31
0.0
  0
LINE
  8
0
 62
     0
 10
184.408623
 20
-94.014672
 30
0.0
 11
202.408623
 21
-76.014672
 31
0.0
  0
LINE
  8
0
 62
     0
 10
147.82804
 20
-135.014672
 30
0.0
 11
147.864003
 21
-134.97871
 31
0.0
  0
LINE
  8
0
 62
     0
 10
188.82804
 20
-94.014672
 30
0.0
 11
205.364003
 21
-77.47871
 31
0.0
  0
LINE
  8
0
 62
     0
 10
193.247457
 20
-94.014672
 30
0.0
 11
205.364003
 21
-81.898127
 31
0.0
  0
LINE
  8
0
 62
     0
 10
197.666875
 20
-94.014672
 30
0.0
 11
205.364003
 21
-86.317544
 31
0.0
  0
LINE
  8
0
 62
     0
 10
202.086292
 20
-94.014672
 30
0.0
 11
205.364003
 21
-90.736962
 31
0.0
  0
ENDBLK
  8
0
  0
ENDSEC
  0
SECTION
  2
ENTITIES
  0
LINE
  8
0
  6
CENTER
 10
-94.231924
 20
-20.23673
 30
0.0
 11
-94.231924
 21
6.32327
 31
0.0
  0
LINE
  8
0
  6
CENTER
 10
5.768076
 20
-20.23673
 30
0.0
 11
5.768076
 21
6.32327
 31
0.0
  0
LINE
  8
0
 10
-103.231924
 20
-17.0002
 30
0.0
 11
-85.231924
 21
-17.0002
 31
0.0
  0
LINE
  8
0
 10
-73.231924
 20
24.9998
 30
0.0
 11
-15.231924
 21
24.9998
 31
0.0
  0
LINE
  8
0
 10
-68.231924
 20
12.9998
 30
0.0
 11
-20.231924
 21
12.9998
 31
0.0
  0
LINE
  8
0
 10
-103.231924
 20
-17.0002
 30
0.0
 11
-103.231924
 21
-5.0002
 31
0.0
  0
LINE
  8
0
 10
-85.231924
 20
-17.0002
 30
0.0
 11
-85.231924
 21
-4.0002
 31
0.0
  0
LINE
  8
0
 10
-3.231924
 20
-17.0002
 30
0.0
 11
-3.231924
 21
-4.0002
 31
0.0
  0
LINE
  8
0
 10
14.768076
 20
-17.0002
 30
0.0
 11
14.768076
 21
-5.0002
 31
0.0
  0
ARC
  8
0
 10
-68.231924
 20
-4.0002
 30
0.0
 40
17.0
 50
90.0
 51
180.0
  0
ARC
  8
0
 10
-20.231924
 20
-4.0002
 30
0.0
 40
17.0
 50
0.0
 51
90.0
  0
ARC
  8
0
 10
-94.231924
 20
-40.684216
 30
0.0
 40
9.0
 50
83.28281
 51
276.71719
  0
ARC
  8
0
 10
5.768076
 20
-40.684216
 30
0.0
 40
9.0
 50
263.282812
 51
96.717188
  0
LINE
  8
0
 10
-68.231924
 20
-34.684216
 30
0.0
 11
-20.231924
 21
-34.684216
 31
0.0
  0
LINE
  8
0
 10
-68.231924
 20
-46.684216
 30
0.0
 11
-20.231924
 21
-46.684216
 31
0.0
  0
LINE
  8
0
 10
-68.231924
 20
-34.684216
 30
0.0
 11
-93.179206
 21
-31.745995
 31
0.0
  0
LINE
  8
0
 10
-68.231924
 20
-46.684216
 30
0.0
 11
-93.179206
 21
-49.622436
 31
0.0
  0
LINE
  8
0
 10
-20.231924
 20
-34.684216
 30
0.0
 11
4.715358
 21
-31.745995
 31
0.0
  0
LINE
  8
0
 10
-20.231924
 20
-46.684216
 30
0.0
 11
4.715358
 21
-49.622436
 31
0.0
  0
LINE
  8
0
 10
-3.231924
 20
-17.0002
 30
0.0
 11
14.768076
 21
-17.0002
 31
0.0
  0
ARC
  8
0
 10
-73.231924
 20
-5.0002
 30
0.0
 40
30.0
 50
90.0
 51
180.0
  0
ARC
  8
0
 10
-15.231924
 20
-5.0002
 30
0.0
 40
30.0
 50
0.0
 51
90.0
  0
LINE
  8
0
 10
28.841181
 20
-17.0002
 30
0.0
 11
46.841181
 21
-17.0002
 31
0.0
  0
LINE
  8
0
 10
28.841181
 20
-17.0002
 30
0.0
 11
28.841181
 21
-7.624045
 31
0.0
  0
ARC
  8
0
 10
37.841181
 20
18.9998
 30
0.0
 40
6.0
 50
8.865042
 51
171.134958
  0
ARC
  8
0
 10
181.456297
 20
-10.695242
 30
0.0
 40
152.646015
 50
168.428375
 51
178.847146
  0
ARC
  8
0
 10
-105.773935
 20
-10.695242
 30
0.0
 40
152.646015
 50
1.152854
 51
11.571625
  0
LINE
  8
0
 10
46.841181
 20
-17.0002
 30
0.0
 11
46.841181
 21
-7.624045
 31
0.0
  0
LINE
  8
0
  6
CENTER
 10
-44.231924
 20
-20.23673
 30
0.0
 11
-44.231924
 21
26.90727
 31
0.0
  0
LINE
  8
0
 10
-97.231924
 20
-5.0002
 30
0.0
 11
-91.231924
 21
-5.0002
 31
0.0
  0
LINE
  8
0
 10
-94.231924
 20
2.9998
 30
0.0
 11
-96.731924
 21
1.556425
 31
0.0
  0
LINE
  8
0
 10
-97.231924
 20
-17.0002
 30
0.0
 11
-97.231924
 21
-5.0002
 31
0.0
  0
LINE
  8
0
 10
-91.231924
 20
-17.0002
 30
0.0
 11
-91.231924
 21
-5.0002
 31
0.0
  0
LINE
  8
0
 10
-96.731924
 20
-16.5002
 30
0.0
 11
-96.731924
 21
1.556425
 31
0.0
  0
LINE
  8
0
 10
-91.731924
 20
-16.5002
 30
0.0
 11
-91.731924
 21
1.556425
 31
0.0
  0
LINE
  8
0
 10
-94.231924
 20
2.9998
 30
0.0
 11
-91.731924
 21
1.556425
 31
0.0
  0
LINE
  8
0
  6
CENTER
 10
90.96779
 20
-19.6562
 30
0.0
 11
90.96779
 21
11.5518
 31
0.0
  0
LINE
  8
0
  6
CENTER
 10
202.96779
 20
-19.6562
 30
0.0
 11
202.96779
 21
11.5518
 31
0.0
  0
LINE
  8
0
 10
80.96779
 20
-17.0002
 30
0.0
 11
100.96779
 21
-17.0002
 31
0.0
  0
LINE
  8
0
 10
114.96779
 20
29.9998
 30
0.0
 11
178.96779
 21
29.9998
 31
0.0
  0
LINE
  8
0
 10
120.96779
 20
15.9998
 30
0.0
 11
172.96779
 21
15.9998
 31
0.0
  0
LINE
  8
0
 10
80.96779
 20
-17.0002
 30
0.0
 11
80.96779
 21
-4.0002
 31
0.0
  0
LINE
  8
0
 10
100.96779
 20
-17.0002
 30
0.0
 11
100.96779
 21
-4.0002
 31
0.0
  0
LINE
  8
0
 10
192.96779
 20
-17.0002
 30
0.0
 11
192.96779
 21
-4.0002
 31
0.0
  0
LINE
  8
0
 10
212.96779
 20
-17.0002
 30
0.0
 11
212.96779
 21
-4.0002
 31
0.0
  0
ARC
  8
0
 10
120.96779
 20
-4.0002
 30
0.0
 40
20.0
 50
90.0
 51
180.0
  0
ARC
  8
0
 10
172.96779
 20
-4.0002
 30
0.0
 40
20.0
 50
0.0
 51
90.0
  0
ARC
  8
0
 10
114.96779
 20
-4.0002
 30
0.0
 40
34.0
 50
90.0
 51
180.0
  0
ARC
  8
0
 10
178.96779
 20
-4.0002
 30
0.0
 40
34.0
 50
0.0
 51
90.0
  0
ARC
  8
0
 10
90.96779
 20
-42.911769
 30
0.0
 40
10.0
 50
84.191847
 51
275.808153
  0
ARC
  8
0
 10
202.96779
 20
-42.911769
 30
0.0
 40
10.0
 50
264.191847
 51
95.808153
  0
LINE
  8
0
 10
120.96779
 20
-35.911769
 30
0.0
 11
172.96779
 21
-35.911769
 31
0.0
  0
LINE
  8
0
 10
120.96779
 20
-49.911769
 30
0.0
 11
172.96779
 21
-49.911769
 31
0.0
  0
LINE
  8
0
 10
120.96779
 20
-35.911769
 30
0.0
 11
91.979768
 21
-32.963106
 31
0.0
  0
LINE
  8
0
 10
120.96779
 20
-49.911769
 30
0.0
 11
91.979768
 21
-52.860433
 31
0.0
  0
LINE
  8
0
 10
172.96779
 20
-35.911769
 30
0.0
 11
201.955811
 21
-32.963106
 31
0.0
  0
LINE
  8
0
 10
172.96779
 20
-49.911769
 30
0.0
 11
201.955811
 21
-52.860433
 31
0.0
  0
LINE
  8
0
 10
192.96779
 20
-17.0002
 30
0.0
 11
212.96779
 21
-17.0002
 31
0.0
  0
LINE
  8
0
 10
231.84772
 20
-17.0002
 30
0.0
 11
251.84772
 21
-17.0002
 31
0.0
  0
LINE
  8
0
 10
231.84772
 20
-17.0002
 30
0.0
 11
231.84772
 21
-8.97908
 31
0.0
  0
ARC
  8
0
 10
241.84772
 20
22.9998
 30
0.0
 40
7.0
 50
7.578433
 51
172.421567
  0
ARC
  8
0
 10
414.904443
 20
-9.416884
 30
0.0
 40
183.057247
 50
169.50626
 51
179.86297
  0
ARC
  8
0
 10
68.790997
 20
-9.416884
 30
0.0
 40
183.057247
 50
0.13703
 51
10.49374
  0
LINE
  8
0
 10
251.84772
 20
-17.0002
 30
0.0
 11
251.84772
 21
-8.97908
 31
0.0
  0
LINE
  8
0
 10
86.96779
 20
-2.0002
 30
0.0
 11
94.96779
 21
-2.0002
 31
0.0
  0
LINE
  8
0
 10
90.96779
 20
6.9998
 30
0.0
 11
87.56779
 21
5.03681
 31
0.0
  0
LINE
  8
0
 10
86.96779
 20
-17.0002
 30
0.0
 11
86.96779
 21
-2.0002
 31
0.0
  0
LINE
  8
0
 10
87.56779
 20
-16.4002
 30
0.0
 11
87.56779
 21
5.03681
 31
0.0
  0
LINE
  8
0
 10
94.36779
 20
-16.4002
 30
0.0
 11
94.36779
 21
5.03681
 31
0.0
  0
LINE
  8
0
 10
90.96779
 20
6.9998
 30
0.0
 11
94.36779
 21
5.03681
 31
0.0
  0
LINE
  8
0
 10
94.96779
 20
-17.0002
 30
0.0
 11
94.96779
 21
-2.0002
 31
0.0
  0
LINE
  8
0
  6
CENTER
 10
146.96779
 20
-19.6562
 30
0.0
 11
146.96779
 21
32.578467
 31
0.0
  0
LINE
  8
0
  6
CENTER
 10
-92.231924
 20
-137.926817
 30
0.0
 11
-92.231924
 21
-102.880488
 31
0.0
  0
LINE
  8
0
  6
CENTER
 10
32.768076
 20
-137.926817
 30
0.0
 11
32.768076
 21
-102.880488
 31
0.0
  0
LINE
  8
0
 10
-103.231924
 20
-135.014672
 30
0.0
 11
-81.231924
 21
-135.014672
 31
0.0
  0
LINE
  8
0
 10
-65.231924
 20
-82.014672
 30
0.0
 11
5.768076
 21
-82.014672
 31
0.0
  0
LINE
  8
0
 10
-61.231924
 20
-98.014672
 30
0.0
 11
1.768076
 21
-98.014672
 31
0.0
  0
LINE
  8
0
 10
-103.231924
 20
-135.014672
 30
0.0
 11
-103.231924
 21
-120.014672
 31
0.0
  0
LINE
  8
0
 10
-81.231924
 20
-135.014672
 30
0.0
 11
-81.231924
 21
-118.014672
 31
0.0
  0
LINE
  8
0
 10
21.768076
 20
-135.014672
 30
0.0
 11
21.768076
 21
-118.014672
 31
0.0
  0
LINE
  8
0
 10
43.768076
 20
-135.014672
 30
0.0
 11
43.768076
 21
-120.014672
 31
0.0
  0
ARC
  8
0
 10
-61.231924
 20
-118.014672
 30
0.0
 40
20.0
 50
90.0
 51
180.0
  0
ARC
  8
0
 10
1.768076
 20
-118.014672
 30
0.0
 40
20.0
 50
0.0
 51
90.0
  0
ARC
  8
0
 10
-65.231924
 20
-120.014672
 30
0.0
 40
38.0
 50
90.0
 51
180.0
  0
ARC
  8
0
 10
5.768076
 20
-120.014672
 30
0.0
 40
38.0
 50
0.0
 51
90.0
  0
ARC
  8
0
 10
-92.231924
 20
-161.145771
 30
0.0
 40
11.0
 50
84.375013
 51
275.624983
  0
ARC
  8
0
 10
32.768076
 20
-161.145771
 30
0.0
 40
11.0
 50
264.375017
 51
95.624983
  0
LINE
  8
0
 10
-61.231924
 20
-153.145771
 30
0.0
 11
1.768076
 21
-153.145771
 31
0.0
  0
LINE
  8
0
 10
-61.231924
 20
-169.145771
 30
0.0
 11
1.768076
 21
-169.145771
 31
0.0
  0
LINE
  8
0
 10
-61.231924
 20
-153.145771
 30
0.0
 11
-91.153739
 21
-150.198739
 31
0.0
  0
LINE
  8
0
 10
-61.231924
 20
-169.145771
 30
0.0
 11
-91.153739
 21
-172.092804
 31
0.0
  0
LINE
  8
0
 10
1.768076
 20
-153.145771
 30
0.0
 11
31.689891
 21
-150.198739
 31
0.0
  0
LINE
  8
0
 10
1.768076
 20
-169.145771
 30
0.0
 11
31.689891
 21
-172.092804
 31
0.0
  0
LINE
  8
0
 10
21.768076
 20
-135.014672
 30
0.0
 11
43.768076
 21
-135.014672
 31
0.0
  0
LINE
  8
0
 10
63.013434
 20
-135.014672
 30
0.0
 11
85.013434
 21
-135.014672
 31
0.0
  0
LINE
  8
0
 10
63.013434
 20
-135.014672
 30
0.0
 11
63.013434
 21
-123.334061
 31
0.0
  0
ARC
  8
0
 10
74.013434
 20
-90.014672
 30
0.0
 40
8.0
 50
7.346853
 51
172.653147
  0
ARC
  8
0
 10
293.490303
 20
-126.60025
 30
0.0
 40
230.500011
 50
170.609588
 51
179.188091
  0
ARC
  8
0
 10
-145.463435
 20
-126.60025
 30
0.0
 40
230.500011
 50
0.811909
 51
9.390412
  0
LINE
  8
0
 10
85.013434
 20
-135.014672
 30
0.0
 11
85.013434
 21
-123.334061
 31
0.0
  0
LINE
  8
0
  6
CENTER
 10
-29.731924
 20
-137.926817
 30
0.0
 11
-29.731924
 21
-80.073435
 31
0.0
  0
LINE
  8
0
 10
-97.231924
 20
-117.014672
 30
0.0
 11
-87.231924
 21
-117.014672
 31
0.0
  0
LINE
  8
0
 10
-92.231924
 20
-107.014672
 30
0.0
 11
-96.481924
 21
-109.468411
 31
0.0
  0
LINE
  8
0
 10
-97.231924
 20
-135.014672
 30
0.0
 11
-97.231924
 21
-117.014672
 31
0.0
  0
LINE
  8
0
 10
-96.481924
 20
-134.264672
 30
0.0
 11
-96.481924
 21
-109.468411
 31
0.0
  0
LINE
  8
0
 10
-92.231924
 20
-107.014672
 30
0.0
 11
-87.981924
 21
-109.468411
 31
0.0
  0
LINE
  8
0
 10
-87.981924
 20
-134.264672
 30
0.0
 11
-87.981924
 21
-109.468411
 31
0.0
  0
LINE
  8
0
 10
-87.231924
 20
-135.014672
 30
0.0
 11
-87.231924
 21
-117.014672
 31
0.0
  0
LINE
  8
0
  6
CENTER
 10
135.364003
 20
-137.92693
 30
0.0
 11
135.364003
 21
-100.185415
 31
0.0
  0
LINE
  8
0
  6
CENTER
 10
205.364003
 20
-137.92693
 30
0.0
 11
205.364003
 21
-71.262701
 31
0.0
  0
LINE
  8
0
  6
CENTER
 10
275.364003
 20
-137.92693
 30
0.0
 11
275.364003
 21
-100.185415
 31
0.0
  0
LINE
  8
0
 10
122.864003
 20
-135.014672
 30
0.0
 11
147.864003
 21
-135.014672
 31
0.0
  0
LINE
  8
0
 10
164.864003
 20
-76.014672
 30
0.0
 11
245.864003
 21
-76.014672
 31
0.0
  0
LINE
  8
0
 10
169.864003
 20
-94.014672
 30
0.0
 11
240.864003
 21
-94.014672
 31
0.0
  0
LINE
  8
0
 10
122.864003
 20
-135.014672
 30
0.0
 11
122.864003
 21
-118.014672
 31
0.0
  0
LINE
  8
0
 10
147.864003
 20
-135.014672
 30
0.0
 11
147.864003
 21
-116.014672
 31
0.0
  0
LINE
  8
0
 10
262.864003
 20
-135.014672
 30
0.0
 11
262.864003
 21
-116.014672
 31
0.0
  0
LINE
  8
0
 10
287.864003
 20
-135.014672
 30
0.0
 11
287.864003
 21
-118.014672
 31
0.0
  0
ARC
  8
0
 10
169.864003
 20
-116.014672
 30
0.0
 40
22.0
 50
90.0
 51
180.0
  0
ARC
  8
0
 10
240.864003
 20
-116.014672
 30
0.0
 40
22.0
 50
0.0
 51
90.0
  0
ARC
  8
0
 10
164.864003
 20
-118.014672
 30
0.0
 40
42.0
 50
90.0
 51
180.0
  0
ARC
  8
0
 10
245.864003
 20
-118.014672
 30
0.0
 40
42.0
 50
0.0
 51
90.0
  0
ARC
  8
0
 10
135.364003
 20
-168.251742
 30
0.0
 40
12.5
 50
84.097714
 51
275.902286
  0
ARC
  8
0
 10
275.364003
 20
-168.251742
 30
0.0
 40
12.5
 50
264.097714
 51
95.902286
  0
LINE
  8
0
 10
169.864003
 20
-159.251742
 30
0.0
 11
240.864003
 21
-159.251742
 31
0.0
  0
LINE
  8
0
 10
169.864003
 20
-177.251742
 30
0.0
 11
240.864003
 21
-177.251742
 31
0.0
  0
LINE
  8
0
 10
169.864003
 20
-159.251742
 30
0.0
 11
136.649406
 21
-155.818008
 31
0.0
  0
LINE
  8
0
 10
169.864003
 20
-177.251742
 30
0.0
 11
136.649406
 21
-180.685476
 31
0.0
  0
LINE
  8
0
 10
240.864003
 20
-159.251742
 30
0.0
 11
274.0786
 21
-155.818008
 31
0.0
  0
LINE
  8
0
 10
240.864003
 20
-177.251742
 30
0.0
 11
274.0786
 21
-180.685476
 31
0.0
  0
LINE
  8
0
 10
262.864003
 20
-135.014672
 30
0.0
 11
287.864003
 21
-135.014672
 31
0.0
  0
LINE
  8
0
 10
129.364003
 20
-115.014672
 30
0.0
 11
141.364003
 21
-115.014672
 31
0.0
  0
LINE
  8
0
 10
135.364003
 20
-103.014672
 30
0.0
 11
130.264003
 21
-105.959159
 31
0.0
  0
LINE
  8
0
 10
129.364003
 20
-135.014672
 30
0.0
 11
129.364003
 21
-115.014672
 31
0.0
  0
LINE
  8
0
 10
130.264003
 20
-134.114672
 30
0.0
 11
130.264003
 21
-105.959159
 31
0.0
  0
LINE
  8
0
 10
135.364003
 20
-103.014672
 30
0.0
 11
140.464003
 21
-105.959159
 31
0.0
  0
LINE
  8
0
 10
140.464003
 20
-134.114672
 30
0.0
 11
140.464003
 21
-105.959159
 31
0.0
  0
LINE
  8
0
 10
141.364003
 20
-135.014672
 30
0.0
 11
141.364003
 21
-115.014672
 31
0.0
  0
LINE
  8
0
 10
306.454521
 20
-135.014672
 30
0.0
 11
331.454521
 21
-135.014672
 31
0.0
  0
LINE
  8
0
 10
306.454521
 20
-135.014672
 30
0.0
 11
306.454521
 21
-122.794849
 31
0.0
  0
ARC
  8
0
 10
318.954521
 20
-85.014672
 30
0.0
 40
9.0
 50
7.188044
 51
172.811956
  0
ARC
  8
0
 10
565.701731
 20
-126.970953
 30
0.0
 40
259.280843
 50
170.435302
 51
179.077126
  0
ARC
  8
0
 10
72.207312
 20
-126.970953
 30
0.0
 40
259.280843
 50
0.922874
 51
9.564698
  0
LINE
  8
0
 10
331.454521
 20
-135.014672
 30
0.0
 11
331.454521
 21
-122.794849
 31
0.0
  0
LINE
  8
0
 10
87.56779
 20
-16.4002
 30
0.0
 11
94.36779
 21
-16.4002
 31
0.0
  0
LINE
  8
0
 10
86.96779
 20
-17.0002
 30
0.0
 11
87.56779
 21
-16.4002
 31
0.0
  0
LINE
  8
0
 10
94.36779
 20
-16.4002
 30
0.0
 11
94.96779
 21
-17.0002
 31
0.0
  0
LINE
  8
0
 10
-96.731924
 20
-16.5002
 30
0.0
 11
-91.731924
 21
-16.5002
 31
0.0
  0
LINE
  8
0
 10
-97.231924
 20
-17.0002
 30
0.0
 11
-96.731924
 21
-16.5002
 31
0.0
  0
LINE
  8
0
 10
-91.731924
 20
-16.5002
 30
0.0
 11
-91.231924
 21
-17.0002
 31
0.0
  0
LINE
  8
0
 10
130.264003
 20
-134.114672
 30
0.0
 11
140.464003
 21
-134.114672
 31
0.0
  0
LINE
  8
0
 10
130.264003
 20
-134.114672
 30
0.0
 11
129.364003
 21
-135.014672
 31
0.0
  0
LINE
  8
0
 10
140.464003
 20
-134.114672
 30
0.0
 11
141.364003
 21
-135.014672
 31
0.0
  0
LINE
  8
0
 10
-96.481924
 20
-134.264672
 30
0.0
 11
-87.981924
 21
-134.264672
 31
0.0
  0
LINE
  8
0
 10
-97.231924
 20
-135.014672
 30
0.0
 11
-96.481924
 21
-134.264672
 31
0.0
  0
LINE
  8
0
 10
-87.981924
 20
-134.264672
 30
0.0
 11
-87.231924
 21
-135.014672
 31
0.0
  0
LINE
  8
0
 10
-96.731924
 20
1.556425
 30
0.0
 11
-91.731924
 21
1.556425
 31
0.0
  0
LINE
  8
0
 10
-96.481924
 20
-109.468411
 30
0.0
 11
-87.981924
 21
-109.468411
 31
0.0
  0
LINE
  8
0
 10
87.56779
 20
5.03681
 30
0.0
 11
94.36779
 21
5.03681
 31
0.0
  0
LINE
  8
0
 10
130.264003
 20
-105.959159
 30
0.0
 11
140.464003
 21
-105.959159
 31
0.0
  0
INSERT
  8
0
  2
*X4
 10
0.0
 20
0.0
 30
0.0
1001
ACAD
1000
HATCH
1002
{
1070
    16
1000
ANSI31
1040
20.0
1040
0.0
1002
}
  0
INSERT
  8
0
  2
*X5
 10
0.0
 20
0.0
 30
0.0
1001
ACAD
1000
HATCH
1002
{
1070
    16
1000
ANSI31
1040
20.0
1040
0.0
1002
}
  0
INSERT
  8
0
  2
*X6
 10
0.0
 20
0.0
 30
0.0
1001
ACAD
1000
HATCH
1002
{
1070
    16
1000
ANSI31
1040
25.0
1040
0.0
1002
}
  0
INSERT
  8
0
  2
*X7
 10
0.0
 20
0.0
 30
0.0
1001
ACAD
1000
HATCH
1002
{
1070
    16
1000
ANSI31
1040
25.0
1040
0.0
1002
}
  0
ENDSEC
  0
EOF
