  0
SECTION
  2
HEADER
  9
$ACADVER
  1
AC1009
  9
$INSBASE
 10
0.0
 20
0.0
 30
0.0
  9
$EXTMIN
 10
-98.21149
 20
-148.185174
 30
0.0
  9
$EXTMAX
 10
334.552376
 20
79.089258
 30
0.0
  9
$LIMMIN
 10
0.0
 20
0.0
  9
$LIMMAX
 10
12.0
 20
9.0
  9
$ORTHOMODE
 70
     1
  9
$REGENMODE
 70
     1
  9
$FILLMODE
 70
     1
  9
$QTEXTMODE
 70
     0
  9
$MIRRTEXT
 70
     1
  9
$DRAGMODE
 70
     2
  9
$LTSCALE
 40
7.0
  9
$OSMODE
 70
     0
  9
$ATTMODE
 70
     1
  9
$TEXTSIZE
 40
0.2
  9
$TRACEWID
 40
0.05
  9
$TEXTSTYLE
  7
STANDARD
  9
$CLAYER
  8
0
  9
$CELTYPE
  6
BYLAYER
  9
$CECOLOR
 62
   256
  9
$DIMSCALE
 40
1.0
  9
$DIMASZ
 40
2.5
  9
$DIMEXO
 40
0.0
  9
$DIMDLI
 40
5.0
  9
$DIMRND
 40
0.0
  9
$DIMDLE
 40
0.0
  9
$DIMEXE
 40
1.0
  9
$DIMTP
 40
0.0
  9
$DIMTM
 40
0.0
  9
$DIMTXT
 40
2.5
  9
$DIMCEN
 40
0.09
  9
$DIMTSZ
 40
0.0
  9
$DIMTOL
 70
     0
  9
$DIMLIM
 70
     0
  9
$DIMTIH
 70
     0
  9
$DIMTOH
 70
     0
  9
$DIMSE1
 70
     0
  9
$DIMSE2
 70
     0
  9
$DIMTAD
 70
     1
  9
$DIMZIN
 70
     0
  9
$DIMBLK
  1

  9
$DIMASO
 70
     0
  9
$DIMSHO
 70
     0
  9
$DIMPOST
  1

  9
$DIMAPOST
  1

  9
$DIMALT
 70
     0
  9
$DIMALTD
 70
     2
  9
$DIMALTF
 40
25.4
  9
$DIMLFAC
 40
1.0
  9
$DIMTOFL
 70
     1
  9
$DIMTVP
 40
0.0
  9
$DIMTIX
 70
     0
  9
$DIMSOXD
 70
     0
  9
$DIMSAH
 70
     0
  9
$DIMBLK1
  1

  9
$DIMBLK2
  1

  9
$DIMSTYLE
  2
*UNNAMED
  9
$DIMCLRD
 70
     0
  9
$DIMCLRE
 70
     0
  9
$DIMCLRT
 70
     0
  9
$DIMTFAC
 40
1.0
  9
$DIMGAP
 40
0.09
  9
$LUNITS
 70
     2
  9
$LUPREC
 70
     4
  9
$SKETCHINC
 40
0.1
  9
$FILLETRAD
 40
0.0
  9
$AUNITS
 70
     0
  9
$AUPREC
 70
     0
  9
$MENU
  1
wiberger
  9
$ELEVATION
 40
0.0
  9
$PELEVATION
 40
0.0
  9
$THICKNESS
 40
0.0
  9
$LIMCHECK
 70
     0
  9
$BLIPMODE
 70
     1
  9
$CHAMFERA
 40
1.2
  9
$CHAMFERB
 40
1.2
  9
$SKPOLY
 70
     0
  9
$TDCREATE
 40
2450191.440566551
  9
$TDUPDATE
 40
2450210.607587152
  9
$TDINDWG
 40
0.0006859954
  9
$TDUSRTIMER
 40
0.0006859954
  9
$USRTIMER
 70
     1
  9
$ANGBASE
 50
0.0
  9
$ANGDIR
 70
     0
  9
$PDMODE
 70
     0
  9
$PDSIZE
 40
0.0
  9
$PLINEWID
 40
0.0
  9
$COORDS
 70
     0
  9
$SPLFRAME
 70
     0
  9
$SPLINETYPE
 70
     6
  9
$SPLINESEGS
 70
     8
  9
$ATTDIA
 70
     0
  9
$ATTREQ
 70
     1
  9
$HANDLING
 70
     0
  9
$HANDSEED
  5
0
  9
$SURFTAB1
 70
     6
  9
$SURFTAB2
 70
     6
  9
$SURFTYPE
 70
     6
  9
$SURFU
 70
     6
  9
$SURFV
 70
     6
  9
$UCSNAME
  2

  9
$UCSORG
 10
0.0
 20
0.0
 30
0.0
  9
$UCSXDIR
 10
1.0
 20
0.0
 30
0.0
  9
$UCSYDIR
 10
0.0
 20
1.0
 30
0.0
  9
$PUCSNAME
  2

  9
$PUCSORG
 10
0.0
 20
0.0
 30
0.0
  9
$PUCSXDIR
 10
1.0
 20
0.0
 30
0.0
  9
$PUCSYDIR
 10
0.0
 20
1.0
 30
0.0
  9
$USERI1
 70
     0
  9
$USERI2
 70
     0
  9
$USERI3
 70
     0
  9
$USERI4
 70
     0
  9
$USERI5
 70
     0
  9
$USERR1
 40
0.0
  9
$USERR2
 40
0.0
  9
$USERR3
 40
0.0
  9
$USERR4
 40
0.0
  9
$USERR5
 40
0.0
  9
$WORLDVIEW
 70
     1
  9
$SHADEDGE
 70
     3
  9
$SHADEDIF
 70
    70
  9
$TILEMODE
 70
     1
  9
$MAXACTVP
 70
    16
  9
$PINSBASE
 10
0.0
 20
0.0
 30
0.0
  9
$PLIMCHECK
 70
     0
  9
$PEXTMIN
 10
1.000000E+20
 20
1.000000E+20
 30
1.000000E+20
  9
$PEXTMAX
 10
-1.000000E+20
 20
-1.000000E+20
 30
-1.000000E+20
  9
$PLIMMIN
 10
0.0
 20
0.0
  9
$PLIMMAX
 10
12.0
 20
9.0
  9
$UNITMODE
 70
     0
  9
$VISRETAIN
 70
     0
  9
$PLINEGEN
 70
     0
  9
$PSLTSCALE
 70
     0
  9
$TREEDEPTH
 70
  3020
  9
$DWGCODEPAGE
  3
undefined
  0
ENDSEC
  0
SECTION
  2
TABLES
  0
TABLE
  2
VPORT
 70
     2
  0
VPORT
  2
*ACTIVE
 70
     0
 10
0.0
 20
0.0
 11
1.0
 21
1.0
 12
184.037654
 22
-41.615908
 13
0.0
 23
0.0
 14
1.0
 24
1.0
 15
0.0
 25
0.0
 16
0.0
 26
0.0
 36
1.0
 17
0.0
 27
0.0
 37
0.0
 40
346.580331
 41
1.767507
 42
50.0
 43
0.0
 44
0.0
 50
0.0
 51
0.0
 71
     0
 72
   100
 73
     1
 74
     0
 75
     0
 76
     0
 77
     0
 78
     0
  0
ENDTAB
  0
TABLE
  2
LTYPE
 70
     2
  0
LTYPE
  2
CONTINUOUS
 70
    64
  3
Solid line
 72
    65
 73
     0
 40
0.0
  0
LTYPE
  2
CENTER
 70
    64
  3
____ _ ____ _ ____ _ ____ _ ____ _ ____ _ ____
 72
    65
 73
     4
 40
2.0
 49
1.25
 49
-0.25
 49
0.25
 49
-0.25
  0
ENDTAB
  0
TABLE
  2
LAYER
 70
     1
  0
LAYER
  2
0
 70
    64
 62
     7
  6
CONTINUOUS
  0
ENDTAB
  0
TABLE
  2
STYLE
 70
     1
  0
STYLE
  2
STANDARD
 70
     0
 40
0.0
 41
1.0
 50
0.0
 71
     0
 42
0.2
  3
txt
  4

  0
ENDTAB
  0
TABLE
  2
VIEW
 70
     0
  0
ENDTAB
  0
TABLE
  2
UCS
 70
     0
  0
ENDTAB
  0
TABLE
  2
APPID
 70
     1
  0
APPID
  2
ACAD
 70
    64
  0
ENDTAB
  0
TABLE
  2
DIMSTYLE
 70
     0
  0
ENDTAB
  0
ENDSEC
  0
SECTION
  2
BLOCKS
  0
BLOCK
  8
0
  2
*X0
 70
    65
 10
0.0
 20
0.0
 30
0.0
  3
*X
  0
LINE
  8
0
 62
     0
 10
46.84338
 20
49.671808
 30
0.0
 11
57.84338
 21
60.671808
 31
0.0
  0
LINE
  8
0
 62
     0
 10
46.84338
 20
52.500235
 30
0.0
 11
57.84338
 21
63.500235
 31
0.0
  0
LINE
  8
0
 62
     0
 10
47.902511
 20
56.387792
 30
0.0
 11
57.568043
 21
66.053325
 31
0.0
  0
LINE
  8
0
 62
     0
 10
51.766214
 20
63.079922
 30
0.0
 11
54.739616
 21
66.053325
 31
0.0
  0
LINE
  8
0
 62
     0
 10
48.053325
 20
48.053325
 30
0.0
 11
57.84338
 21
57.84338
 31
0.0
  0
LINE
  8
0
 62
     0
 10
50.881752
 20
48.053325
 30
0.0
 11
57.84338
 21
55.014953
 31
0.0
  0
LINE
  8
0
 62
     0
 10
53.710179
 20
48.053325
 30
0.0
 11
57.84338
 21
52.186526
 31
0.0
  0
LINE
  8
0
 62
     0
 10
56.538606
 20
48.053325
 30
0.0
 11
57.84338
 21
49.358099
 31
0.0
  0
ENDBLK
  8
0
  0
BLOCK
  8
0
  2
*X1
 70
    65
 10
0.0
 20
0.0
 30
0.0
  3
*X
  0
LINE
  8
0
 62
     0
 10
-91.062946
 20
-113.690363
 30
0.0
 11
-77.062946
 21
-99.690363
 31
0.0
  0
LINE
  8
0
 62
     0
 10
-91.062946
 20
-110.861936
 30
0.0
 11
-77.450184
 21
-97.249174
 31
0.0
  0
LINE
  8
0
 62
     0
 10
-87.353279
 20
-104.323842
 30
0.0
 11
-80.278611
 21
-97.249174
 31
0.0
  0
LINE
  8
0
 62
     0
 10
-91.062946
 20
-116.51879
 30
0.0
 11
-77.062946
 21
-102.51879
 31
0.0
  0
LINE
  8
0
 62
     0
 10
-90.663924
 20
-118.948196
 30
0.0
 11
-77.062946
 21
-105.347217
 31
0.0
  0
LINE
  8
0
 62
     0
 10
-88.136476
 20
-119.249174
 30
0.0
 11
-77.062946
 21
-108.175645
 31
0.0
  0
LINE
  8
0
 62
     0
 10
-85.308048
 20
-119.249174
 30
0.0
 11
-77.062946
 21
-111.004072
 31
0.0
  0
LINE
  8
0
 62
     0
 10
-82.479621
 20
-119.249174
 30
0.0
 11
-77.062946
 21
-113.832499
 31
0.0
  0
LINE
  8
0
 62
     0
 10
-79.651194
 20
-119.249174
 30
0.0
 11
-77.062946
 21
-116.660926
 31
0.0
  0
ENDBLK
  8
0
  0
BLOCK
  8
0
  2
*X2
 70
    65
 10
0.0
 20
0.0
 30
0.0
  3
*X
  0
LINE
  8
0
 62
     0
 10
100.956376
 20
-82.891387
 30
0.0
 11
118.956376
 21
-64.891387
 31
0.0
  0
LINE
  8
0
 62
     0
 10
100.956376
 20
-79.355853
 30
0.0
 11
118.956376
 21
-61.355853
 31
0.0
  0
LINE
  8
0
 62
     0
 10
103.122404
 20
-73.654291
 30
0.0
 11
116.370734
 21
-60.405962
 31
0.0
  0
LINE
  8
0
 62
     0
 10
107.952033
 20
-65.289128
 30
0.0
 11
112.8352
 21
-60.405962
 31
0.0
  0
LINE
  8
0
 62
     0
 10
100.956376
 20
-86.426921
 30
0.0
 11
118.956376
 21
-68.426921
 31
0.0
  0
LINE
  8
0
 62
     0
 10
102.512869
 20
-88.405962
 30
0.0
 11
118.956376
 21
-71.962455
 31
0.0
  0
LINE
  8
0
 62
     0
 10
106.048403
 20
-88.405962
 30
0.0
 11
118.956376
 21
-75.497989
 31
0.0
  0
LINE
  8
0
 62
     0
 10
109.583937
 20
-88.405962
 30
0.0
 11
118.956376
 21
-79.033523
 31
0.0
  0
LINE
  8
0
 62
     0
 10
113.119471
 20
-88.405962
 30
0.0
 11
118.956376
 21
-82.569056
 31
0.0
  0
LINE
  8
0
 62
     0
 10
116.655005
 20
-88.405962
 30
0.0
 11
118.956376
 21
-86.10459
 31
0.0
  0
ENDBLK
  8
0
  0
ENDSEC
  0
SECTION
  2
ENTITIES
  0
LINE
  8
0
 10
-98.21149
 20
37.339258
 30
0.0
 11
-98.21149
 21
31.539258
 31
0.0
  0
LINE
  8
0
 10
-66.21149
 20
37.339258
 30
0.0
 11
-66.21149
 21
31.539258
 31
0.0
  0
LINE
  8
0
 10
-97.51149
 20
30.839258
 30
0.0
 11
-66.91149
 21
30.839258
 31
0.0
  0
LINE
  8
0
 10
-91.071962
 20
48.839258
 30
0.0
 11
-73.351019
 21
48.839258
 31
0.0
  0
LINE
  8
0
 10
-82.21149
 20
37.339258
 30
0.0
 11
-66.21149
 21
37.339258
 31
0.0
  0
LINE
  8
0
 10
-66.21149
 20
37.339258
 30
0.0
 11
-67.531255
 21
39.625156
 31
0.0
  0
LINE
  8
0
 10
-98.21149
 20
37.339258
 30
0.0
 11
-91.821962
 21
48.406245
 31
0.0
  0
ARC
  8
0
 10
-24.497934
 20
69.089258
 30
0.0
 40
10.0
 50
246.869898
 51
173.130102
  0
LINE
  8
0
 10
-71.531255
 20
46.55336
 30
0.0
 11
-33.426137
 21
68.55336
 31
0.0
  0
LINE
  8
0
 10
-67.531255
 20
39.625156
 30
0.0
 11
-29.426137
 21
61.625156
 31
0.0
  0
LINE
  8
0
 10
-34.426137
 20
70.28541
 30
0.0
 11
-28.426137
 21
59.893105
 31
0.0
  0
LINE
  8
0
 10
-87.21149
 20
48.839258
 30
0.0
 11
-87.21149
 21
30.839258
 31
0.0
  0
CIRCLE
  8
0
 10
-82.21149
 20
1.673698
 30
0.0
 40
5.0
  0
ARC
  8
0
 10
-82.21149
 20
1.673698
 30
0.0
 40
16.0
 50
14.477512
 51
345.522488
  0
LINE
  8
0
  6
CENTER
 10
-82.21149
 20
51.338777
 30
0.0
 11
-82.21149
 21
28.005991
 31
0.0
  0
LINE
  8
0
 10
-70.091947
 20
5.673698
 30
0.0
 11
-33.663085
 21
5.673698
 31
0.0
  0
LINE
  8
0
 10
-70.091947
 20
-2.326302
 30
0.0
 11
-33.663085
 21
-2.326302
 31
0.0
  0
ARC
  8
0
 10
-59.11054
 20
49.10566
 30
0.0
 40
12.680236
 50
191.611925
 51
228.388075
  0
LINE
  8
0
 10
-71.531255
 20
46.55336
 30
0.0
 11
-72.601019
 21
48.406245
 31
0.0
  0
ARC
  8
0
 10
-65.253374
 20
1.673698
 30
0.0
 40
6.277881
 50
140.419801
 51
219.580199
  0
CIRCLE
  8
0
 10
-24.497934
 20
1.673698
 30
0.0
 40
10.0
  0
LINE
  8
0
 10
-98.21149
 20
31.539258
 30
0.0
 11
-97.51149
 21
30.839258
 31
0.0
  0
LINE
  8
0
 10
-66.91149
 20
30.839258
 30
0.0
 11
-66.21149
 21
31.539258
 31
0.0
  0
LINE
  8
0
 10
-66.21149
 20
31.539258
 30
0.0
 11
-82.21149
 21
31.539258
 31
0.0
  0
LINE
  8
0
 10
-91.821962
 20
48.406245
 30
0.0
 11
-91.071962
 21
48.839258
 31
0.0
  0
LINE
  8
0
 10
-73.351019
 20
48.839258
 30
0.0
 11
-72.601019
 21
48.406245
 31
0.0
  0
LINE
  8
0
 10
-72.601019
 20
48.406245
 30
0.0
 11
-82.21149
 21
48.406245
 31
0.0
  0
CIRCLE
  8
0
 10
-82.21149
 20
1.673698
 30
0.0
 40
9.610472
  0
LINE
  8
0
 10
19.343852
 20
48.406245
 30
0.0
 11
0.122908
 21
48.406245
 31
0.0
  0
LINE
  8
0
 10
18.593852
 20
48.839258
 30
0.0
 11
19.343852
 21
48.406245
 31
0.0
  0
LINE
  8
0
 10
0.122908
 20
48.406245
 30
0.0
 11
0.872908
 21
48.839258
 31
0.0
  0
LINE
  8
0
 10
25.73338
 20
31.539258
 30
0.0
 11
-6.26662
 21
31.539258
 31
0.0
  0
LINE
  8
0
 10
25.03338
 20
30.839258
 30
0.0
 11
25.73338
 21
31.539258
 31
0.0
  0
LINE
  8
0
 10
-6.26662
 20
31.539258
 30
0.0
 11
-5.56662
 21
30.839258
 31
0.0
  0
LINE
  8
0
 10
-6.26662
 20
37.339258
 30
0.0
 11
0.122908
 21
48.406245
 31
0.0
  0
LINE
  8
0
 10
25.73338
 20
37.339258
 30
0.0
 11
19.343852
 21
48.406245
 31
0.0
  0
LINE
  8
0
 10
-6.26662
 20
37.339258
 30
0.0
 11
25.73338
 21
37.339258
 31
0.0
  0
LINE
  8
0
 10
0.872908
 20
48.839258
 30
0.0
 11
18.593852
 21
48.839258
 31
0.0
  0
LINE
  8
0
 10
-5.56662
 20
30.839258
 30
0.0
 11
25.03338
 21
30.839258
 31
0.0
  0
LINE
  8
0
 10
25.73338
 20
37.339258
 30
0.0
 11
25.73338
 21
31.539258
 31
0.0
  0
LINE
  8
0
 10
-6.26662
 20
37.339258
 30
0.0
 11
-6.26662
 21
31.539258
 31
0.0
  0
ARC
  8
0
 10
9.73338
 20
69.089258
 30
0.0
 40
10.0
 50
293.578178
 51
246.421822
  0
LINE
  8
0
 10
5.73338
 20
65.089258
 30
0.0
 11
5.73338
 21
48.839258
 31
0.0
  0
LINE
  8
0
 10
13.73338
 20
65.089258
 30
0.0
 11
13.73338
 21
48.839258
 31
0.0
  0
ARC
  8
0
 10
9.73338
 20
65.089258
 30
0.0
 40
4.0
 50
0.0
 51
180.0
  0
ARC
  8
0
 10
9.73338
 20
65.089258
 30
0.0
 40
6.0
 50
311.810315
 51
228.189685
  0
LINE
  8
0
  6
CENTER
 10
-78.21149
 20
-96.993974
 30
0.0
 11
-78.21149
 21
-69.520403
 31
0.0
  0
LINE
  8
0
 10
-98.21149
 20
-92.949174
 30
0.0
 11
-98.21149
 21
-85.149174
 31
0.0
  0
LINE
  8
0
 10
-58.21149
 20
-92.949174
 30
0.0
 11
-58.21149
 21
-85.149174
 31
0.0
  0
LINE
  8
0
 10
-97.51149
 20
-93.649174
 30
0.0
 11
-58.91149
 21
-93.649174
 31
0.0
  0
LINE
  8
0
 10
-89.417262
 20
-71.649174
 30
0.0
 11
-67.005719
 21
-71.649174
 31
0.0
  0
LINE
  8
0
 10
-78.21149
 20
-85.149174
 30
0.0
 11
-58.21149
 21
-85.149174
 31
0.0
  0
LINE
  8
0
 10
-58.21149
 20
-85.149174
 30
0.0
 11
-59.608605
 21
-82.729301
 31
0.0
  0
LINE
  8
0
 10
-98.21149
 20
-85.149174
 30
0.0
 11
-90.917262
 21
-72.515199
 31
0.0
  0
ARC
  8
0
 10
7.173428
 20
-38.399174
 30
0.0
 40
15.0
 50
240.0
 51
180.0
  0
LINE
  8
0
 10
-64.608605
 20
-74.069047
 30
0.0
 11
-6.576572
 21
-40.564237
 31
0.0
  0
LINE
  8
0
 10
-59.608605
 20
-82.729301
 30
0.0
 11
-1.576572
 21
-49.224491
 31
0.0
  0
ARC
  8
0
 10
-78.21149
 20
-128.185174
 30
0.0
 40
20.0
 50
14.477512
 51
345.522488
  0
LINE
  8
0
 10
-84.21149
 20
-93.649174
 30
0.0
 11
-84.21149
 21
-71.649174
 31
0.0
  0
CIRCLE
  8
0
 10
-78.21149
 20
-128.185174
 30
0.0
 40
6.0
  0
ARC
  8
0
 10
-48.852391
 20
-70.745695
 30
0.0
 40
16.102886
 50
191.910433
 51
228.089567
  0
LINE
  8
0
 10
-64.608605
 20
-74.069047
 30
0.0
 11
-65.505719
 21
-72.515199
 31
0.0
  0
CIRCLE
  8
0
 10
7.173428
 20
-128.185174
 30
0.0
 40
15.0
  0
LINE
  8
0
 10
-62.797899
 20
-123.185174
 30
0.0
 11
-6.968708
 21
-123.185174
 31
0.0
  0
LINE
  8
0
 10
-62.797899
 20
-133.185174
 30
0.0
 11
-6.968708
 21
-133.185174
 31
0.0
  0
LINE
  8
0
 10
-7.826572
 20
-38.399174
 30
0.0
 11
-0.326572
 21
-51.389555
 31
0.0
  0
ARC
  8
0
 10
-56.799865
 20
-128.185174
 30
0.0
 40
7.80874
 50
140.185195
 51
219.814805
  0
LINE
  8
0
 10
-98.21149
 20
-92.949174
 30
0.0
 11
-97.51149
 21
-93.649174
 31
0.0
  0
LINE
  8
0
 10
-58.21149
 20
-92.949174
 30
0.0
 11
-58.91149
 21
-93.649174
 31
0.0
  0
LINE
  8
0
 10
-58.21149
 20
-92.949174
 30
0.0
 11
-78.21149
 21
-92.949174
 31
0.0
  0
LINE
  8
0
 10
71.105368
 20
-92.949174
 30
0.0
 11
31.105368
 21
-92.949174
 31
0.0
  0
LINE
  8
0
 10
71.105368
 20
-92.949174
 30
0.0
 11
70.405368
 21
-93.649174
 31
0.0
  0
LINE
  8
0
 10
31.105368
 20
-92.949174
 30
0.0
 11
31.805368
 21
-93.649174
 31
0.0
  0
LINE
  8
0
 10
71.105368
 20
-85.149174
 30
0.0
 11
63.811139
 21
-72.515199
 31
0.0
  0
LINE
  8
0
 10
31.105368
 20
-85.149174
 30
0.0
 11
38.399597
 21
-72.515199
 31
0.0
  0
LINE
  8
0
 10
31.105368
 20
-85.149174
 30
0.0
 11
71.105368
 21
-85.149174
 31
0.0
  0
LINE
  8
0
 10
39.899597
 20
-71.649174
 30
0.0
 11
62.311139
 21
-71.649174
 31
0.0
  0
LINE
  8
0
 10
31.805368
 20
-93.649174
 30
0.0
 11
70.405368
 21
-93.649174
 31
0.0
  0
LINE
  8
0
 10
71.105368
 20
-92.949174
 30
0.0
 11
71.105368
 21
-85.149174
 31
0.0
  0
LINE
  8
0
 10
31.105368
 20
-92.949174
 30
0.0
 11
31.105368
 21
-85.149174
 31
0.0
  0
ARC
  8
0
 10
51.105368
 20
-38.399174
 30
0.0
 40
15.0
 50
289.471221
 51
250.528779
  0
LINE
  8
0
 10
46.105368
 20
-71.649174
 30
0.0
 11
46.105368
 21
-44.894364
 31
0.0
  0
LINE
  8
0
 10
56.105368
 20
-71.649174
 30
0.0
 11
56.105368
 21
-44.894364
 31
0.0
  0
ARC
  8
0
 10
51.105368
 20
-44.894364
 30
0.0
 40
5.0
 50
0.0
 51
180.0
  0
ARC
  8
0
 10
51.105368
 20
-44.894364
 30
0.0
 40
6.495191
 50
320.335965
 51
219.664035
  0
LINE
  8
0
 10
38.399597
 20
-72.515199
 30
0.0
 11
39.899597
 21
-71.649174
 31
0.0
  0
LINE
  8
0
 10
62.311139
 20
-71.649174
 30
0.0
 11
63.811139
 21
-72.515199
 31
0.0
  0
LINE
  8
0
 10
63.811139
 20
-72.515199
 30
0.0
 11
38.399597
 21
-72.515199
 31
0.0
  0
LINE
  8
0
 10
-90.917262
 20
-72.515199
 30
0.0
 11
-89.417262
 21
-71.649174
 31
0.0
  0
LINE
  8
0
 10
-67.005719
 20
-71.649174
 30
0.0
 11
-65.505719
 21
-72.515199
 31
0.0
  0
LINE
  8
0
 10
-65.505719
 20
-72.515199
 30
0.0
 11
-78.21149
 21
-72.515199
 31
0.0
  0
INSERT
  8
0
  2
*X0
 10
-145.054871
 20
-17.214067
 30
0.0
  0
INSERT
  8
0
  2
*X1
 10
-7.148544
 20
25.6
 30
0.0
  0
LINE
  8
0
 10
100.956376
 20
-29.522499
 30
0.0
 11
100.956376
 21
-39.322499
 31
0.0
  0
LINE
  8
0
 10
152.956376
 20
-29.522499
 30
0.0
 11
152.956376
 21
-39.322499
 31
0.0
  0
LINE
  8
0
 10
102.156376
 20
-40.522499
 30
0.0
 11
151.756376
 21
-40.522499
 31
0.0
  0
LINE
  8
0
 10
111.771331
 20
-12.522499
 30
0.0
 11
142.141422
 21
-12.522499
 31
0.0
  0
LINE
  8
0
 10
126.956376
 20
-29.522499
 30
0.0
 11
152.956376
 21
-29.522499
 31
0.0
  0
LINE
  8
0
 10
152.956376
 20
-29.522499
 30
0.0
 11
151.548899
 21
-27.084676
 31
0.0
  0
LINE
  8
0
 10
100.956376
 20
-29.522499
 30
0.0
 11
110.271331
 21
-13.388524
 31
0.0
  0
ARC
  8
0
 10
248.507846
 20
36.977501
 30
0.0
 40
20.0
 50
243.367013
 51
176.632987
  0
LINE
  8
0
 10
144.551497
 20
-14.958821
 30
0.0
 11
144.554961
 21
-14.956821
 31
0.0
  0
LINE
  8
0
 10
151.548899
 20
-27.084676
 30
0.0
 11
237.54237
 21
22.563677
 31
0.0
  0
ARC
  8
0
 10
126.956376
 20
-82.852099
 30
0.0
 40
26.0
 50
15.618498
 51
344.381502
  0
LINE
  8
0
 10
118.956376
 20
-12.522499
 30
0.0
 11
118.956376
 21
-40.522499
 31
0.0
  0
CIRCLE
  8
0
 10
126.956376
 20
-82.852099
 30
0.0
 40
8.0
  0
LINE
  8
0
 10
110.271331
 20
-13.388524
 30
0.0
 11
111.771331
 21
-12.522499
 31
0.0
  0
LINE
  8
0
 10
142.141422
 20
-12.522499
 30
0.0
 11
143.641422
 21
-13.388524
 31
0.0
  0
LINE
  8
0
 10
100.956376
 20
-39.322499
 30
0.0
 11
102.156376
 21
-40.522499
 31
0.0
  0
LINE
  8
0
 10
152.956376
 20
-39.322499
 30
0.0
 11
151.756376
 21
-40.522499
 31
0.0
  0
LINE
  8
0
 10
152.956376
 20
-39.322499
 30
0.0
 11
126.956376
 21
-39.322499
 31
0.0
  0
LINE
  8
0
 10
143.641422
 20
-13.388524
 30
0.0
 11
126.956376
 21
-13.388524
 31
0.0
  0
CIRCLE
  8
0
 10
126.956376
 20
-82.852099
 30
0.0
 40
16.685045
  0
CIRCLE
  8
0
 10
126.956376
 20
-82.852099
 30
0.0
 40
15.185045
  0
CIRCLE
  8
0
 10
-82.21149
 20
1.673698
 30
0.0
 40
8.882016
  0
CIRCLE
  8
0
 10
-78.21149
 20
-128.185174
 30
0.0
 40
11.205771
  0
CIRCLE
  8
0
 10
-78.21149
 20
-128.185174
 30
0.0
 40
12.705771
  0
CIRCLE
  8
0
 10
248.507846
 20
-82.852099
 30
0.0
 40
20.0
  0
LINE
  8
0
 10
147.013631
 20
-75.852099
 30
0.0
 11
229.772852
 21
-75.852099
 31
0.0
  0
LINE
  8
0
 10
147.013631
 20
-89.852099
 30
0.0
 11
229.772852
 21
-89.852099
 31
0.0
  0
ARC
  8
0
 10
165.280291
 20
-11.073949
 30
0.0
 40
21.092523
 50
190.617613
 51
229.382387
  0
LINE
  8
0
 10
144.548899
 20
-14.960321
 30
0.0
 11
143.641422
 21
-13.388524
 31
0.0
  0
LINE
  8
0
 10
239.54237
 20
19.099575
 30
0.0
 11
228.54237
 21
38.152134
 31
0.0
  0
ARC
  8
0
 10
155.721494
 20
-82.852099
 30
0.0
 40
11.172595
 50
141.205202
 51
218.794798
  0
LINE
  8
0
  6
CENTER
 10
126.956376
 20
-8.912899
 30
0.0
 11
126.956376
 21
-44.010274
 31
0.0
  0
LINE
  8
0
 10
325.237422
 20
-13.388524
 30
0.0
 11
291.867331
 21
-13.388524
 31
0.0
  0
LINE
  8
0
 10
334.552376
 20
-39.322499
 30
0.0
 11
282.552376
 21
-39.322499
 31
0.0
  0
LINE
  8
0
 10
334.552376
 20
-39.322499
 30
0.0
 11
333.352376
 21
-40.522499
 31
0.0
  0
LINE
  8
0
 10
282.552376
 20
-39.322499
 30
0.0
 11
283.752376
 21
-40.522499
 31
0.0
  0
LINE
  8
0
 10
323.737422
 20
-12.522499
 30
0.0
 11
325.237422
 21
-13.388524
 31
0.0
  0
LINE
  8
0
 10
291.867331
 20
-13.388524
 30
0.0
 11
293.367331
 21
-12.522499
 31
0.0
  0
LINE
  8
0
 10
282.552376
 20
-29.522499
 30
0.0
 11
291.867331
 21
-13.388524
 31
0.0
  0
LINE
  8
0
 10
334.552376
 20
-29.522499
 30
0.0
 11
325.237422
 21
-13.388524
 31
0.0
  0
LINE
  8
0
 10
282.552376
 20
-29.522499
 30
0.0
 11
334.552376
 21
-29.522499
 31
0.0
  0
LINE
  8
0
 10
293.367331
 20
-12.522499
 30
0.0
 11
323.737422
 21
-12.522499
 31
0.0
  0
LINE
  8
0
 10
283.752376
 20
-40.522499
 30
0.0
 11
333.352376
 21
-40.522499
 31
0.0
  0
LINE
  8
0
 10
334.552376
 20
-29.522499
 30
0.0
 11
334.552376
 21
-39.322499
 31
0.0
  0
LINE
  8
0
 10
282.552376
 20
-29.522499
 30
0.0
 11
282.552376
 21
-39.322499
 31
0.0
  0
ARC
  8
0
 10
308.552376
 20
36.977501
 30
0.0
 40
20.0
 50
290.487315
 51
249.512685
  0
ARC
  8
0
 10
308.552376
 20
28.625855
 30
0.0
 40
7.0
 50
0.0
 51
180.0
  0
LINE
  8
0
 10
301.552376
 20
28.625855
 30
0.0
 11
301.552376
 21
-12.522499
 31
0.0
  0
LINE
  8
0
 10
315.552376
 20
28.625855
 30
0.0
 11
315.552376
 21
-12.522499
 31
0.0
  0
ARC
  8
0
 10
308.552376
 20
28.625855
 30
0.0
 40
9.526279
 50
317.291116
 51
222.708884
  0
INSERT
  8
0
  2
*X2
 10
0.0
 20
47.883463
 30
0.0
  0
LINE
  8
0
 10
144.548899
 20
-14.960321
 30
0.0
 11
230.54237
 21
34.688033
 31
0.0
  0
LINE
  8
0
 10
144.567085
 20
-14.949821
 30
0.0
 11
144.57462
 21
-14.945471
 31
0.0
  0
LINE
  8
0
 10
144.557559
 20
-14.955321
 30
0.0
 11
144.564487
 21
-14.951321
 31
0.0
  0
ENDSEC
  0
EOF
