  0
SECTION
  2
HEADER
  9
$ACADVER
  1
AC1009
  9
$INSBASE
 10
0.0
 20
0.0
 30
0.0
  9
$EXTMIN
 10
7.907522
 20
312.504673
 30
0.0
  9
$EXTMAX
 10
586.770183
 20
574.926888
 30
0.0
  9
$LIMMIN
 10
0.0
 20
0.0
  9
$LIMMAX
 10
12.0
 20
9.0
  9
$ORTHOMODE
 70
     1
  9
$REGENMODE
 70
     1
  9
$FILLMODE
 70
     1
  9
$QTEXTMODE
 70
     0
  9
$MIRRTEXT
 70
     1
  9
$DRAGMODE
 70
     2
  9
$LTSCALE
 40
4.0
  9
$OSMODE
 70
     0
  9
$ATTMODE
 70
     1
  9
$TEXTSIZE
 40
0.2
  9
$TRACEWID
 40
0.05
  9
$TEXTSTYLE
  7
STANDARD
  9
$CLAYER
  8
0
  9
$CELTYPE
  6
BYLAYER
  9
$CECOLOR
 62
   256
  9
$DIMSCALE
 40
1.0
  9
$DIMASZ
 40
2.5
  9
$DIMEXO
 40
0.0
  9
$DIMDLI
 40
5.0
  9
$DIMRND
 40
0.0
  9
$DIMDLE
 40
0.0
  9
$DIMEXE
 40
1.0
  9
$DIMTP
 40
0.0
  9
$DIMTM
 40
0.0
  9
$DIMTXT
 40
2.5
  9
$DIMCEN
 40
0.09
  9
$DIMTSZ
 40
0.0
  9
$DIMTOL
 70
     0
  9
$DIMLIM
 70
     0
  9
$DIMTIH
 70
     0
  9
$DIMTOH
 70
     0
  9
$DIMSE1
 70
     0
  9
$DIMSE2
 70
     0
  9
$DIMTAD
 70
     1
  9
$DIMZIN
 70
     0
  9
$DIMBLK
  1

  9
$DIMASO
 70
     0
  9
$DIMSHO
 70
     0
  9
$DIMPOST
  1

  9
$DIMAPOST
  1

  9
$DIMALT
 70
     0
  9
$DIMALTD
 70
     2
  9
$DIMALTF
 40
25.4
  9
$DIMLFAC
 40
1.0
  9
$DIMTOFL
 70
     1
  9
$DIMTVP
 40
0.0
  9
$DIMTIX
 70
     0
  9
$DIMSOXD
 70
     0
  9
$DIMSAH
 70
     0
  9
$DIMBLK1
  1

  9
$DIMBLK2
  1

  9
$DIMSTYLE
  2
*UNNAMED
  9
$DIMCLRD
 70
     0
  9
$DIMCLRE
 70
     0
  9
$DIMCLRT
 70
     0
  9
$DIMTFAC
 40
1.0
  9
$DIMGAP
 40
0.09
  9
$LUNITS
 70
     2
  9
$LUPREC
 70
     4
  9
$SKETCHINC
 40
0.1
  9
$FILLETRAD
 40
25.0
  9
$AUNITS
 70
     0
  9
$AUPREC
 70
     0
  9
$MENU
  1
wiberger
  9
$ELEVATION
 40
0.0
  9
$PELEVATION
 40
0.0
  9
$THICKNESS
 40
0.0
  9
$LIMCHECK
 70
     0
  9
$BLIPMODE
 70
     1
  9
$CHAMFERA
 40
0.0
  9
$CHAMFERB
 40
0.0
  9
$SKPOLY
 70
     0
  9
$TDCREATE
 40
2450191.426579050
  9
$TDUPDATE
 40
2450218.558870023
  9
$TDINDWG
 40
0.0068592593
  9
$TDUSRTIMER
 40
0.0068592593
  9
$USRTIMER
 70
     1
  9
$ANGBASE
 50
0.0
  9
$ANGDIR
 70
     0
  9
$PDMODE
 70
     0
  9
$PDSIZE
 40
0.0
  9
$PLINEWID
 40
0.0
  9
$COORDS
 70
     0
  9
$SPLFRAME
 70
     0
  9
$SPLINETYPE
 70
     6
  9
$SPLINESEGS
 70
     8
  9
$ATTDIA
 70
     0
  9
$ATTREQ
 70
     1
  9
$HANDLING
 70
     0
  9
$HANDSEED
  5
0
  9
$SURFTAB1
 70
     6
  9
$SURFTAB2
 70
     6
  9
$SURFTYPE
 70
     6
  9
$SURFU
 70
     6
  9
$SURFV
 70
     6
  9
$UCSNAME
  2

  9
$UCSORG
 10
0.0
 20
0.0
 30
0.0
  9
$UCSXDIR
 10
1.0
 20
0.0
 30
0.0
  9
$UCSYDIR
 10
0.0
 20
1.0
 30
0.0
  9
$PUCSNAME
  2

  9
$PUCSORG
 10
0.0
 20
0.0
 30
0.0
  9
$PUCSXDIR
 10
1.0
 20
0.0
 30
0.0
  9
$PUCSYDIR
 10
0.0
 20
1.0
 30
0.0
  9
$USERI1
 70
     0
  9
$USERI2
 70
     0
  9
$USERI3
 70
     0
  9
$USERI4
 70
     0
  9
$USERI5
 70
     0
  9
$USERR1
 40
0.0
  9
$USERR2
 40
0.0
  9
$USERR3
 40
0.0
  9
$USERR4
 40
0.0
  9
$USERR5
 40
0.0
  9
$WORLDVIEW
 70
     1
  9
$SHADEDGE
 70
     3
  9
$SHADEDIF
 70
    70
  9
$TILEMODE
 70
     1
  9
$MAXACTVP
 70
    16
  9
$PINSBASE
 10
0.0
 20
0.0
 30
0.0
  9
$PLIMCHECK
 70
     0
  9
$PEXTMIN
 10
1.000000E+20
 20
1.000000E+20
 30
1.000000E+20
  9
$PEXTMAX
 10
-1.000000E+20
 20
-1.000000E+20
 30
-1.000000E+20
  9
$PLIMMIN
 10
0.0
 20
0.0
  9
$PLIMMAX
 10
12.0
 20
9.0
  9
$UNITMODE
 70
     0
  9
$VISRETAIN
 70
     0
  9
$PLINEGEN
 70
     0
  9
$PSLTSCALE
 70
     0
  9
$TREEDEPTH
 70
  3020
  9
$DWGCODEPAGE
  3
undefined
  0
ENDSEC
  0
SECTION
  2
TABLES
  0
TABLE
  2
VPORT
 70
     2
  0
VPORT
  2
*ACTIVE
 70
     0
 10
0.0
 20
0.0
 11
1.0
 21
1.0
 12
384.973064
 22
454.718394
 13
0.0
 23
0.0
 14
1.0
 24
1.0
 15
0.0
 25
0.0
 16
0.0
 26
0.0
 36
1.0
 17
0.0
 27
0.0
 37
0.0
 40
458.38709
 41
1.767507
 42
50.0
 43
0.0
 44
0.0
 50
0.0
 51
0.0
 71
     0
 72
   100
 73
     1
 74
     0
 75
     0
 76
     0
 77
     0
 78
     0
  0
ENDTAB
  0
TABLE
  2
LTYPE
 70
     2
  0
LTYPE
  2
CONTINUOUS
 70
    64
  3
Solid line
 72
    65
 73
     0
 40
0.0
  0
LTYPE
  2
CENTER
 70
     0
  3
____ _ ____ _ ____ _ ____ _ ____ _ ____ _ ____
 72
    65
 73
     4
 40
2.0
 49
1.25
 49
-0.25
 49
0.25
 49
-0.25
  0
ENDTAB
  0
TABLE
  2
LAYER
 70
     4
  0
LAYER
  2
0
 70
    64
 62
     7
  6
CONTINUOUS
  0
LAYER
  2
KONTUR
 70
     0
 62
     1
  6
CONTINUOUS
  0
LAYER
  2
KONTUR2
 70
     0
 62
     6
  6
CONTINUOUS
  0
LAYER
  2
KONTUR3
 70
     0
 62
     3
  6
CONTINUOUS
  0
ENDTAB
  0
TABLE
  2
STYLE
 70
     1
  0
STYLE
  2
STANDARD
 70
     0
 40
0.0
 41
1.0
 50
0.0
 71
     0
 42
0.2
  3
txt
  4

  0
ENDTAB
  0
TABLE
  2
VIEW
 70
     0
  0
ENDTAB
  0
TABLE
  2
UCS
 70
     0
  0
ENDTAB
  0
TABLE
  2
APPID
 70
     1
  0
APPID
  2
ACAD
 70
    64
  0
ENDTAB
  0
TABLE
  2
DIMSTYLE
 70
     0
  0
ENDTAB
  0
ENDSEC
  0
SECTION
  2
BLOCKS
  0
BLOCK
  8
0
  2
*X0
 70
    65
 10
0.0
 20
0.0
 30
0.0
  3
*X
  0
LINE
  8
0
 62
     0
 10
358.651297
 20
195.30963
 30
0.0
 11
358.951297
 21
195.60963
 31
0.0
  0
LINE
  8
0
 62
     0
 10
358.651297
 20
197.430951
 30
0.0
 11
358.951297
 21
197.730951
 31
0.0
  0
LINE
  8
0
 62
     0
 10
360.466685
 20
199.246338
 30
0.0
 11
362.451297
 21
201.230951
 31
0.0
  0
LINE
  8
0
 62
     0
 10
358.651297
 20
199.552271
 30
0.0
 11
362.451297
 21
203.352271
 31
0.0
  0
LINE
  8
0
 62
     0
 10
352.074044
 20
195.096338
 30
0.0
 11
353.351297
 21
196.373591
 31
0.0
  0
LINE
  8
0
 62
     0
 10
358.651297
 20
201.673591
 30
0.0
 11
362.451297
 21
205.473591
 31
0.0
  0
LINE
  8
0
 62
     0
 10
349.952724
 20
195.096338
 30
0.0
 11
353.351297
 21
198.494912
 31
0.0
  0
LINE
  8
0
 62
     0
 10
360.751297
 20
205.894912
 30
0.0
 11
362.451297
 21
207.594912
 31
0.0
  0
LINE
  8
0
 62
     0
 10
358.651297
 20
203.794912
 30
0.0
 11
359.152724
 21
204.296338
 31
0.0
  0
LINE
  8
0
 62
     0
 10
347.831403
 20
195.096338
 30
0.0
 11
353.351297
 21
200.616232
 31
0.0
  0
LINE
  8
0
 62
     0
 10
360.751297
 20
208.016232
 30
0.0
 11
362.451297
 21
209.716232
 31
0.0
  0
LINE
  8
0
 62
     0
 10
345.710083
 20
195.096338
 30
0.0
 11
353.351297
 21
202.737552
 31
0.0
  0
LINE
  8
0
 62
     0
 10
360.751297
 20
210.137552
 30
0.0
 11
361.710083
 21
211.096338
 31
0.0
  0
LINE
  8
0
 62
     0
 10
344.001297
 20
195.508873
 30
0.0
 11
352.788763
 21
204.296338
 31
0.0
  0
LINE
  8
0
 62
     0
 10
344.001297
 20
197.630193
 30
0.0
 11
351.251297
 21
204.880193
 31
0.0
  0
LINE
  8
0
 62
     0
 10
344.001297
 20
199.751513
 30
0.0
 11
351.251297
 21
207.001513
 31
0.0
  0
LINE
  8
0
 62
     0
 10
344.001297
 20
201.872834
 30
0.0
 11
351.251297
 21
209.122834
 31
0.0
  0
LINE
  8
0
 62
     0
 10
344.001297
 20
203.994154
 30
0.0
 11
351.251297
 21
211.244154
 31
0.0
  0
LINE
  8
0
 62
     0
 10
344.001297
 20
206.115474
 30
0.0
 11
351.251297
 21
213.365474
 31
0.0
  0
LINE
  8
0
 62
     0
 10
344.001297
 20
208.236795
 30
0.0
 11
345.86084
 21
210.096338
 31
0.0
  0
LINE
  8
0
 62
     0
 10
346.251297
 20
210.486795
 30
0.0
 11
349.86084
 21
214.096338
 31
0.0
  0
LINE
  8
0
 62
     0
 10
346.251297
 20
212.608115
 30
0.0
 11
347.73952
 21
214.096338
 31
0.0
  0
LINE
  8
0
 62
     0
 10
385.551297
 20
209.481708
 30
0.0
 11
387.165927
 21
211.096338
 31
0.0
  0
LINE
  8
0
 62
     0
 10
385.551297
 20
207.360388
 30
0.0
 11
387.251297
 21
209.060388
 31
0.0
  0
LINE
  8
0
 62
     0
 10
385.551297
 20
205.239068
 30
0.0
 11
387.251297
 21
206.939068
 31
0.0
  0
LINE
  8
0
 62
     0
 10
385.551297
 20
203.117747
 30
0.0
 11
387.251297
 21
204.817747
 31
0.0
  0
LINE
  8
0
 62
     0
 10
385.551297
 20
200.996427
 30
0.0
 11
388.851208
 21
204.296338
 31
0.0
  0
LINE
  8
0
 62
     0
 10
385.922529
 20
199.246338
 30
0.0
 11
389.351297
 21
202.675106
 31
0.0
  0
LINE
  8
0
 62
     0
 10
396.751297
 20
210.075106
 30
0.0
 11
397.772529
 21
211.096338
 31
0.0
  0
LINE
  8
0
 62
     0
 10
388.043849
 20
199.246338
 30
0.0
 11
389.351297
 21
200.553786
 31
0.0
  0
LINE
  8
0
 62
     0
 10
396.751297
 20
207.953786
 30
0.0
 11
399.893849
 21
211.096338
 31
0.0
  0
LINE
  8
0
 62
     0
 10
389.051297
 20
198.132466
 30
0.0
 11
389.351297
 21
198.432466
 31
0.0
  0
LINE
  8
0
 62
     0
 10
396.751297
 20
205.832466
 30
0.0
 11
401.751297
 21
210.832466
 31
0.0
  0
LINE
  8
0
 62
     0
 10
394.651297
 20
203.732466
 30
0.0
 11
395.215169
 21
204.296338
 31
0.0
  0
LINE
  8
0
 62
     0
 10
389.051297
 20
196.011145
 30
0.0
 11
389.351297
 21
196.311145
 31
0.0
  0
LINE
  8
0
 62
     0
 10
394.651297
 20
201.611145
 30
0.0
 11
403.13649
 21
210.096338
 31
0.0
  0
LINE
  8
0
 62
     0
 10
394.651297
 20
199.489825
 30
0.0
 11
404.001297
 21
208.839825
 31
0.0
  0
LINE
  8
0
 62
     0
 10
394.651297
 20
197.368505
 30
0.0
 11
404.001297
 21
206.718505
 31
0.0
  0
LINE
  8
0
 62
     0
 10
394.651297
 20
195.247184
 30
0.0
 11
404.001297
 21
204.597184
 31
0.0
  0
LINE
  8
0
 62
     0
 10
396.621771
 20
195.096338
 30
0.0
 11
404.001297
 21
202.475864
 31
0.0
  0
LINE
  8
0
 62
     0
 10
398.743091
 20
195.096338
 30
0.0
 11
404.001297
 21
200.354544
 31
0.0
  0
LINE
  8
0
 62
     0
 10
400.864412
 20
195.096338
 30
0.0
 11
404.001297
 21
198.233223
 31
0.0
  0
LINE
  8
0
 62
     0
 10
402.985732
 20
195.096338
 30
0.0
 11
404.001297
 21
196.111903
 31
0.0
  0
ENDBLK
  8
0
  0
BLOCK
  8
0
  2
*X1
 70
    65
 10
0.0
 20
0.0
 30
0.0
  3
*X
  0
LINE
  8
0
 62
     0
 10
380.489587
 20
200.752187
 30
0.0
 11
380.398275
 21
200.843499
 31
0.0
  0
LINE
  8
0
 62
     0
 10
364.098275
 20
217.143499
 30
0.0
 11
362.139587
 21
219.102187
 31
0.0
  0
LINE
  8
0
 62
     0
 10
364.098275
 20
215.022179
 30
0.0
 11
360.018266
 21
219.102187
 31
0.0
  0
LINE
  8
0
 62
     0
 10
364.098275
 20
212.900859
 30
0.0
 11
361.908275
 21
215.090859
 31
0.0
  0
LINE
  8
0
 62
     0
 10
360.746946
 20
216.252187
 30
0.0
 11
357.896946
 21
219.102187
 31
0.0
  0
LINE
  8
0
 62
     0
 10
364.098275
 20
210.779538
 30
0.0
 11
361.908275
 21
212.969538
 31
0.0
  0
LINE
  8
0
 62
     0
 10
358.625626
 20
216.252187
 30
0.0
 11
355.775626
 21
219.102187
 31
0.0
  0
LINE
  8
0
 62
     0
 10
364.098275
 20
208.658218
 30
0.0
 11
361.908275
 21
210.848218
 31
0.0
  0
LINE
  8
0
 62
     0
 10
356.504305
 20
216.252187
 30
0.0
 11
353.654305
 21
219.102187
 31
0.0
  0
LINE
  8
0
 62
     0
 10
364.098275
 20
206.536897
 30
0.0
 11
361.908275
 21
208.726897
 31
0.0
  0
LINE
  8
0
 62
     0
 10
354.382985
 20
216.252187
 30
0.0
 11
351.532985
 21
219.102187
 31
0.0
  0
LINE
  8
0
 62
     0
 10
364.098275
 20
204.415577
 30
0.0
 11
361.908275
 21
206.605577
 31
0.0
  0
LINE
  8
0
 62
     0
 10
352.261665
 20
216.252187
 30
0.0
 11
351.198275
 21
217.315577
 31
0.0
  0
LINE
  8
0
 62
     0
 10
364.098275
 20
202.294257
 30
0.0
 11
361.908275
 21
204.484257
 31
0.0
  0
LINE
  8
0
 62
     0
 10
363.519024
 20
200.752187
 30
0.0
 11
361.908275
 21
202.362936
 31
0.0
  0
LINE
  8
0
 62
     0
 10
382.610907
 20
200.752187
 30
0.0
 11
380.398275
 21
202.96482
 31
0.0
  0
LINE
  8
0
 62
     0
 10
384.560251
 20
200.924164
 30
0.0
 11
380.398275
 21
205.08614
 31
0.0
  0
LINE
  8
0
 62
     0
 10
384.398275
 20
203.20746
 30
0.0
 11
380.398275
 21
207.20746
 31
0.0
  0
LINE
  8
0
 62
     0
 10
384.888275
 20
204.838781
 30
0.0
 11
380.398275
 21
209.328781
 31
0.0
  0
LINE
  8
0
 62
     0
 10
384.888275
 20
206.960101
 30
0.0
 11
380.398275
 21
211.450101
 31
0.0
  0
LINE
  8
0
 62
     0
 10
384.888275
 20
209.081421
 30
0.0
 11
380.398275
 21
213.571421
 31
0.0
  0
LINE
  8
0
 62
     0
 10
384.888275
 20
211.202742
 30
0.0
 11
380.398275
 21
215.692742
 31
0.0
  0
LINE
  8
0
 62
     0
 10
384.888275
 20
213.324062
 30
0.0
 11
380.398275
 21
217.814062
 31
0.0
  0
LINE
  8
0
 62
     0
 10
384.888275
 20
215.445382
 30
0.0
 11
381.23147
 21
219.102187
 31
0.0
  0
LINE
  8
0
 62
     0
 10
386.20279
 20
216.252187
 30
0.0
 11
383.35279
 21
219.102187
 31
0.0
  0
LINE
  8
0
 62
     0
 10
388.32411
 20
216.252187
 30
0.0
 11
385.47411
 21
219.102187
 31
0.0
  0
LINE
  8
0
 62
     0
 10
390.445431
 20
216.252187
 30
0.0
 11
387.595431
 21
219.102187
 31
0.0
  0
LINE
  8
0
 62
     0
 10
392.566751
 20
216.252187
 30
0.0
 11
389.716751
 21
219.102187
 31
0.0
  0
LINE
  8
0
 62
     0
 10
394.688072
 20
216.252187
 30
0.0
 11
391.838072
 21
219.102187
 31
0.0
  0
LINE
  8
0
 62
     0
 10
395.598275
 20
217.463304
 30
0.0
 11
393.959392
 21
219.102187
 31
0.0
  0
ENDBLK
  8
0
  0
BLOCK
  8
0
  2
*X2
 70
    65
 10
0.0
 20
0.0
 30
0.0
  3
*X
  0
LINE
  8
0
 62
     0
 10
377.581812
 20
203.633543
 30
0.0
 11
388.89939
 21
214.951121
 31
0.0
  0
LINE
  8
0
 62
     0
 10
375.559312
 20
203.732365
 30
0.0
 11
386.876216
 21
215.049268
 31
0.0
  0
LINE
  8
0
 62
     0
 10
373.536813
 20
203.831186
 30
0.0
 11
374.762181
 21
205.056553
 31
0.0
  0
LINE
  8
0
 62
     0
 10
376.539713
 20
206.834085
 30
0.0
 11
384.853043
 21
215.147415
 31
0.0
  0
LINE
  8
0
 62
     0
 10
371.514314
 20
203.930007
 30
0.0
 11
372.811427
 21
205.22712
 31
0.0
  0
LINE
  8
0
 62
     0
 10
376.369146
 20
208.784839
 30
0.0
 11
382.829869
 21
215.245562
 31
0.0
  0
LINE
  8
0
 62
     0
 10
369.574957
 20
204.11197
 30
0.0
 11
371.716128
 21
206.253141
 31
0.0
  0
LINE
  8
0
 62
     0
 10
375.343125
 20
209.880138
 30
0.0
 11
380.806696
 21
215.343709
 31
0.0
  0
LINE
  8
0
 62
     0
 10
367.664265
 20
204.322599
 30
0.0
 11
371.390443
 21
208.048776
 31
0.0
  0
LINE
  8
0
 62
     0
 10
373.54749
 20
210.205823
 30
0.0
 11
378.783523
 21
215.441856
 31
0.0
  0
LINE
  8
0
 62
     0
 10
365.753574
 20
204.533228
 30
0.0
 11
376.760349
 21
215.540003
 31
0.0
  0
LINE
  8
0
 62
     0
 10
363.842882
 20
204.743857
 30
0.0
 11
374.737176
 21
215.63815
 31
0.0
  0
LINE
  8
0
 62
     0
 10
362.896395
 20
205.91869
 30
0.0
 11
372.714003
 21
215.736297
 31
0.0
  0
LINE
  8
0
 62
     0
 10
363.020549
 20
208.164164
 30
0.0
 11
370.690829
 21
215.834444
 31
0.0
  0
LINE
  8
0
 62
     0
 10
363.144703
 20
210.409638
 30
0.0
 11
368.667656
 21
215.932591
 31
0.0
  0
LINE
  8
0
 62
     0
 10
363.268857
 20
212.655113
 30
0.0
 11
366.644483
 21
216.030738
 31
0.0
  0
LINE
  8
0
 62
     0
 10
354.362602
 20
205.870178
 30
0.0
 11
354.911863
 21
206.419439
 31
0.0
  0
LINE
  8
0
 62
     0
 10
362.319119
 20
213.826695
 30
0.0
 11
364.621309
 21
216.128885
 31
0.0
  0
LINE
  8
0
 62
     0
 10
353.975873
 20
207.60477
 30
0.0
 11
355.036017
 21
208.664913
 31
0.0
  0
LINE
  8
0
 62
     0
 10
361.036193
 20
214.66509
 30
0.0
 11
362.598136
 21
216.227032
 31
0.0
  0
LINE
  8
0
 62
     0
 10
354.100027
 20
209.850244
 30
0.0
 11
355.160171
 21
210.910388
 31
0.0
  0
LINE
  8
0
 62
     0
 10
359.753268
 20
215.503484
 30
0.0
 11
360.574963
 21
216.325179
 31
0.0
  0
LINE
  8
0
 62
     0
 10
354.224181
 20
212.095718
 30
0.0
 11
355.284325
 21
213.155862
 31
0.0
  0
LINE
  8
0
 62
     0
 10
356.214107
 20
214.085644
 30
0.0
 11
358.551789
 21
216.423326
 31
0.0
  0
LINE
  8
0
 62
     0
 10
354.348335
 20
214.341193
 30
0.0
 11
356.528616
 21
216.521473
 31
0.0
  0
LINE
  8
0
 62
     0
 10
354.472489
 20
216.586667
 30
0.0
 11
354.505442
 21
216.61962
 31
0.0
  0
LINE
  8
0
 62
     0
 10
379.604311
 20
203.534722
 30
0.0
 11
390.922563
 21
214.852974
 31
0.0
  0
LINE
  8
0
 62
     0
 10
381.62681
 20
203.435901
 30
0.0
 11
392.945736
 21
214.754827
 31
0.0
  0
LINE
  8
0
 62
     0
 10
383.649309
 20
203.33708
 30
0.0
 11
394.96891
 21
214.65668
 31
0.0
  0
LINE
  8
0
 62
     0
 10
385.671809
 20
203.238259
 30
0.0
 11
396.945377
 21
214.511828
 31
0.0
  0
LINE
  8
0
 62
     0
 10
387.694308
 20
203.139438
 30
0.0
 11
396.821223
 21
212.266353
 31
0.0
  0
LINE
  8
0
 62
     0
 10
389.716807
 20
203.040617
 30
0.0
 11
396.697069
 21
210.020879
 31
0.0
  0
LINE
  8
0
 62
     0
 10
391.739307
 20
202.941796
 30
0.0
 11
396.572915
 21
207.775405
 31
0.0
  0
LINE
  8
0
 62
     0
 10
402.933776
 20
214.136266
 30
0.0
 11
403.061603
 21
214.264093
 31
0.0
  0
LINE
  8
0
 62
     0
 10
393.761806
 20
202.842975
 30
0.0
 11
396.448761
 21
205.52993
 31
0.0
  0
LINE
  8
0
 62
     0
 10
402.809622
 20
211.890791
 30
0.0
 11
404.646936
 21
213.728105
 31
0.0
  0
LINE
  8
0
 62
     0
 10
395.784305
 20
202.744154
 30
0.0
 11
396.324607
 21
203.284456
 31
0.0
  0
LINE
  8
0
 62
     0
 10
402.685468
 20
209.645317
 30
0.0
 11
406.657112
 21
213.616961
 31
0.0
  0
LINE
  8
0
 62
     0
 10
402.561314
 20
207.399843
 30
0.0
 11
408.667288
 21
213.505816
 31
0.0
  0
LINE
  8
0
 62
     0
 10
402.43716
 20
205.154368
 30
0.0
 11
410.677464
 21
213.394672
 31
0.0
  0
LINE
  8
0
 62
     0
 10
402.313006
 20
202.908894
 30
0.0
 11
412.700699
 21
213.296587
 31
0.0
  0
LINE
  8
0
 62
     0
 10
404.258228
 20
202.732796
 30
0.0
 11
414.266111
 21
212.740679
 31
0.0
  0
LINE
  8
0
 62
     0
 10
406.268404
 20
202.621652
 30
0.0
 11
414.839818
 21
211.193065
 31
0.0
  0
LINE
  8
0
 62
     0
 10
408.278581
 20
202.510507
 30
0.0
 11
415.177752
 21
209.409678
 31
0.0
  0
LINE
  8
0
 62
     0
 10
410.288757
 20
202.399363
 30
0.0
 11
412.858488
 21
204.969094
 31
0.0
  0
LINE
  8
0
 62
     0
 10
412.312322
 20
202.301608
 30
0.0
 11
413.040628
 21
203.029914
 31
0.0
  0
ENDBLK
  8
0
  0
BLOCK
  8
0
  2
*X3
 70
    65
 10
0.0
 20
0.0
 30
0.0
  3
*X
  0
LINE
  8
0
 62
     0
 10
51.574957
 20
274.313593
 30
0.0
 11
51.874957
 21
274.613593
 31
0.0
  0
LINE
  8
0
 62
     0
 10
51.574957
 20
276.434913
 30
0.0
 11
51.874957
 21
276.734913
 31
0.0
  0
LINE
  8
0
 62
     0
 10
53.16514
 20
278.025097
 30
0.0
 11
54.874957
 21
279.734913
 31
0.0
  0
LINE
  8
0
 62
     0
 10
51.574957
 20
278.556234
 30
0.0
 11
54.874957
 21
281.856234
 31
0.0
  0
LINE
  8
0
 62
     0
 10
44.7725
 20
273.875097
 30
0.0
 11
46.274957
 21
275.377554
 31
0.0
  0
LINE
  8
0
 62
     0
 10
53.674957
 20
282.777554
 30
0.0
 11
54.874957
 21
283.977554
 31
0.0
  0
LINE
  8
0
 62
     0
 10
51.574957
 20
280.677554
 30
0.0
 11
51.9725
 21
281.075097
 31
0.0
  0
LINE
  8
0
 62
     0
 10
42.651179
 20
273.875097
 30
0.0
 11
46.274957
 21
277.498874
 31
0.0
  0
LINE
  8
0
 62
     0
 10
53.674957
 20
284.898874
 30
0.0
 11
54.874957
 21
286.098874
 31
0.0
  0
LINE
  8
0
 62
     0
 10
40.529859
 20
273.875097
 30
0.0
 11
46.274957
 21
279.620195
 31
0.0
  0
LINE
  8
0
 62
     0
 10
53.674957
 20
287.020195
 30
0.0
 11
54.529859
 21
287.875097
 31
0.0
  0
LINE
  8
0
 62
     0
 10
38.408539
 20
273.875097
 30
0.0
 11
45.608539
 21
281.075097
 31
0.0
  0
LINE
  8
0
 62
     0
 10
36.924957
 20
274.512835
 30
0.0
 11
44.174957
 21
281.762835
 31
0.0
  0
LINE
  8
0
 62
     0
 10
36.924957
 20
276.634156
 30
0.0
 11
44.174957
 21
283.884156
 31
0.0
  0
LINE
  8
0
 62
     0
 10
36.924957
 20
278.755476
 30
0.0
 11
44.174957
 21
286.005476
 31
0.0
  0
LINE
  8
0
 62
     0
 10
36.924957
 20
280.876796
 30
0.0
 11
44.174957
 21
288.126796
 31
0.0
  0
LINE
  8
0
 62
     0
 10
36.924957
 20
282.998117
 30
0.0
 11
44.174957
 21
290.248117
 31
0.0
  0
LINE
  8
0
 62
     0
 10
36.924957
 20
285.119437
 30
0.0
 11
38.680616
 21
286.875097
 31
0.0
  0
LINE
  8
0
 62
     0
 10
39.174957
 20
287.369437
 30
0.0
 11
42.680616
 21
290.875097
 31
0.0
  0
LINE
  8
0
 62
     0
 10
39.174957
 20
289.490757
 30
0.0
 11
40.559296
 21
290.875097
 31
0.0
  0
LINE
  8
0
 62
     0
 10
72.974957
 20
287.228312
 30
0.0
 11
73.621742
 21
287.875097
 31
0.0
  0
LINE
  8
0
 62
     0
 10
72.974957
 20
285.106991
 30
0.0
 11
74.174957
 21
286.306991
 31
0.0
  0
LINE
  8
0
 62
     0
 10
72.974957
 20
282.985671
 30
0.0
 11
74.174957
 21
284.185671
 31
0.0
  0
LINE
  8
0
 62
     0
 10
72.974957
 20
280.864351
 30
0.0
 11
74.174957
 21
282.064351
 31
0.0
  0
LINE
  8
0
 62
     0
 10
72.974957
 20
278.74303
 30
0.0
 11
75.307023
 21
281.075097
 31
0.0
  0
LINE
  8
0
 62
     0
 10
74.378344
 20
278.025097
 30
0.0
 11
76.274957
 21
279.92171
 31
0.0
  0
LINE
  8
0
 62
     0
 10
83.674957
 20
287.32171
 30
0.0
 11
84.228344
 21
287.875097
 31
0.0
  0
LINE
  8
0
 62
     0
 10
75.974957
 20
277.50039
 30
0.0
 11
76.274957
 21
277.80039
 31
0.0
  0
LINE
  8
0
 62
     0
 10
83.674957
 20
285.20039
 30
0.0
 11
86.349664
 21
287.875097
 31
0.0
  0
LINE
  8
0
 62
     0
 10
75.974957
 20
275.379069
 30
0.0
 11
76.274957
 21
275.679069
 31
0.0
  0
LINE
  8
0
 62
     0
 10
83.674957
 20
283.079069
 30
0.0
 11
88.470984
 21
287.875097
 31
0.0
  0
LINE
  8
0
 62
     0
 10
81.574957
 20
280.979069
 30
0.0
 11
81.670984
 21
281.075097
 31
0.0
  0
LINE
  8
0
 62
     0
 10
81.574957
 20
278.857749
 30
0.0
 11
89.592305
 21
286.875097
 31
0.0
  0
LINE
  8
0
 62
     0
 10
81.574957
 20
276.736429
 30
0.0
 11
90.924957
 21
286.086429
 31
0.0
  0
LINE
  8
0
 62
     0
 10
81.574957
 20
274.615108
 30
0.0
 11
90.924957
 21
283.965108
 31
0.0
  0
LINE
  8
0
 62
     0
 10
82.956266
 20
273.875097
 30
0.0
 11
90.924957
 21
281.843788
 31
0.0
  0
LINE
  8
0
 62
     0
 10
85.077586
 20
273.875097
 30
0.0
 11
90.924957
 21
279.722467
 31
0.0
  0
LINE
  8
0
 62
     0
 10
87.198906
 20
273.875097
 30
0.0
 11
90.924957
 21
277.601147
 31
0.0
  0
LINE
  8
0
 62
     0
 10
89.320227
 20
273.875097
 30
0.0
 11
90.924957
 21
275.479827
 31
0.0
  0
ENDBLK
  8
0
  0
BLOCK
  8
0
  2
*X4
 70
    65
 10
0.0
 20
0.0
 30
0.0
  3
*X
  0
LINE
  8
0
 62
     0
 10
71.376541
 20
272.277355
 30
0.0
 11
70.141844
 21
273.512052
 31
0.0
  0
LINE
  8
0
 62
     0
 10
58.741844
 20
284.912052
 30
0.0
 11
55.026541
 21
288.627355
 31
0.0
  0
LINE
  8
0
 62
     0
 10
58.741844
 20
282.790732
 30
0.0
 11
56.151844
 21
285.380732
 31
0.0
  0
LINE
  8
0
 62
     0
 10
55.755221
 20
285.777355
 30
0.0
 11
52.905221
 21
288.627355
 31
0.0
  0
LINE
  8
0
 62
     0
 10
58.741844
 20
280.669411
 30
0.0
 11
56.151844
 21
283.259411
 31
0.0
  0
LINE
  8
0
 62
     0
 10
53.6339
 20
285.777355
 30
0.0
 11
50.7839
 21
288.627355
 31
0.0
  0
LINE
  8
0
 62
     0
 10
58.741844
 20
278.548091
 30
0.0
 11
56.151844
 21
281.138091
 31
0.0
  0
LINE
  8
0
 62
     0
 10
51.51258
 20
285.777355
 30
0.0
 11
48.66258
 21
288.627355
 31
0.0
  0
LINE
  8
0
 62
     0
 10
58.741844
 20
276.426771
 30
0.0
 11
56.151844
 21
279.016771
 31
0.0
  0
LINE
  8
0
 62
     0
 10
49.39126
 20
285.777355
 30
0.0
 11
46.54126
 21
288.627355
 31
0.0
  0
LINE
  8
0
 62
     0
 10
58.741844
 20
274.30545
 30
0.0
 11
56.151844
 21
276.89545
 31
0.0
  0
LINE
  8
0
 62
     0
 10
47.269939
 20
285.777355
 30
0.0
 11
45.941844
 21
287.10545
 31
0.0
  0
LINE
  8
0
 62
     0
 10
58.648619
 20
272.277355
 30
0.0
 11
56.641844
 21
274.28413
 31
0.0
  0
LINE
  8
0
 62
     0
 10
73.497861
 20
272.277355
 30
0.0
 11
70.141844
 21
275.633372
 31
0.0
  0
LINE
  8
0
 62
     0
 10
58.741844
 20
287.033372
 30
0.0
 11
57.147861
 21
288.627355
 31
0.0
  0
LINE
  8
0
 62
     0
 10
74.131844
 20
273.764693
 30
0.0
 11
73.869182
 21
274.027355
 31
0.0
  0
LINE
  8
0
 62
     0
 10
73.641844
 20
274.254693
 30
0.0
 11
70.141844
 21
277.754693
 31
0.0
  0
LINE
  8
0
 62
     0
 10
74.131844
 20
275.886013
 30
0.0
 11
70.141844
 21
279.876013
 31
0.0
  0
LINE
  8
0
 62
     0
 10
74.131844
 20
278.007333
 30
0.0
 11
70.141844
 21
281.997333
 31
0.0
  0
LINE
  8
0
 62
     0
 10
74.131844
 20
280.128654
 30
0.0
 11
70.141844
 21
284.118654
 31
0.0
  0
LINE
  8
0
 62
     0
 10
74.131844
 20
282.249974
 30
0.0
 11
70.141844
 21
286.239974
 31
0.0
  0
LINE
  8
0
 62
     0
 10
74.131844
 20
284.371294
 30
0.0
 11
70.141844
 21
288.361294
 31
0.0
  0
LINE
  8
0
 62
     0
 10
74.847104
 20
285.777355
 30
0.0
 11
71.997104
 21
288.627355
 31
0.0
  0
LINE
  8
0
 62
     0
 10
76.968424
 20
285.777355
 30
0.0
 11
74.118424
 21
288.627355
 31
0.0
  0
LINE
  8
0
 62
     0
 10
79.089744
 20
285.777355
 30
0.0
 11
76.239744
 21
288.627355
 31
0.0
  0
LINE
  8
0
 62
     0
 10
81.211065
 20
285.777355
 30
0.0
 11
78.361065
 21
288.627355
 31
0.0
  0
LINE
  8
0
 62
     0
 10
83.332385
 20
285.777355
 30
0.0
 11
80.482385
 21
288.627355
 31
0.0
  0
LINE
  8
0
 62
     0
 10
84.341844
 20
286.889216
 30
0.0
 11
82.603706
 21
288.627355
 31
0.0
  0
ENDBLK
  8
0
  0
BLOCK
  8
0
  2
*X5
 70
    65
 10
0.0
 20
0.0
 30
0.0
  3
*X
  0
LINE
  8
0
 62
     0
 10
70.21738
 20
278.106773
 30
0.0
 11
81.511116
 21
289.400509
 31
0.0
  0
LINE
  8
0
 62
     0
 10
68.207203
 20
278.217917
 30
0.0
 11
79.50094
 21
289.511654
 31
0.0
  0
LINE
  8
0
 62
     0
 10
66.197027
 20
278.329062
 30
0.0
 11
77.490764
 21
289.622798
 31
0.0
  0
LINE
  8
0
 62
     0
 10
64.186851
 20
278.440206
 30
0.0
 11
75.480587
 21
289.733942
 31
0.0
  0
LINE
  8
0
 62
     0
 10
62.176675
 20
278.55135
 30
0.0
 11
63.327785
 21
279.70246
 31
0.0
  0
LINE
  8
0
 62
     0
 10
66.595158
 20
282.969833
 30
0.0
 11
73.470411
 21
289.845086
 31
0.0
  0
LINE
  8
0
 62
     0
 10
60.231591
 20
278.727587
 30
0.0
 11
62.032433
 21
280.528429
 31
0.0
  0
LINE
  8
0
 62
     0
 10
65.769189
 20
284.265184
 30
0.0
 11
71.460235
 21
289.95623
 31
0.0
  0
LINE
  8
0
 62
     0
 10
58.371525
 20
278.988841
 30
0.0
 11
61.403927
 21
282.021243
 31
0.0
  0
LINE
  8
0
 62
     0
 10
64.276374
 20
284.89369
 30
0.0
 11
69.450059
 21
290.067375
 31
0.0
  0
LINE
  8
0
 62
     0
 10
56.511459
 20
279.250095
 30
0.0
 11
67.439883
 21
290.178519
 31
0.0
  0
LINE
  8
0
 62
     0
 10
55.951731
 20
280.811687
 30
0.0
 11
65.429707
 21
290.289663
 31
0.0
  0
LINE
  8
0
 62
     0
 10
56.075885
 20
283.057162
 30
0.0
 11
63.419531
 21
290.400807
 31
0.0
  0
LINE
  8
0
 62
     0
 10
56.200039
 20
285.302636
 30
0.0
 11
61.409354
 21
290.511951
 31
0.0
  0
LINE
  8
0
 62
     0
 10
56.324193
 20
287.54811
 30
0.0
 11
59.399178
 21
290.623096
 31
0.0
  0
LINE
  8
0
 62
     0
 10
47.211127
 20
280.556364
 30
0.0
 11
47.967199
 21
281.312436
 31
0.0
  0
LINE
  8
0
 62
     0
 10
55.227797
 20
288.573035
 30
0.0
 11
57.389002
 21
290.73424
 31
0.0
  0
LINE
  8
0
 62
     0
 10
47.031209
 20
282.497767
 30
0.0
 11
48.091353
 21
283.557911
 31
0.0
  0
LINE
  8
0
 62
     0
 10
53.944872
 20
289.41143
 30
0.0
 11
55.378826
 21
290.845384
 31
0.0
  0
LINE
  8
0
 62
     0
 10
47.155363
 20
284.743242
 30
0.0
 11
48.215507
 21
285.803385
 31
0.0
  0
LINE
  8
0
 62
     0
 10
52.661946
 20
290.249825
 30
0.0
 11
53.36865
 21
290.956528
 31
0.0
  0
LINE
  8
0
 62
     0
 10
47.279517
 20
286.988716
 30
0.0
 11
48.339661
 21
288.04886
 31
0.0
  0
LINE
  8
0
 62
     0
 10
48.80901
 20
288.518209
 30
0.0
 11
51.358474
 21
291.067673
 31
0.0
  0
LINE
  8
0
 62
     0
 10
47.403671
 20
289.23419
 30
0.0
 11
49.348298
 21
291.178817
 31
0.0
  0
LINE
  8
0
 62
     0
 10
72.227556
 20
277.995629
 30
0.0
 11
83.521292
 21
289.289365
 31
0.0
  0
LINE
  8
0
 62
     0
 10
74.237732
 20
277.884485
 30
0.0
 11
83.89786
 21
287.544613
 31
0.0
  0
LINE
  8
0
 62
     0
 10
76.247908
 20
277.773341
 30
0.0
 11
83.773706
 21
285.299139
 31
0.0
  0
LINE
  8
0
 62
     0
 10
78.258084
 20
277.662196
 30
0.0
 11
83.649552
 21
283.053665
 31
0.0
  0
LINE
  8
0
 62
     0
 10
80.26826
 20
277.551052
 30
0.0
 11
83.525398
 21
280.80819
 31
0.0
  0
LINE
  8
0
 62
     0
 10
89.886259
 20
287.169051
 30
0.0
 11
91.134922
 21
288.417714
 31
0.0
  0
LINE
  8
0
 62
     0
 10
82.278436
 20
277.439908
 30
0.0
 11
83.401244
 21
278.562716
 31
0.0
  0
LINE
  8
0
 62
     0
 10
89.762105
 20
284.923577
 30
0.0
 11
93.145099
 21
288.30657
 31
0.0
  0
LINE
  8
0
 62
     0
 10
89.637951
 20
282.678103
 30
0.0
 11
95.155275
 21
288.195426
 31
0.0
  0
LINE
  8
0
 62
     0
 10
89.513797
 20
280.432628
 30
0.0
 11
97.165451
 21
288.084282
 31
0.0
  0
LINE
  8
0
 62
     0
 10
89.389643
 20
278.187154
 30
0.0
 11
99.175722
 21
287.973233
 31
0.0
  0
LINE
  8
0
 62
     0
 10
90.746215
 20
277.422405
 30
0.0
 11
101.089657
 21
287.765847
 31
0.0
  0
LINE
  8
0
 62
     0
 10
92.756391
 20
277.311261
 30
0.0
 11
101.789011
 21
286.343881
 31
0.0
  0
LINE
  8
0
 62
     0
 10
94.766567
 20
277.200117
 30
0.0
 11
102.126944
 21
284.560494
 31
0.0
  0
LINE
  8
0
 62
     0
 10
96.776743
 20
277.088973
 30
0.0
 11
100.087135
 21
280.399364
 31
0.0
  0
LINE
  8
0
 62
     0
 10
98.788336
 20
276.979245
 30
0.0
 11
99.947819
 21
278.138728
 31
0.0
  0
ENDBLK
  8
0
  0
ENDSEC
  0
SECTION
  2
ENTITIES
  0
ARC
  8
0
 10
203.766106
 20
480.324898
 30
0.0
 40
7.244177
 50
357.156419
 51
182.843581
  0
ARC
  8
0
 10
203.766106
 20
480.324898
 30
0.0
 40
5.312396
 50
356.121019
 51
183.878981
  0
LINE
  8
0
 10
230.266106
 20
456.765518
 30
0.0
 11
230.266106
 21
478.665518
 31
0.0
  0
LINE
  8
0
 10
230.266106
 20
478.665518
 30
0.0
 11
228.966106
 21
479.965518
 31
0.0
  0
LINE
  8
0
 10
228.516106
 20
455.965518
 30
0.0
 11
228.516106
 21
456.765518
 31
0.0
  0
ARC
  8
0
 10
203.766106
 20
483.984742
 30
0.0
 40
16.0
 50
345.45138
 51
194.54862
  0
LINE
  8
0
 10
177.266106
 20
478.665518
 30
0.0
 11
230.266106
 21
478.665518
 31
0.0
  0
LINE
  8
0
 10
176.766106
 20
455.965518
 30
0.0
 11
230.766106
 21
455.965518
 31
0.0
  0
LINE
  8
0
 10
179.016106
 20
455.965518
 30
0.0
 11
179.016106
 21
456.765518
 31
0.0
  0
LINE
  8
0
 10
176.766106
 20
442.965518
 30
0.0
 11
230.766106
 21
442.965518
 31
0.0
  0
LINE
  8
0
 10
230.766106
 20
442.965518
 30
0.0
 11
230.766106
 21
455.965518
 31
0.0
  0
LINE
  8
0
 10
176.766106
 20
442.965518
 30
0.0
 11
176.766106
 21
455.965518
 31
0.0
  0
LINE
  8
0
 10
177.266106
 20
456.765518
 30
0.0
 11
230.266106
 21
456.765518
 31
0.0
  0
LINE
  8
0
 10
177.266106
 20
478.665518
 30
0.0
 11
178.566106
 21
479.965518
 31
0.0
  0
LINE
  8
0
 10
178.566106
 20
479.965518
 30
0.0
 11
228.966106
 21
479.965518
 31
0.0
  0
LINE
  8
0
 10
177.266106
 20
456.765518
 30
0.0
 11
177.266106
 21
478.665518
 31
0.0
  0
LINE
  8
0
 10
61.407522
 20
478.665518
 30
0.0
 11
61.407522
 21
478.526253
 31
0.0
  0
LINE
  8
0
 10
65.045179
 20
458.37379
 30
0.0
 11
60.345179
 21
455.931411
 31
0.0
  0
LINE
  8
0
 10
60.345179
 20
478.531411
 30
0.0
 11
65.045179
 21
474.57379
 31
0.0
  0
LINE
  8
0
 10
60.345179
 20
478.531411
 30
0.0
 11
60.345179
 21
455.931411
 31
0.0
  0
LINE
  8
0
 10
65.045179
 20
458.37379
 30
0.0
 11
67.745179
 21
458.37379
 31
0.0
  0
LINE
  8
0
 10
65.045179
 20
474.57379
 30
0.0
 11
67.745179
 21
474.57379
 31
0.0
  0
LINE
  8
0
 10
65.045179
 20
474.57379
 30
0.0
 11
65.045179
 21
458.37379
 31
0.0
  0
LINE
  8
0
 10
67.745179
 20
474.57379
 30
0.0
 11
67.745179
 21
458.37379
 31
0.0
  0
LINE
  8
0
 10
59.745179
 20
478.531411
 30
0.0
 11
59.745179
 21
455.931411
 31
0.0
  0
LINE
  8
0
 10
59.745179
 20
478.531411
 30
0.0
 11
62.222735
 21
478.523723
 31
0.0
  0
LINE
  8
0
 10
8.407522
 20
456.765518
 30
0.0
 11
8.407522
 21
478.665518
 31
0.0
  0
LINE
  8
0
 10
9.707522
 20
479.965518
 30
0.0
 11
60.107522
 21
479.965518
 31
0.0
  0
LINE
  8
0
 10
8.407522
 20
478.665518
 30
0.0
 11
9.707522
 21
479.965518
 31
0.0
  0
LINE
  8
0
 10
8.407522
 20
456.765518
 30
0.0
 11
59.745179
 21
456.765518
 31
0.0
  0
LINE
  8
0
 10
61.407522
 20
478.665518
 30
0.0
 11
60.107522
 21
479.965518
 31
0.0
  0
LINE
  8
0
 10
7.907522
 20
442.965518
 30
0.0
 11
7.907522
 21
455.965518
 31
0.0
  0
LINE
  8
0
 10
61.907522
 20
442.965518
 30
0.0
 11
61.907522
 21
455.965518
 31
0.0
  0
LINE
  8
0
 10
7.907522
 20
442.965518
 30
0.0
 11
61.907522
 21
442.965518
 31
0.0
  0
LINE
  8
0
 10
10.157522
 20
455.965518
 30
0.0
 11
10.157522
 21
456.765518
 31
0.0
  0
LINE
  8
0
 10
7.907522
 20
455.965518
 30
0.0
 11
61.907522
 21
455.965518
 31
0.0
  0
LINE
  8
0
 10
65.045179
 20
474.57379
 30
0.0
 11
62.222735
 21
478.523723
 31
0.0
  0
LINE
  8
0
 10
59.745179
 20
455.931411
 30
0.0
 11
60.345179
 21
455.931411
 31
0.0
  0
LINE
  8
0
 10
8.407522
 20
478.665518
 30
0.0
 11
61.407522
 21
478.665518
 31
0.0
  0
ARC
  8
0
 10
142.028783
 20
483.984742
 30
0.0
 40
16.0
 50
222.961068
 51
167.054695
  0
LINE
  8
0
 10
67.745179
 20
471.305068
 30
0.0
 11
70.338775
 21
471.169143
 31
0.0
  0
LINE
  8
0
 10
67.745179
 20
460.289972
 30
0.0
 11
69.76308
 21
460.184219
 31
0.0
  0
LINE
  8
0
 10
74.696805
 20
471.627494
 30
0.0
 11
126.953337
 21
485.637294
 31
0.0
  0
LINE
  8
0
 10
77.545276
 20
461.002702
 30
0.0
 11
129.801808
 21
475.012502
 31
0.0
  0
ARC
  8
0
 10
71.071478
 20
485.149957
 30
0.0
 40
25.0
 50
267.0
 51
285.007882
  0
ARC
  8
0
 10
71.071478
 20
485.149957
 30
0.0
 40
14.0
 50
267.0
 51
285.007882
  0
LINE
  8
0
 10
126.435433
 20
487.569075
 30
0.0
 11
130.319712
 21
473.080722
 31
0.0
  0
LINE
  8
0
 10
375.612456
 20
535.508139
 30
0.0
 11
383.960358
 21
535.046577
 31
0.0
  0
LINE
  8
0
 10
376.219727
 20
546.491364
 30
0.0
 11
384.567629
 21
546.029802
 31
0.0
  0
LINE
  8
0
 10
381.288586
 20
534.073557
 30
0.0
 11
376.588586
 21
530.873557
 31
0.0
  0
LINE
  8
0
 10
376.588586
 20
553.473557
 30
0.0
 11
381.288586
 21
550.273557
 31
0.0
  0
LINE
  8
0
 10
381.288586
 20
534.073557
 30
0.0
 11
383.988586
 21
534.073557
 31
0.0
  0
LINE
  8
0
 10
381.288586
 20
550.273557
 30
0.0
 11
383.988586
 21
550.273557
 31
0.0
  0
LINE
  8
0
 10
383.988586
 20
550.273557
 30
0.0
 11
383.988586
 21
546.061818
 31
0.0
  0
LINE
  8
0
 10
375.988586
 20
535.487343
 30
0.0
 11
375.988586
 21
530.873557
 31
0.0
  0
LINE
  8
0
 10
375.988586
 20
530.873557
 30
0.0
 11
376.588586
 21
530.873557
 31
0.0
  0
LINE
  8
0
 10
375.988586
 20
553.473557
 30
0.0
 11
376.588586
 21
553.473557
 31
0.0
  0
LINE
  8
0
 10
375.140633
 20
552.507665
 30
0.0
 11
375.140633
 21
547.001715
 31
0.0
  0
LINE
  8
0
 10
316.988586
 20
531.707665
 30
0.0
 11
316.988586
 21
553.607665
 31
0.0
  0
LINE
  8
0
 10
318.288586
 20
554.907665
 30
0.0
 11
374.688586
 21
554.907665
 31
0.0
  0
LINE
  8
0
 10
316.988586
 20
553.607665
 30
0.0
 11
318.288586
 21
554.907665
 31
0.0
  0
LINE
  8
0
 10
316.988586
 20
531.707665
 30
0.0
 11
318.738586
 21
531.707665
 31
0.0
  0
LINE
  8
0
 10
318.588586
 20
531.707665
 30
0.0
 11
318.588586
 21
552.507665
 31
0.0
  0
LINE
  8
0
 10
318.588586
 20
552.507665
 30
0.0
 11
323.941697
 21
552.507665
 31
0.0
  0
LINE
  8
0
 10
323.941697
 20
545.207665
 30
0.0
 11
326.05192
 21
545.207665
 31
0.0
  0
LINE
  8
0
 10
323.941697
 20
545.207665
 30
0.0
 11
323.941697
 21
552.507665
 31
0.0
  0
LINE
  8
0
 10
324.941697
 20
546.721605
 30
0.0
 11
324.941697
 21
552.507665
 31
0.0
  0
LINE
  8
0
 10
326.05192
 20
545.207665
 30
0.0
 11
324.941697
 21
546.721605
 31
0.0
  0
LINE
  8
0
 10
324.941697
 20
552.507665
 30
0.0
 11
375.988586
 21
552.507665
 31
0.0
  0
LINE
  8
0
 10
368.035475
 20
547.394565
 30
0.0
 11
368.035475
 21
552.507665
 31
0.0
  0
LINE
  8
0
 10
369.035475
 20
547.339274
 30
0.0
 11
369.035475
 21
552.507665
 31
0.0
  0
LINE
  8
0
 10
375.140633
 20
531.707665
 30
0.0
 11
374.238586
 21
531.707665
 31
0.0
  0
LINE
  8
0
 10
375.988586
 20
553.607665
 30
0.0
 11
374.688586
 21
554.907665
 31
0.0
  0
LINE
  8
0
 10
375.988586
 20
552.507665
 30
0.0
 11
375.988586
 21
553.607665
 31
0.0
  0
LINE
  8
0
 10
323.988586
 20
554.207665
 30
0.0
 11
368.988586
 21
554.207665
 31
0.0
  0
LINE
  8
0
 10
323.988586
 20
554.207665
 30
0.0
 11
323.858456
 21
554.907665
 31
0.0
  0
LINE
  8
0
 10
368.988586
 20
554.207665
 30
0.0
 11
369.118717
 21
554.907665
 31
0.0
  0
LINE
  8
0
 10
367.688586
 20
548.207665
 30
0.0
 11
367.688586
 21
547.413745
 31
0.0
  0
LINE
  8
0
 10
367.688586
 20
535.495569
 30
0.0
 11
367.688586
 21
534.807665
 31
0.0
  0
LINE
  8
0
 10
325.288586
 20
543.757665
 30
0.0
 11
325.288586
 21
534.807665
 31
0.0
  0
POINT
  8
0
 10
324.935884
 20
548.815435
 30
0.0
  0
POINT
  8
0
 10
325.283181
 20
549.423205
 30
0.0
  0
LINE
  8
0
 10
325.288586
 20
543.757665
 30
0.0
 11
326.388586
 21
543.757665
 31
0.0
  0
LINE
  8
0
 10
326.388586
 20
545.157665
 30
0.0
 11
326.388586
 21
543.757665
 31
0.0
  0
LINE
  8
0
 10
326.388586
 20
545.157665
 30
0.0
 11
325.288586
 21
546.657665
 31
0.0
  0
LINE
  8
0
 10
357.978586
 20
531.957665
 30
0.0
 11
357.978586
 21
519.357665
 31
0.0
  0
LINE
  8
0
 10
357.978586
 20
516.957665
 30
0.0
 11
357.478586
 21
516.457665
 31
0.0
  0
LINE
  8
0
 10
357.488586
 20
519.607665
 30
0.0
 11
357.488586
 21
518.207665
 31
0.0
  0
LINE
  8
0
 10
360.488586
 20
518.207665
 30
0.0
 11
357.488586
 21
518.207665
 31
0.0
  0
LINE
  8
0
 10
357.978586
 20
519.607665
 30
0.0
 11
357.488586
 21
519.607665
 31
0.0
  0
LINE
  8
0
 10
360.488586
 20
519.357665
 30
0.0
 11
360.488586
 21
518.207665
 31
0.0
  0
LINE
  8
0
 10
360.488586
 20
519.357665
 30
0.0
 11
357.488586
 21
519.357665
 31
0.0
  0
LINE
  8
0
 10
361.328586
 20
520.007665
 30
0.0
 11
361.328586
 21
519.357665
 31
0.0
  0
LINE
  8
0
 10
357.488586
 20
519.357665
 30
0.0
 11
361.328586
 21
519.357665
 31
0.0
  0
LINE
  8
0
 10
357.978586
 20
518.207665
 30
0.0
 11
357.978586
 21
516.957665
 31
0.0
  0
LINE
  8
0
 10
361.328586
 20
520.007665
 30
0.0
 11
357.978586
 21
520.007665
 31
0.0
  0
LINE
  8
0
 10
331.648586
 20
520.007665
 30
0.0
 11
334.998586
 21
520.007665
 31
0.0
  0
LINE
  8
0
 10
334.998586
 20
518.207665
 30
0.0
 11
334.998586
 21
516.957665
 31
0.0
  0
LINE
  8
0
 10
335.488586
 20
519.357665
 30
0.0
 11
331.648586
 21
519.357665
 31
0.0
  0
LINE
  8
0
 10
331.648586
 20
520.007665
 30
0.0
 11
331.648586
 21
519.357665
 31
0.0
  0
LINE
  8
0
 10
332.488586
 20
519.357665
 30
0.0
 11
335.488586
 21
519.357665
 31
0.0
  0
LINE
  8
0
 10
332.488586
 20
519.357665
 30
0.0
 11
332.488586
 21
518.207665
 31
0.0
  0
LINE
  8
0
 10
334.998586
 20
519.607665
 30
0.0
 11
335.488586
 21
519.607665
 31
0.0
  0
LINE
  8
0
 10
332.488586
 20
518.207665
 30
0.0
 11
335.488586
 21
518.207665
 31
0.0
  0
LINE
  8
0
 10
335.488586
 20
519.607665
 30
0.0
 11
335.488586
 21
518.207665
 31
0.0
  0
LINE
  8
0
 10
334.998586
 20
516.957665
 30
0.0
 11
335.498586
 21
516.457665
 31
0.0
  0
LINE
  8
0
 10
335.498586
 20
516.457665
 30
0.0
 11
357.478586
 21
516.457665
 31
0.0
  0
LINE
  8
0
 10
357.978586
 20
531.957665
 30
0.0
 11
368.688586
 21
531.957665
 31
0.0
  0
LINE
  8
0
 10
334.998586
 20
531.957665
 30
0.0
 11
334.998586
 21
519.357665
 31
0.0
  0
LINE
  8
0
 10
368.688586
 20
534.807665
 30
0.0
 11
368.688586
 21
531.957665
 31
0.0
  0
LINE
  8
0
 10
324.288586
 20
534.807665
 30
0.0
 11
324.288586
 21
531.957665
 31
0.0
  0
LINE
  8
0
 10
324.288586
 20
531.957665
 30
0.0
 11
334.998586
 21
531.957665
 31
0.0
  0
LINE
  8
0
 10
367.688586
 20
548.207665
 30
0.0
 11
366.488586
 21
550.307665
 31
0.0
  0
LINE
  8
0
 10
325.288586
 20
548.207665
 30
0.0
 11
326.488586
 21
550.307665
 31
0.0
  0
LINE
  8
0
 10
325.288586
 20
548.207665
 30
0.0
 11
325.288586
 21
546.657665
 31
0.0
  0
LINE
  8
0
 10
375.239151
 20
535.078092
 30
0.0
 11
375.612456
 21
535.508139
 31
0.0
  0
LINE
  8
0
 10
375.896108
 20
546.959944
 30
0.0
 11
376.219727
 21
546.491364
 31
0.0
  0
LINE
  8
0
 10
374.272437
 20
535.131543
 30
0.0
 11
374.929394
 21
547.013395
 31
0.0
  0
LINE
  8
0
 10
369.280062
 20
535.407575
 30
0.0
 11
369.937019
 21
547.289427
 31
0.0
  0
LINE
  8
0
 10
374.771674
 20
535.103939
 30
0.0
 11
375.428631
 21
546.985791
 31
0.0
  0
LINE
  8
0
 10
368.780648
 20
535.431977
 30
0.0
 11
369.437781
 21
547.31703
 31
0.0
  0
LINE
  8
0
 10
331.919139
 20
548.426227
 30
0.0
 11
335.785545
 21
545.899522
 31
0.0
  0
LINE
  8
0
 10
331.919139
 20
548.426227
 30
0.0
 11
327.797746
 21
546.341174
 31
0.0
  0
LINE
  8
0
 10
335.324855
 20
537.567375
 30
0.0
 11
335.785545
 21
545.899522
 31
0.0
  0
LINE
  8
0
 10
327.364785
 20
538.510555
 30
0.0
 11
327.797746
 21
546.341174
 31
0.0
  0
LINE
  8
0
 10
343.483072
 20
536.668038
 30
0.0
 11
329.538577
 21
538.205237
 31
0.0
  0
LINE
  8
0
 10
326.370975
 20
538.65014
 30
0.0
 11
326.961684
 21
549.333822
 31
0.0
  0
CIRCLE
  8
0
 10
346.488586
 20
540.307665
 30
0.0
 40
2.65
  0
LINE
  8
0
 10
375.239151
 20
535.078092
 30
0.0
 11
374.272437
 21
535.131543
 31
0.0
  0
LINE
  8
0
 10
375.896108
 20
546.959944
 30
0.0
 11
326.961684
 21
549.333822
 31
0.0
  0
LINE
  8
0
 10
324.288586
 20
534.807665
 30
0.0
 11
368.688586
 21
534.807665
 31
0.0
  0
LINE
  8
0
 10
326.488586
 20
550.307665
 30
0.0
 11
366.488586
 21
550.307665
 31
0.0
  0
LINE
  8
0
 10
316.488586
 20
515.907665
 30
0.0
 11
316.488586
 21
530.907665
 31
0.0
  0
LINE
  8
0
 10
376.488586
 20
515.907665
 30
0.0
 11
376.488586
 21
530.907665
 31
0.0
  0
LINE
  8
0
 10
316.488586
 20
515.907665
 30
0.0
 11
376.488586
 21
515.907665
 31
0.0
  0
LINE
  8
0
 10
318.738586
 20
534.907665
 30
0.0
 11
369.296335
 21
534.907665
 31
0.0
  0
LINE
  8
0
 10
316.488586
 20
530.907665
 30
0.0
 11
318.738586
 21
530.907665
 31
0.0
  0
LINE
  8
0
 10
318.738586
 20
530.907665
 30
0.0
 11
318.738586
 21
534.907665
 31
0.0
  0
LINE
  8
0
 10
374.238586
 20
530.907665
 30
0.0
 11
374.238586
 21
534.907665
 31
0.0
  0
LINE
  8
0
 10
334.938586
 20
520.057665
 30
0.0
 11
334.938586
 21
531.907665
 31
0.0
  0
LINE
  8
0
 10
358.038586
 20
520.057665
 30
0.0
 11
358.038586
 21
531.907665
 31
0.0
  0
LINE
  8
0
 10
323.738586
 20
531.907665
 30
0.0
 11
334.998586
 21
531.907665
 31
0.0
  0
LINE
  8
0
 10
323.738586
 20
525.107665
 30
0.0
 11
323.738586
 21
534.907665
 31
0.0
  0
LINE
  8
0
 10
369.238586
 20
525.107665
 30
0.0
 11
369.238586
 21
534.907665
 31
0.0
  0
LINE
  8
0
 10
374.238586
 20
530.907665
 30
0.0
 11
376.488586
 21
530.907665
 31
0.0
  0
LINE
  8
0
 10
331.438586
 20
515.907665
 30
0.0
 11
331.438586
 21
520.057665
 31
0.0
  0
LINE
  8
0
 10
361.538586
 20
515.907665
 30
0.0
 11
361.538586
 21
520.057665
 31
0.0
  0
LINE
  8
0
 10
331.438586
 20
520.057665
 30
0.0
 11
334.998586
 21
520.057665
 31
0.0
  0
LINE
  8
0
 10
67.745179
 20
392.221042
 30
0.0
 11
125.882543
 21
392.221042
 31
0.0
  0
LINE
  8
0
 10
67.745179
 20
403.221042
 30
0.0
 11
125.882543
 21
403.221042
 31
0.0
  0
CIRCLE
  8
0
 10
140.907522
 20
397.721042
 30
0.0
 40
16.0
  0
ARC
  8
0
 10
35.70815
 20
397.721042
 30
0.0
 40
26.514585
 50
338.308563
 51
21.691437
  0
ARC
  8
0
 10
35.10815
 20
397.721042
 30
0.0
 40
26.514585
 50
338.308563
 51
21.691437
  0
LINE
  8
0
 10
60.345179
 20
387.921042
 30
0.0
 11
65.045179
 21
389.621042
 31
0.0
  0
LINE
  8
0
 10
60.345179
 20
407.521042
 30
0.0
 11
65.045179
 21
405.821042
 31
0.0
  0
LINE
  8
0
 10
59.745179
 20
387.921042
 30
0.0
 11
60.345179
 21
387.921042
 31
0.0
  0
LINE
  8
0
 10
59.745179
 20
407.521042
 30
0.0
 11
60.345179
 21
407.521042
 31
0.0
  0
LINE
  8
0
 10
67.745179
 20
405.821042
 30
0.0
 11
67.745179
 21
389.621042
 31
0.0
  0
LINE
  8
0
 10
65.045179
 20
405.821042
 30
0.0
 11
65.045179
 21
389.621042
 31
0.0
  0
LINE
  8
0
 10
65.045179
 20
405.821042
 30
0.0
 11
67.745179
 21
405.821042
 31
0.0
  0
LINE
  8
0
 10
65.045179
 20
389.621042
 30
0.0
 11
67.745179
 21
389.621042
 31
0.0
  0
CIRCLE
  8
0
 10
34.907522
 20
397.721042
 30
0.0
 40
19.63013
  0
ARC
  8
0
 10
34.907522
 20
397.721042
 30
0.0
 40
27.0
 50
21.282274
 51
338.717726
  0
CIRCLE
  8
0
 10
34.907522
 20
397.721042
 30
0.0
 40
26.5
  0
LINE
  8
0
 10
357.978586
 20
531.907665
 30
0.0
 11
374.238586
 21
531.907665
 31
0.0
  0
LINE
  8
0
 10
357.978586
 20
520.057665
 30
0.0
 11
361.538586
 21
520.057665
 31
0.0
  0
LINE
  8
0
 10
373.845933
 20
532.169567
 30
0.0
 11
369.377424
 21
532.416635
 31
0.0
  0
LINE
  8
0
 10
369.280062
 20
535.407575
 30
0.0
 11
369.377424
 21
532.416635
 31
0.0
  0
LINE
  8
0
 10
373.845933
 20
532.169567
 30
0.0
 11
374.272437
 21
535.131543
 31
0.0
  0
LINE
  8
0
 10
369.280062
 20
535.407575
 30
0.0
 11
343.483072
 21
536.668038
 31
0.0
  0
LINE
  8
0
 10
375.140633
 20
535.083539
 30
0.0
 11
375.140633
 21
531.707665
 31
0.0
  0
LINE
  8
0
 10
369.280062
 20
535.407575
 30
0.0
 11
368.808368
 21
535.933329
 31
0.0
  0
LINE
  8
0
 10
373.765299
 20
544.073176
 30
0.0
 11
370.769875
 21
544.238796
 31
0.0
  0
LINE
  8
0
 10
369.937019
 20
547.289427
 30
0.0
 11
369.415695
 21
546.91757
 31
0.0
  0
LINE
  8
0
 10
374.929394
 20
547.013395
 30
0.0
 11
375.406545
 21
546.586331
 31
0.0
  0
LINE
  8
0
 10
374.272437
 20
535.131543
 30
0.0
 11
374.799218
 21
535.60209
 31
0.0
  0
LINE
  8
0
 10
370.769875
 20
544.238796
 30
0.0
 11
370.935494
 21
547.23422
 31
0.0
  0
LINE
  8
0
 10
373.765299
 20
544.073176
 30
0.0
 11
373.930919
 21
547.068601
 31
0.0
  0
LINE
  8
0
 10
334.933156
 20
535.222021
 30
0.0
 11
328.884719
 21
535.222021
 31
0.0
  0
LINE
  8
0
 10
334.276212
 20
536.845941
 30
0.0
 11
327.698152
 21
538.261234
 31
0.0
  0
LINE
  8
0
 10
334.338296
 20
539.903365
 30
0.0
 11
327.841224
 21
541.301233
 31
0.0
  0
LINE
  8
0
 10
328.52222
 20
538.42391
 30
0.0
 11
335.141394
 21
539.730575
 31
0.0
  0
LINE
  8
0
 10
328.665291
 20
541.463909
 30
0.0
 11
335.284466
 21
542.770574
 31
0.0
  0
LINE
  8
0
 10
334.481367
 20
542.943364
 30
0.0
 11
327.984295
 21
544.341232
 31
0.0
  0
LINE
  8
0
 10
328.808363
 20
544.503908
 30
0.0
 11
335.427537
 21
545.810573
 31
0.0
  0
LINE
  8
0
 10
334.072249
 20
545.874357
 30
0.0
 11
328.069743
 21
546.156853
 31
0.0
  0
LINE
  8
0
 10
335.448506
 20
546.146039
 30
0.0
 11
328.090713
 21
546.492318
 31
0.0
  0
LINE
  8
0
 10
328.005264
 20
544.676697
 30
0.0
 11
334.072249
 21
545.874357
 31
0.0
  0
LINE
  8
0
 10
335.305435
 20
543.10604
 30
0.0
 11
328.808363
 21
544.503908
 31
0.0
  0
LINE
  8
0
 10
327.862193
 20
541.636698
 30
0.0
 11
334.481367
 21
542.943364
 31
0.0
  0
LINE
  8
0
 10
335.162364
 20
540.066041
 30
0.0
 11
328.665291
 21
541.463909
 31
0.0
  0
LINE
  8
0
 10
327.719122
 20
538.596699
 30
0.0
 11
334.338296
 21
539.903365
 31
0.0
  0
LINE
  8
0
 10
335.019292
 20
537.026042
 30
0.0
 11
328.52222
 21
538.42391
 31
0.0
  0
LINE
  8
0
 10
328.069743
 20
546.156853
 30
0.0
 11
328.090713
 21
546.492318
 31
0.0
  0
LINE
  8
0
 10
335.427537
 20
545.810573
 30
0.0
 11
335.448506
 21
546.146039
 31
0.0
  0
LINE
  8
0
 10
328.005264
 20
544.676697
 30
0.0
 11
327.984295
 21
544.341232
 31
0.0
  0
LINE
  8
0
 10
335.305435
 20
543.10604
 30
0.0
 11
335.284466
 21
542.770574
 31
0.0
  0
LINE
  8
0
 10
327.862193
 20
541.636698
 30
0.0
 11
327.841224
 21
541.301233
 31
0.0
  0
LINE
  8
0
 10
335.162364
 20
540.066041
 30
0.0
 11
335.141394
 21
539.730575
 31
0.0
  0
LINE
  8
0
 10
327.719122
 20
538.596699
 30
0.0
 11
327.698152
 21
538.261234
 31
0.0
  0
LINE
  8
0
 10
335.019292
 20
537.026042
 30
0.0
 11
334.998323
 21
536.690576
 31
0.0
  0
LINE
  8
0
 10
327.57605
 20
535.222021
 30
0.0
 11
327.57605
 21
534.907665
 31
0.0
  0
LINE
  8
0
 10
334.933156
 20
535.222021
 30
0.0
 11
334.933156
 21
534.907665
 31
0.0
  0
LINE
  8
0
 10
327.57605
 20
535.222021
 30
0.0
 11
334.276212
 21
536.845941
 31
0.0
  0
LINE
  8
0
 10
328.884719
 20
535.222021
 30
0.0
 11
334.998323
 21
536.690576
 31
0.0
  0
LINE
  8
0
 10
327.7107
 20
538.46197
 30
0.0
 11
326.370975
 21
538.65014
 31
0.0
  0
LINE
  8
0
 10
441.016497
 20
562.511221
 30
0.0
 11
444.900776
 21
548.022868
 31
0.0
  0
LINE
  8
0
 10
391.814317
 20
535.861196
 30
0.0
 11
444.382872
 21
549.954649
 31
0.0
  0
LINE
  8
0
 10
388.965846
 20
546.485988
 30
0.0
 11
441.534401
 21
560.579441
 31
0.0
  0
ARC
  8
0
 10
456.609847
 20
558.926888
 30
0.0
 40
16.0
 50
222.961068
 51
167.054695
  0
ARC
  8
0
 10
385.340519
 20
560.008451
 30
0.0
 40
14.0
 50
266.835294
 51
285.007882
  0
ARC
  8
0
 10
385.340519
 20
560.008451
 30
0.0
 40
25.0
 50
266.835294
 51
285.007882
  0
LINE
  8
0
 10
359.738586
 20
525.107665
 30
0.0
 11
369.238586
 21
525.107665
 31
0.0
  0
LINE
  8
0
 10
323.738586
 20
525.107665
 30
0.0
 11
333.238586
 21
525.107665
 31
0.0
  0
LINE
  8
0
 10
359.738586
 20
525.107665
 30
0.0
 11
359.738586
 21
531.907665
 31
0.0
  0
LINE
  8
0
 10
333.238586
 20
525.107665
 30
0.0
 11
333.238586
 21
531.907665
 31
0.0
  0
LINE
  8
0
 10
367.138586
 20
515.907665
 30
0.0
 11
367.138586
 21
525.107665
 31
0.0
  0
LINE
  8
0
 10
361.838586
 20
515.907665
 30
0.0
 11
361.838586
 21
525.107665
 31
0.0
  0
LINE
  8
0
 10
331.138586
 20
515.907665
 30
0.0
 11
331.138586
 21
525.107665
 31
0.0
  0
LINE
  8
0
 10
325.838586
 20
515.907665
 30
0.0
 11
325.838586
 21
525.107665
 31
0.0
  0
LINE
  8
0
 10
386.397794
 20
546.048431
 30
0.0
 11
387.164065
 21
544.766186
 31
0.0
  0
LINE
  8
0
 10
387.164065
 20
544.766186
 30
0.0
 11
387.684637
 21
542.018962
 31
0.0
  0
LINE
  8
0
 10
387.684637
 20
542.018962
 30
0.0
 11
387.164065
 21
540.399545
 31
0.0
  0
LINE
  8
0
 10
387.164065
 20
540.399545
 30
0.0
 11
386.094003
 21
539.532001
 31
0.0
  0
LINE
  8
0
 10
386.094003
 20
539.532001
 30
0.0
 11
385.370987
 21
538.14393
 31
0.0
  0
LINE
  8
0
 10
385.370987
 20
538.14393
 30
0.0
 11
385.284225
 21
536.553431
 31
0.0
  0
LINE
  8
0
 10
385.284225
 20
536.553431
 30
0.0
 11
385.747573
 21
535.011765
 31
0.0
  0
LINE
  8
0
 10
383.988586
 20
535.045032
 30
0.0
 11
383.988586
 21
534.073557
 31
0.0
  0
CIRCLE
  8
0
 10
346.488586
 20
540.307665
 30
0.0
 40
1.85
  0
LINE
  8
0
 10
195.276909
 20
398.816817
 30
0.0
 11
249.276909
 21
398.816817
 31
0.0
  0
LINE
  8
0
 10
247.026909
 20
398.816817
 30
0.0
 11
247.026909
 21
402.816817
 31
0.0
  0
LINE
  8
0
 10
197.526909
 20
398.816817
 30
0.0
 11
197.526909
 21
402.816817
 31
0.0
  0
LINE
  8
0
 10
197.526909
 20
402.816817
 30
0.0
 11
247.026909
 21
402.816817
 31
0.0
  0
LINE
  8
0
 10
195.276909
 20
385.816817
 30
0.0
 11
249.276909
 21
385.816817
 31
0.0
  0
LINE
  8
0
 10
249.276909
 20
385.816817
 30
0.0
 11
249.276909
 21
398.816817
 31
0.0
  0
LINE
  8
0
 10
195.276909
 20
385.816817
 30
0.0
 11
195.276909
 21
398.816817
 31
0.0
  0
LINE
  8
0
 10
221.326909
 20
399.816817
 30
0.0
 11
223.226909
 21
399.816817
 31
0.0
  0
LINE
  8
0
 10
221.326909
 20
399.816817
 30
0.0
 11
220.526909
 21
402.816817
 31
0.0
  0
LINE
  8
0
 10
223.226909
 20
399.816817
 30
0.0
 11
224.026909
 21
402.816817
 31
0.0
  0
CIRCLE
  8
0
 10
207.276909
 20
349.455786
 30
0.0
 40
4.75
  0
CIRCLE
  8
0
 10
207.276909
 20
349.455786
 30
0.0
 40
2.65
  0
CIRCLE
  8
0
 10
237.276909
 20
349.455786
 30
0.0
 40
2.65
  0
CIRCLE
  8
0
 10
237.276909
 20
349.455786
 30
0.0
 40
4.75
  0
CIRCLE
  8
0
 10
222.276909
 20
349.455786
 30
0.0
 40
24.75
  0
CIRCLE
  8
0
 10
222.276909
 20
349.455786
 30
0.0
 40
19.75
  0
CIRCLE
  8
0
 10
222.276909
 20
349.455786
 30
0.0
 40
27.0
  0
CIRCLE
  8
0
 10
222.276909
 20
349.455786
 30
0.0
 40
9.05
  0
LINE
  8
0
 10
224.026909
 20
329.78347
 30
0.0
 11
224.026909
 21
324.767732
 31
0.0
  0
LINE
  8
0
 10
223.226909
 20
329.728647
 30
0.0
 11
223.226909
 21
324.724025
 31
0.0
  0
LINE
  8
0
 10
221.326909
 20
329.728647
 30
0.0
 11
221.326909
 21
324.724025
 31
0.0
  0
LINE
  8
0
 10
220.526909
 20
329.78347
 30
0.0
 11
220.526909
 21
324.767732
 31
0.0
  0
LINE
  8
0
 10
353.488586
 20
516.457665
 30
0.0
 11
353.488586
 21
534.807665
 31
0.0
  0
LINE
  8
0
 10
337.188586
 20
516.457665
 30
0.0
 11
337.188586
 21
534.807665
 31
0.0
  0
LINE
  8
0
 10
339.950238
 20
534.807665
 30
0.0
 11
339.950238
 21
516.457665
 31
0.0
  0
INSERT
  8
0
  2
*X0
 10
-27.51271
 20
320.811326
 30
0.0
  0
INSERT
  8
0
  2
*X1
 10
-26.909689
 20
315.705478
 30
0.0
  0
INSERT
  8
0
  2
*X2
 10
-27.51271
 20
332.712696
 30
0.0
  0
CIRCLE
  8
0
 10
35.030225
 20
536.877091
 30
0.0
 40
1.85
  0
LINE
  8
0
 10
69.530225
 20
531.614458
 30
0.0
 11
69.530225
 21
530.642983
 31
0.0
  0
LINE
  8
0
 10
70.825864
 20
533.122857
 30
0.0
 11
71.289212
 21
531.581191
 31
0.0
  0
LINE
  8
0
 10
70.912626
 20
534.713355
 30
0.0
 11
70.825864
 21
533.122857
 31
0.0
  0
LINE
  8
0
 10
71.635641
 20
536.101427
 30
0.0
 11
70.912626
 21
534.713355
 31
0.0
  0
LINE
  8
0
 10
72.705704
 20
536.968971
 30
0.0
 11
71.635641
 21
536.101427
 31
0.0
  0
LINE
  8
0
 10
73.226275
 20
538.588388
 30
0.0
 11
72.705704
 21
536.968971
 31
0.0
  0
LINE
  8
0
 10
72.705704
 20
541.335612
 30
0.0
 11
73.226275
 21
538.588388
 31
0.0
  0
LINE
  8
0
 10
71.939433
 20
542.617857
 30
0.0
 11
72.705704
 21
541.335612
 31
0.0
  0
LINE
  8
0
 10
17.380225
 20
514.477091
 30
0.0
 11
17.380225
 21
521.677091
 31
0.0
  0
LINE
  8
0
 10
22.680225
 20
514.477091
 30
0.0
 11
22.680225
 21
521.677091
 31
0.0
  0
LINE
  8
0
 10
47.380225
 20
514.477091
 30
0.0
 11
47.380225
 21
521.677091
 31
0.0
  0
LINE
  8
0
 10
52.680225
 20
514.477091
 30
0.0
 11
52.680225
 21
521.677091
 31
0.0
  0
LINE
  8
0
 10
24.780225
 20
521.677091
 30
0.0
 11
24.780225
 21
528.477091
 31
0.0
  0
LINE
  8
0
 10
45.280225
 20
521.677091
 30
0.0
 11
45.280225
 21
528.477091
 31
0.0
  0
LINE
  8
0
 10
15.280225
 20
521.677091
 30
0.0
 11
24.780225
 21
521.677091
 31
0.0
  0
LINE
  8
0
 10
45.280225
 20
521.677091
 30
0.0
 11
54.780225
 21
521.677091
 31
0.0
  0
ARC
  8
0
 10
70.882158
 20
556.577877
 30
0.0
 40
25.0
 50
266.835294
 51
285.007882
  0
ARC
  8
0
 10
70.882158
 20
556.577877
 30
0.0
 40
14.0
 50
266.835294
 51
285.007882
  0
ARC
  8
0
 10
142.151486
 20
555.496314
 30
0.0
 40
16.0
 50
222.961068
 51
167.054695
  0
LINE
  8
0
 10
74.507485
 20
543.055414
 30
0.0
 11
127.07604
 21
557.148867
 31
0.0
  0
LINE
  8
0
 10
77.355956
 20
532.430622
 30
0.0
 11
129.924511
 21
546.524074
 31
0.0
  0
LINE
  8
0
 10
126.558136
 20
559.080647
 30
0.0
 11
130.442415
 21
544.592294
 31
0.0
  0
LINE
  8
0
 10
19.252339
 20
535.031396
 30
0.0
 11
17.912614
 21
535.219566
 31
0.0
  0
LINE
  8
0
 10
20.426358
 20
531.791447
 30
0.0
 11
26.539962
 21
533.260002
 31
0.0
  0
LINE
  8
0
 10
19.117689
 20
531.791447
 30
0.0
 11
25.81785
 21
533.415367
 31
0.0
  0
LINE
  8
0
 10
26.474794
 20
531.791447
 30
0.0
 11
26.474794
 21
531.477091
 31
0.0
  0
LINE
  8
0
 10
19.117689
 20
531.791447
 30
0.0
 11
19.117689
 21
531.477091
 31
0.0
  0
LINE
  8
0
 10
26.560931
 20
533.595468
 30
0.0
 11
26.539962
 21
533.260002
 31
0.0
  0
LINE
  8
0
 10
19.26076
 20
535.166125
 30
0.0
 11
19.239791
 21
534.83066
 31
0.0
  0
LINE
  8
0
 10
26.704002
 20
536.635467
 30
0.0
 11
26.683033
 21
536.300001
 31
0.0
  0
LINE
  8
0
 10
19.403832
 20
538.206124
 30
0.0
 11
19.382863
 21
537.870659
 31
0.0
  0
LINE
  8
0
 10
26.847074
 20
539.675466
 30
0.0
 11
26.826105
 21
539.34
 31
0.0
  0
LINE
  8
0
 10
19.546903
 20
541.246123
 30
0.0
 11
19.525934
 21
540.910658
 31
0.0
  0
LINE
  8
0
 10
26.969176
 20
542.379999
 30
0.0
 11
26.990145
 21
542.715465
 31
0.0
  0
LINE
  8
0
 10
19.611382
 20
542.726278
 30
0.0
 11
19.632351
 21
543.061744
 31
0.0
  0
LINE
  8
0
 10
26.560931
 20
533.595468
 30
0.0
 11
20.063859
 21
534.993336
 31
0.0
  0
LINE
  8
0
 10
19.26076
 20
535.166125
 30
0.0
 11
25.879935
 21
536.472791
 31
0.0
  0
LINE
  8
0
 10
26.704002
 20
536.635467
 30
0.0
 11
20.20693
 21
538.033335
 31
0.0
  0
LINE
  8
0
 10
19.403832
 20
538.206124
 30
0.0
 11
26.023006
 21
539.51279
 31
0.0
  0
LINE
  8
0
 10
26.847074
 20
539.675466
 30
0.0
 11
20.350002
 21
541.073334
 31
0.0
  0
LINE
  8
0
 10
19.546903
 20
541.246123
 30
0.0
 11
25.613887
 21
542.443783
 31
0.0
  0
LINE
  8
0
 10
26.990145
 20
542.715465
 30
0.0
 11
19.632351
 21
543.061744
 31
0.0
  0
LINE
  8
0
 10
25.613887
 20
542.443783
 30
0.0
 11
19.611382
 21
542.726278
 31
0.0
  0
LINE
  8
0
 10
20.350002
 20
541.073334
 30
0.0
 11
26.969176
 21
542.379999
 31
0.0
  0
LINE
  8
0
 10
26.023006
 20
539.51279
 30
0.0
 11
19.525934
 21
540.910658
 31
0.0
  0
LINE
  8
0
 10
20.20693
 20
538.033335
 30
0.0
 11
26.826105
 21
539.34
 31
0.0
  0
LINE
  8
0
 10
20.063859
 20
534.993336
 30
0.0
 11
26.683033
 21
536.300001
 31
0.0
  0
LINE
  8
0
 10
25.879935
 20
536.472791
 30
0.0
 11
19.382863
 21
537.870659
 31
0.0
  0
LINE
  8
0
 10
25.81785
 20
533.415367
 30
0.0
 11
19.239791
 21
534.83066
 31
0.0
  0
LINE
  8
0
 10
26.474794
 20
531.791447
 30
0.0
 11
20.426358
 21
531.791447
 31
0.0
  0
LINE
  8
0
 10
59.306938
 20
540.642602
 30
0.0
 11
59.472558
 21
543.638027
 31
0.0
  0
LINE
  8
0
 10
56.311513
 20
540.808221
 30
0.0
 11
56.477133
 21
543.803646
 31
0.0
  0
LINE
  8
0
 10
59.814076
 20
531.700968
 30
0.0
 11
60.340856
 21
532.171516
 31
0.0
  0
LINE
  8
0
 10
60.471033
 20
543.58282
 30
0.0
 11
60.948184
 21
543.155757
 31
0.0
  0
LINE
  8
0
 10
55.478658
 20
543.858853
 30
0.0
 11
54.957334
 21
543.486995
 31
0.0
  0
LINE
  8
0
 10
59.306938
 20
540.642602
 30
0.0
 11
56.311513
 21
540.808221
 31
0.0
  0
LINE
  8
0
 10
54.821701
 20
531.977001
 30
0.0
 11
54.350007
 21
532.502755
 31
0.0
  0
LINE
  8
0
 10
60.682272
 20
531.652965
 30
0.0
 11
60.682272
 21
528.277091
 31
0.0
  0
LINE
  8
0
 10
54.821701
 20
531.977001
 30
0.0
 11
32.024711
 21
533.237464
 31
0.0
  0
LINE
  8
0
 10
59.387572
 20
528.738993
 30
0.0
 11
59.814076
 21
531.700968
 31
0.0
  0
LINE
  8
0
 10
54.821701
 20
531.977001
 30
0.0
 11
54.919063
 21
528.98606
 31
0.0
  0
LINE
  8
0
 10
59.387572
 20
528.738993
 30
0.0
 11
54.919063
 21
528.98606
 31
0.0
  0
LINE
  8
0
 10
44.020225
 20
518.627091
 30
0.0
 11
47.080225
 21
518.627091
 31
0.0
  0
LINE
  8
0
 10
44.020225
 20
528.477091
 30
0.0
 11
59.780225
 21
528.477091
 31
0.0
  0
LINE
  8
0
 10
22.980225
 20
518.627091
 30
0.0
 11
26.040225
 21
518.627091
 31
0.0
  0
LINE
  8
0
 10
47.080225
 20
514.477091
 30
0.0
 11
47.080225
 21
518.627091
 31
0.0
  0
LINE
  8
0
 10
22.980225
 20
514.477091
 30
0.0
 11
22.980225
 21
518.627091
 31
0.0
  0
LINE
  8
0
 10
59.780225
 20
527.477091
 30
0.0
 11
62.030225
 21
527.477091
 31
0.0
  0
LINE
  8
0
 10
54.780225
 20
521.677091
 30
0.0
 11
54.780225
 21
531.477091
 31
0.0
  0
LINE
  8
0
 10
15.280225
 20
521.677091
 30
0.0
 11
15.280225
 21
531.477091
 31
0.0
  0
LINE
  8
0
 10
15.280225
 20
528.477091
 30
0.0
 11
26.040225
 21
528.477091
 31
0.0
  0
LINE
  8
0
 10
44.080225
 20
518.627091
 30
0.0
 11
44.080225
 21
528.477091
 31
0.0
  0
LINE
  8
0
 10
25.980225
 20
518.627091
 30
0.0
 11
25.980225
 21
528.477091
 31
0.0
  0
LINE
  8
0
 10
59.780225
 20
527.477091
 30
0.0
 11
59.780225
 21
531.477091
 31
0.0
  0
LINE
  8
0
 10
10.280225
 20
527.477091
 30
0.0
 11
10.280225
 21
531.477091
 31
0.0
  0
LINE
  8
0
 10
8.030225
 20
527.477091
 30
0.0
 11
10.280225
 21
527.477091
 31
0.0
  0
LINE
  8
0
 10
10.280225
 20
531.477091
 30
0.0
 11
54.837974
 21
531.477091
 31
0.0
  0
LINE
  8
0
 10
8.030225
 20
514.477091
 30
0.0
 11
62.030225
 21
514.477091
 31
0.0
  0
LINE
  8
0
 10
62.030225
 20
514.477091
 30
0.0
 11
62.030225
 21
527.477091
 31
0.0
  0
LINE
  8
0
 10
8.030225
 20
514.477091
 30
0.0
 11
8.030225
 21
527.477091
 31
0.0
  0
LINE
  8
0
 10
18.030225
 20
546.877091
 30
0.0
 11
52.030225
 21
546.877091
 31
0.0
  0
LINE
  8
0
 10
15.830225
 20
531.377091
 30
0.0
 11
54.230225
 21
531.377091
 31
0.0
  0
LINE
  8
0
 10
61.437746
 20
543.52937
 30
0.0
 11
18.503323
 21
545.903248
 31
0.0
  0
LINE
  8
0
 10
60.78079
 20
531.647518
 30
0.0
 11
59.814076
 21
531.700968
 31
0.0
  0
CIRCLE
  8
0
 10
35.030225
 20
536.877091
 30
0.0
 40
2.65
  0
LINE
  8
0
 10
17.912614
 20
535.219566
 30
0.0
 11
18.503323
 21
545.903248
 31
0.0
  0
LINE
  8
0
 10
32.024711
 20
533.237464
 30
0.0
 11
21.080216
 21
534.774663
 31
0.0
  0
LINE
  8
0
 10
18.906424
 20
535.079981
 30
0.0
 11
19.339385
 21
542.9106
 31
0.0
  0
LINE
  8
0
 10
26.856901
 20
533.963304
 30
0.0
 11
27.327184
 21
542.468948
 31
0.0
  0
LINE
  8
0
 10
23.460778
 20
544.995653
 30
0.0
 11
19.339385
 21
542.9106
 31
0.0
  0
LINE
  8
0
 10
23.460778
 20
544.995653
 30
0.0
 11
27.327184
 21
542.468948
 31
0.0
  0
LINE
  8
0
 10
54.322286
 20
532.001402
 30
0.0
 11
54.97942
 21
543.886456
 31
0.0
  0
LINE
  8
0
 10
60.313313
 20
531.673365
 30
0.0
 11
60.97027
 21
543.555217
 31
0.0
  0
LINE
  8
0
 10
54.821701
 20
531.977001
 30
0.0
 11
55.478658
 21
543.858853
 31
0.0
  0
LINE
  8
0
 10
59.814076
 20
531.700968
 30
0.0
 11
60.471033
 21
543.58282
 31
0.0
  0
LINE
  8
0
 10
61.437746
 20
543.52937
 30
0.0
 11
61.761366
 21
543.06079
 31
0.0
  0
LINE
  8
0
 10
60.78079
 20
531.647518
 30
0.0
 11
61.154095
 21
532.077565
 31
0.0
  0
LINE
  8
0
 10
16.830225
 20
544.777091
 30
0.0
 11
16.830225
 21
543.227091
 31
0.0
  0
LINE
  8
0
 10
16.830225
 20
544.777091
 30
0.0
 11
18.030225
 21
546.877091
 31
0.0
  0
LINE
  8
0
 10
53.230225
 20
544.777091
 30
0.0
 11
52.030225
 21
546.877091
 31
0.0
  0
LINE
  8
0
 10
15.830225
 20
528.527091
 30
0.0
 11
26.040225
 21
528.527091
 31
0.0
  0
LINE
  8
0
 10
15.830225
 20
531.377091
 30
0.0
 11
15.830225
 21
528.527091
 31
0.0
  0
LINE
  8
0
 10
54.230225
 20
531.377091
 30
0.0
 11
54.230225
 21
528.527091
 31
0.0
  0
LINE
  8
0
 10
26.040225
 20
528.527091
 30
0.0
 11
26.040225
 21
517.927091
 31
0.0
  0
LINE
  8
0
 10
44.020225
 20
528.527091
 30
0.0
 11
54.230225
 21
528.527091
 31
0.0
  0
LINE
  8
0
 10
26.540225
 20
515.027091
 30
0.0
 11
43.520225
 21
515.027091
 31
0.0
  0
LINE
  8
0
 10
26.040225
 20
515.527091
 30
0.0
 11
26.540225
 21
515.027091
 31
0.0
  0
LINE
  8
0
 10
26.530225
 20
518.177091
 30
0.0
 11
26.530225
 21
516.777091
 31
0.0
  0
LINE
  8
0
 10
24.030225
 20
516.777091
 30
0.0
 11
26.530225
 21
516.777091
 31
0.0
  0
LINE
  8
0
 10
26.040225
 20
518.177091
 30
0.0
 11
26.530225
 21
518.177091
 31
0.0
  0
LINE
  8
0
 10
24.030225
 20
517.927091
 30
0.0
 11
24.030225
 21
516.777091
 31
0.0
  0
LINE
  8
0
 10
24.030225
 20
517.927091
 30
0.0
 11
26.530225
 21
517.927091
 31
0.0
  0
LINE
  8
0
 10
23.190225
 20
518.577091
 30
0.0
 11
23.190225
 21
517.927091
 31
0.0
  0
LINE
  8
0
 10
26.530225
 20
517.927091
 30
0.0
 11
23.190225
 21
517.927091
 31
0.0
  0
LINE
  8
0
 10
26.040225
 20
516.777091
 30
0.0
 11
26.040225
 21
515.527091
 31
0.0
  0
LINE
  8
0
 10
23.190225
 20
518.577091
 30
0.0
 11
26.040225
 21
518.577091
 31
0.0
  0
LINE
  8
0
 10
46.870225
 20
518.577091
 30
0.0
 11
44.020225
 21
518.577091
 31
0.0
  0
LINE
  8
0
 10
44.020225
 20
516.777091
 30
0.0
 11
44.020225
 21
515.527091
 31
0.0
  0
LINE
  8
0
 10
43.530225
 20
517.927091
 30
0.0
 11
46.870225
 21
517.927091
 31
0.0
  0
LINE
  8
0
 10
46.870225
 20
518.577091
 30
0.0
 11
46.870225
 21
517.927091
 31
0.0
  0
LINE
  8
0
 10
46.030225
 20
517.927091
 30
0.0
 11
43.530225
 21
517.927091
 31
0.0
  0
LINE
  8
0
 10
46.030225
 20
517.927091
 30
0.0
 11
46.030225
 21
516.777091
 31
0.0
  0
LINE
  8
0
 10
44.020225
 20
518.177091
 30
0.0
 11
43.530225
 21
518.177091
 31
0.0
  0
LINE
  8
0
 10
46.030225
 20
516.777091
 30
0.0
 11
43.530225
 21
516.777091
 31
0.0
  0
LINE
  8
0
 10
43.530225
 20
518.177091
 30
0.0
 11
43.530225
 21
516.777091
 31
0.0
  0
LINE
  8
0
 10
44.020225
 20
515.527091
 30
0.0
 11
43.520225
 21
515.027091
 31
0.0
  0
LINE
  8
0
 10
44.020225
 20
528.527091
 30
0.0
 11
44.020225
 21
517.927091
 31
0.0
  0
LINE
  8
0
 10
17.930225
 20
541.727091
 30
0.0
 11
16.830225
 21
543.227091
 31
0.0
  0
LINE
  8
0
 10
17.930225
 20
541.727091
 30
0.0
 11
17.930225
 21
540.327091
 31
0.0
  0
LINE
  8
0
 10
16.830225
 20
540.327091
 30
0.0
 11
17.930225
 21
540.327091
 31
0.0
  0
POINT
  8
0
 10
16.82482
 20
545.992631
 30
0.0
  0
POINT
  8
0
 10
16.477522
 20
545.384861
 30
0.0
  0
LINE
  8
0
 10
16.830225
 20
540.327091
 30
0.0
 11
16.830225
 21
531.377091
 31
0.0
  0
LINE
  8
0
 10
53.230225
 20
532.064995
 30
0.0
 11
53.230225
 21
531.377091
 31
0.0
  0
LINE
  8
0
 10
53.230225
 20
544.777091
 30
0.0
 11
53.230225
 21
543.98317
 31
0.0
  0
LINE
  8
0
 10
54.530225
 20
550.777091
 30
0.0
 11
54.660355
 21
551.477091
 31
0.0
  0
LINE
  8
0
 10
15.530225
 20
550.777091
 30
0.0
 11
15.400095
 21
551.477091
 31
0.0
  0
LINE
  8
0
 10
15.530225
 20
550.777091
 30
0.0
 11
54.530225
 21
550.777091
 31
0.0
  0
LINE
  8
0
 10
61.530225
 20
549.077091
 30
0.0
 11
61.530225
 21
550.177091
 31
0.0
  0
LINE
  8
0
 10
61.530225
 20
550.177091
 30
0.0
 11
60.230225
 21
551.477091
 31
0.0
  0
LINE
  8
0
 10
60.682272
 20
528.277091
 30
0.0
 11
59.780225
 21
528.277091
 31
0.0
  0
LINE
  8
0
 10
54.577114
 20
543.9087
 30
0.0
 11
54.577114
 21
549.077091
 31
0.0
  0
LINE
  8
0
 10
53.577114
 20
543.96399
 30
0.0
 11
53.577114
 21
549.077091
 31
0.0
  0
LINE
  8
0
 10
16.483336
 20
549.077091
 30
0.0
 11
61.530225
 21
549.077091
 31
0.0
  0
LINE
  8
0
 10
17.593558
 20
541.777091
 30
0.0
 11
16.483336
 21
543.29103
 31
0.0
  0
LINE
  8
0
 10
16.483336
 20
543.29103
 30
0.0
 11
16.483336
 21
549.077091
 31
0.0
  0
LINE
  8
0
 10
15.483336
 20
541.777091
 30
0.0
 11
15.483336
 21
549.077091
 31
0.0
  0
LINE
  8
0
 10
15.483336
 20
541.777091
 30
0.0
 11
17.593558
 21
541.777091
 31
0.0
  0
LINE
  8
0
 10
10.130225
 20
549.077091
 30
0.0
 11
15.483336
 21
549.077091
 31
0.0
  0
LINE
  8
0
 10
10.130225
 20
528.277091
 30
0.0
 11
10.130225
 21
549.077091
 31
0.0
  0
LINE
  8
0
 10
8.530225
 20
528.277091
 30
0.0
 11
10.280225
 21
528.277091
 31
0.0
  0
LINE
  8
0
 10
8.530225
 20
550.177091
 30
0.0
 11
9.830225
 21
551.477091
 31
0.0
  0
LINE
  8
0
 10
9.830225
 20
551.477091
 30
0.0
 11
60.230225
 21
551.477091
 31
0.0
  0
LINE
  8
0
 10
8.530225
 20
528.277091
 30
0.0
 11
8.530225
 21
550.177091
 31
0.0
  0
LINE
  8
0
 10
60.682272
 20
549.077091
 30
0.0
 11
60.682272
 21
543.571141
 31
0.0
  0
LINE
  8
0
 10
61.530225
 20
550.042983
 30
0.0
 11
62.130225
 21
550.042983
 31
0.0
  0
LINE
  8
0
 10
61.530225
 20
527.442983
 30
0.0
 11
62.130225
 21
527.442983
 31
0.0
  0
LINE
  8
0
 10
61.530225
 20
532.056768
 30
0.0
 11
61.530225
 21
527.442983
 31
0.0
  0
LINE
  8
0
 10
69.530225
 20
546.842983
 30
0.0
 11
69.530225
 21
542.631243
 31
0.0
  0
LINE
  8
0
 10
66.830225
 20
546.842983
 30
0.0
 11
69.530225
 21
546.842983
 31
0.0
  0
LINE
  8
0
 10
66.830225
 20
530.642983
 30
0.0
 11
69.530225
 21
530.642983
 31
0.0
  0
LINE
  8
0
 10
62.130225
 20
550.042983
 30
0.0
 11
66.830225
 21
546.842983
 31
0.0
  0
LINE
  8
0
 10
66.830225
 20
530.642983
 30
0.0
 11
62.130225
 21
527.442983
 31
0.0
  0
LINE
  8
0
 10
61.761366
 20
543.06079
 30
0.0
 11
70.109268
 21
542.599228
 31
0.0
  0
LINE
  8
0
 10
61.154095
 20
532.077565
 30
0.0
 11
69.501996
 21
531.616003
 31
0.0
  0
INSERT
  8
0
  2
*X3
 10
-28.894732
 20
240.601994
 30
0.0
  0
LINE
  8
0
 10
40.030225
 20
531.377091
 30
0.0
 11
40.030225
 21
515.027091
 31
0.0
  0
LINE
  8
0
 10
30.030225
 20
531.377091
 30
0.0
 11
30.030225
 21
515.027091
 31
0.0
  0
LINE
  8
0
 10
28.630225
 20
531.377091
 30
0.0
 11
28.630225
 21
515.027091
 31
0.0
  0
INSERT
  8
0
  2
*X4
 10
-30.111619
 20
242.749736
 30
0.0
  0
INSERT
  8
0
  2
*X5
 10
-29.013467
 20
254.623165
 30
0.0
  0
LINE
  8
0
 10
552.549058
 20
319.832358
 30
0.0
 11
552.549058
 21
314.816619
 31
0.0
  0
LINE
  8
0
 10
553.349058
 20
319.777535
 30
0.0
 11
553.349058
 21
314.772912
 31
0.0
  0
LINE
  8
0
 10
555.249058
 20
319.777535
 30
0.0
 11
555.249058
 21
314.772912
 31
0.0
  0
LINE
  8
0
 10
556.049058
 20
319.832358
 30
0.0
 11
556.049058
 21
314.816619
 31
0.0
  0
CIRCLE
  8
0
 10
572.299058
 20
342.504673
 30
0.0
 40
4.75
  0
CIRCLE
  8
0
 10
572.299058
 20
342.504673
 30
0.0
 40
2.65
  0
CIRCLE
  8
0
 10
536.299058
 20
342.504673
 30
0.0
 40
2.65
  0
CIRCLE
  8
0
 10
536.299058
 20
342.504673
 30
0.0
 40
4.75
  0
LINE
  8
0
 10
555.249058
 20
396.473258
 30
0.0
 11
556.049058
 21
399.473258
 31
0.0
  0
LINE
  8
0
 10
553.349058
 20
396.473258
 30
0.0
 11
552.549058
 21
399.473258
 31
0.0
  0
LINE
  8
0
 10
553.349058
 20
396.473258
 30
0.0
 11
555.249058
 21
396.473258
 31
0.0
  0
LINE
  8
0
 10
524.299058
 20
380.473258
 30
0.0
 11
524.299058
 21
395.473258
 31
0.0
  0
LINE
  8
0
 10
584.299058
 20
380.473258
 30
0.0
 11
584.299058
 21
395.473258
 31
0.0
  0
LINE
  8
0
 10
524.299058
 20
380.473258
 30
0.0
 11
584.299058
 21
380.473258
 31
0.0
  0
LINE
  8
0
 10
526.549058
 20
399.473258
 30
0.0
 11
582.049058
 21
399.473258
 31
0.0
  0
LINE
  8
0
 10
526.549058
 20
395.473258
 30
0.0
 11
526.549058
 21
399.473258
 31
0.0
  0
LINE
  8
0
 10
582.049058
 20
395.473258
 30
0.0
 11
582.049058
 21
399.473258
 31
0.0
  0
LINE
  8
0
 10
524.299058
 20
395.473258
 30
0.0
 11
584.299058
 21
395.473258
 31
0.0
  0
LINE
  8
0
 10
378.756091
 20
397.791098
 30
0.0
 11
381.456091
 21
397.791098
 31
0.0
  0
LINE
  8
0
 10
378.756091
 20
413.991098
 30
0.0
 11
381.456091
 21
413.991098
 31
0.0
  0
LINE
  8
0
 10
378.756091
 20
413.991098
 30
0.0
 11
378.756091
 21
397.791098
 31
0.0
  0
LINE
  8
0
 10
381.456091
 20
413.991098
 30
0.0
 11
381.456091
 21
397.791098
 31
0.0
  0
LINE
  8
0
 10
373.456091
 20
415.691098
 30
0.0
 11
374.056091
 21
415.691098
 31
0.0
  0
LINE
  8
0
 10
373.456091
 20
396.091098
 30
0.0
 11
374.056091
 21
396.091098
 31
0.0
  0
LINE
  8
0
 10
374.056091
 20
415.691098
 30
0.0
 11
378.756091
 21
413.991098
 31
0.0
  0
LINE
  8
0
 10
374.056091
 20
396.091098
 30
0.0
 11
378.756091
 21
397.791098
 31
0.0
  0
ARC
  8
0
 10
348.819062
 20
405.891098
 30
0.0
 40
26.514585
 50
338.308563
 51
21.691437
  0
ARC
  8
0
 10
349.419062
 20
405.891098
 30
0.0
 40
26.514585
 50
338.308563
 51
21.691437
  0
CIRCLE
  8
0
 10
454.618434
 20
405.891098
 30
0.0
 40
16.0
  0
LINE
  8
0
 10
381.456091
 20
411.391098
 30
0.0
 11
439.593455
 21
411.391098
 31
0.0
  0
LINE
  8
0
 10
381.456091
 20
400.391098
 30
0.0
 11
439.593455
 21
400.391098
 31
0.0
  0
LINE
  8
0
 10
440.146345
 20
495.739131
 30
0.0
 11
444.030624
 21
481.250778
 31
0.0
  0
ARC
  8
0
 10
384.78239
 20
493.320013
 30
0.0
 40
14.0
 50
267.0
 51
285.007882
  0
ARC
  8
0
 10
384.78239
 20
493.320013
 30
0.0
 40
25.0
 50
267.0
 51
285.007882
  0
LINE
  8
0
 10
391.256188
 20
469.172758
 30
0.0
 11
443.51272
 21
483.182558
 31
0.0
  0
LINE
  8
0
 10
388.407717
 20
479.79755
 30
0.0
 11
440.664249
 21
493.807351
 31
0.0
  0
LINE
  8
0
 10
381.456091
 20
468.460029
 30
0.0
 11
383.473991
 21
468.354275
 31
0.0
  0
LINE
  8
0
 10
381.456091
 20
479.475124
 30
0.0
 11
384.049687
 21
479.3392
 31
0.0
  0
ARC
  8
0
 10
455.739695
 20
492.154798
 30
0.0
 40
16.0
 50
222.961068
 51
167.054695
  0
LINE
  8
0
 10
316.118434
 20
486.835575
 30
0.0
 11
375.118434
 21
486.835575
 31
0.0
  0
LINE
  8
0
 10
373.456091
 20
464.101467
 30
0.0
 11
374.056091
 21
464.101467
 31
0.0
  0
LINE
  8
0
 10
378.756091
 20
482.743846
 30
0.0
 11
375.933647
 21
486.693779
 31
0.0
  0
LINE
  8
0
 10
315.618434
 20
464.135575
 30
0.0
 11
375.618434
 21
464.135575
 31
0.0
  0
LINE
  8
0
 10
317.868434
 20
464.135575
 30
0.0
 11
317.868434
 21
464.935575
 31
0.0
  0
LINE
  8
0
 10
315.618434
 20
449.135575
 30
0.0
 11
375.618434
 21
449.135575
 31
0.0
  0
LINE
  8
0
 10
375.618434
 20
449.135575
 30
0.0
 11
375.618434
 21
464.135575
 31
0.0
  0
LINE
  8
0
 10
315.618434
 20
449.135575
 30
0.0
 11
315.618434
 21
464.135575
 31
0.0
  0
LINE
  8
0
 10
375.118434
 20
486.835575
 30
0.0
 11
373.818434
 21
488.135575
 31
0.0
  0
LINE
  8
0
 10
316.118434
 20
464.935575
 30
0.0
 11
373.456091
 21
464.935575
 31
0.0
  0
LINE
  8
0
 10
316.118434
 20
486.835575
 30
0.0
 11
317.418434
 21
488.135575
 31
0.0
  0
LINE
  8
0
 10
317.418434
 20
488.135575
 30
0.0
 11
373.818434
 21
488.135575
 31
0.0
  0
LINE
  8
0
 10
316.118434
 20
464.935575
 30
0.0
 11
316.118434
 21
486.835575
 31
0.0
  0
LINE
  8
0
 10
373.456091
 20
486.701467
 30
0.0
 11
375.933647
 21
486.693779
 31
0.0
  0
LINE
  8
0
 10
373.456091
 20
486.701467
 30
0.0
 11
373.456091
 21
464.101467
 31
0.0
  0
LINE
  8
0
 10
381.456091
 20
482.743846
 30
0.0
 11
381.456091
 21
466.543846
 31
0.0
  0
LINE
  8
0
 10
378.756091
 20
482.743846
 30
0.0
 11
378.756091
 21
466.543846
 31
0.0
  0
LINE
  8
0
 10
378.756091
 20
482.743846
 30
0.0
 11
381.456091
 21
482.743846
 31
0.0
  0
LINE
  8
0
 10
378.756091
 20
466.543846
 30
0.0
 11
381.456091
 21
466.543846
 31
0.0
  0
LINE
  8
0
 10
374.056091
 20
486.701467
 30
0.0
 11
374.056091
 21
464.101467
 31
0.0
  0
LINE
  8
0
 10
374.056091
 20
486.701467
 30
0.0
 11
378.756091
 21
482.743846
 31
0.0
  0
LINE
  8
0
 10
378.756091
 20
466.543846
 30
0.0
 11
374.056091
 21
464.101467
 31
0.0
  0
LINE
  8
0
 10
375.118434
 20
486.835575
 30
0.0
 11
375.118434
 21
486.696309
 31
0.0
  0
LINE
  8
0
 10
490.280087
 20
464.935575
 30
0.0
 11
490.280087
 21
486.835575
 31
0.0
  0
LINE
  8
0
 10
491.580087
 20
488.135575
 30
0.0
 11
547.980087
 21
488.135575
 31
0.0
  0
LINE
  8
0
 10
490.280087
 20
486.835575
 30
0.0
 11
491.580087
 21
488.135575
 31
0.0
  0
LINE
  8
0
 10
490.280087
 20
464.935575
 30
0.0
 11
549.280087
 21
464.935575
 31
0.0
  0
LINE
  8
0
 10
489.780087
 20
449.135575
 30
0.0
 11
489.780087
 21
464.135575
 31
0.0
  0
LINE
  8
0
 10
549.780087
 20
449.135575
 30
0.0
 11
549.780087
 21
464.135575
 31
0.0
  0
LINE
  8
0
 10
489.780087
 20
449.135575
 30
0.0
 11
549.780087
 21
449.135575
 31
0.0
  0
LINE
  8
0
 10
492.030087
 20
464.135575
 30
0.0
 11
492.030087
 21
464.935575
 31
0.0
  0
LINE
  8
0
 10
489.780087
 20
464.135575
 30
0.0
 11
549.780087
 21
464.135575
 31
0.0
  0
LINE
  8
0
 10
490.280087
 20
486.835575
 30
0.0
 11
549.280087
 21
486.835575
 31
0.0
  0
ARC
  8
0
 10
519.780087
 20
492.154798
 30
0.0
 40
16.0
 50
345.45138
 51
194.54862
  0
LINE
  8
0
 10
547.530087
 20
464.135575
 30
0.0
 11
547.530087
 21
464.935575
 31
0.0
  0
LINE
  8
0
 10
549.280087
 20
486.835575
 30
0.0
 11
547.980087
 21
488.135575
 31
0.0
  0
LINE
  8
0
 10
549.280087
 20
464.935575
 30
0.0
 11
549.280087
 21
486.835575
 31
0.0
  0
ARC
  8
0
 10
519.780087
 20
488.494954
 30
0.0
 40
5.312396
 50
356.121019
 51
183.878981
  0
ARC
  8
0
 10
519.780087
 20
488.494954
 30
0.0
 40
7.244177
 50
357.156419
 51
182.843581
  0
ARC
  8
0
 10
345.618434
 20
405.891098
 30
0.0
 40
30.0
 50
19.06658
 51
340.93342
  0
CIRCLE
  8
0
 10
345.618434
 20
405.891098
 30
0.0
 40
29.5
  0
CIRCLE
  8
0
 10
345.618434
 20
405.891098
 30
0.0
 40
22.63013
  0
CIRCLE
  8
0
 10
554.299058
 20
342.504673
 30
0.0
 40
30.0
  0
CIRCLE
  8
0
 10
554.299058
 20
342.504673
 30
0.0
 40
27.75
  0
CIRCLE
  8
0
 10
554.299058
 20
342.504673
 30
0.0
 40
22.75
  0
CIRCLE
  8
0
 10
554.299058
 20
342.504673
 30
0.0
 40
12.0
  0
ENDSEC
  0
EOF
