  0
SECTION
  2
HEADER
  9
$ACADVER
  1
AC1009
  9
$INSBASE
 10
0.0
 20
0.0
 30
0.0
  9
$EXTMIN
 10
-391.440473
 20
-709.775569
 30
0.0
  9
$EXTMAX
 10
1980.150299
 20
266.333696
 30
0.0
  9
$LIMMIN
 10
0.0
 20
0.0
  9
$LIMMAX
 10
12.0
 20
9.0
  9
$ORTHOMODE
 70
     1
  9
$REGENMODE
 70
     1
  9
$FILLMODE
 70
     1
  9
$QTEXTMODE
 70
     0
  9
$MIRRTEXT
 70
     1
  9
$DRAGMODE
 70
     2
  9
$LTSCALE
 40
3.0
  9
$OSMODE
 70
     0
  9
$ATTMODE
 70
     1
  9
$TEXTSIZE
 40
123.041605
  9
$TRACEWID
 40
0.05
  9
$TEXTSTYLE
  7
STANDARD
  9
$CLAYER
  8
0
  9
$CELTYPE
  6
BYLAYER
  9
$CECOLOR
 62
   256
  9
$DIMSCALE
 40
1.0
  9
$DIMASZ
 40
2.5
  9
$DIMEXO
 40
0.0
  9
$DIMDLI
 40
5.0
  9
$DIMRND
 40
0.0
  9
$DIMDLE
 40
0.0
  9
$DIMEXE
 40
1.0
  9
$DIMTP
 40
0.0
  9
$DIMTM
 40
0.0
  9
$DIMTXT
 40
2.5
  9
$DIMCEN
 40
0.09
  9
$DIMTSZ
 40
0.0
  9
$DIMTOL
 70
     0
  9
$DIMLIM
 70
     0
  9
$DIMTIH
 70
     0
  9
$DIMTOH
 70
     0
  9
$DIMSE1
 70
     0
  9
$DIMSE2
 70
     0
  9
$DIMTAD
 70
     1
  9
$DIMZIN
 70
     0
  9
$DIMBLK
  1

  9
$DIMASO
 70
     0
  9
$DIMSHO
 70
     0
  9
$DIMPOST
  1

  9
$DIMAPOST
  1

  9
$DIMALT
 70
     0
  9
$DIMALTD
 70
     2
  9
$DIMALTF
 40
25.4
  9
$DIMLFAC
 40
1.0
  9
$DIMTOFL
 70
     1
  9
$DIMTVP
 40
0.0
  9
$DIMTIX
 70
     0
  9
$DIMSOXD
 70
     0
  9
$DIMSAH
 70
     0
  9
$DIMBLK1
  1

  9
$DIMBLK2
  1

  9
$DIMSTYLE
  2
*UNNAMED
  9
$DIMCLRD
 70
     0
  9
$DIMCLRE
 70
     0
  9
$DIMCLRT
 70
     0
  9
$DIMTFAC
 40
1.0
  9
$DIMGAP
 40
0.09
  9
$LUNITS
 70
     2
  9
$LUPREC
 70
     4
  9
$SKETCHINC
 40
0.1
  9
$FILLETRAD
 40
29.0
  9
$AUNITS
 70
     0
  9
$AUPREC
 70
     0
  9
$MENU
  1
wiberger
  9
$ELEVATION
 40
0.0
  9
$PELEVATION
 40
0.0
  9
$THICKNESS
 40
0.0
  9
$LIMCHECK
 70
     0
  9
$BLIPMODE
 70
     1
  9
$CHAMFERA
 40
0.5
  9
$CHAMFERB
 40
0.5
  9
$SKPOLY
 70
     0
  9
$TDCREATE
 40
2450186.629146064
  9
$TDUPDATE
 40
2450211.560717361
  9
$TDINDWG
 40
0.0127675926
  9
$TDUSRTIMER
 40
0.0127675926
  9
$USRTIMER
 70
     1
  9
$ANGBASE
 50
0.0
  9
$ANGDIR
 70
     0
  9
$PDMODE
 70
     0
  9
$PDSIZE
 40
0.0
  9
$PLINEWID
 40
0.0
  9
$COORDS
 70
     0
  9
$SPLFRAME
 70
     0
  9
$SPLINETYPE
 70
     6
  9
$SPLINESEGS
 70
     8
  9
$ATTDIA
 70
     0
  9
$ATTREQ
 70
     1
  9
$HANDLING
 70
     0
  9
$HANDSEED
  5
0
  9
$SURFTAB1
 70
     6
  9
$SURFTAB2
 70
     6
  9
$SURFTYPE
 70
     6
  9
$SURFU
 70
     6
  9
$SURFV
 70
     6
  9
$UCSNAME
  2

  9
$UCSORG
 10
0.0
 20
0.0
 30
0.0
  9
$UCSXDIR
 10
1.0
 20
0.0
 30
0.0
  9
$UCSYDIR
 10
0.0
 20
1.0
 30
0.0
  9
$PUCSNAME
  2

  9
$PUCSORG
 10
0.0
 20
0.0
 30
0.0
  9
$PUCSXDIR
 10
1.0
 20
0.0
 30
0.0
  9
$PUCSYDIR
 10
0.0
 20
1.0
 30
0.0
  9
$USERI1
 70
     0
  9
$USERI2
 70
     0
  9
$USERI3
 70
     0
  9
$USERI4
 70
     0
  9
$USERI5
 70
     0
  9
$USERR1
 40
0.0
  9
$USERR2
 40
0.0
  9
$USERR3
 40
0.0
  9
$USERR4
 40
0.0
  9
$USERR5
 40
0.0
  9
$WORLDVIEW
 70
     1
  9
$SHADEDGE
 70
     3
  9
$SHADEDIF
 70
    70
  9
$TILEMODE
 70
     1
  9
$MAXACTVP
 70
    16
  9
$PINSBASE
 10
0.0
 20
0.0
 30
0.0
  9
$PLIMCHECK
 70
     0
  9
$PEXTMIN
 10
1.000000E+20
 20
1.000000E+20
 30
1.000000E+20
  9
$PEXTMAX
 10
-1.000000E+20
 20
-1.000000E+20
 30
-1.000000E+20
  9
$PLIMMIN
 10
0.0
 20
0.0
  9
$PLIMMAX
 10
12.0
 20
9.0
  9
$UNITMODE
 70
     0
  9
$VISRETAIN
 70
     0
  9
$PLINEGEN
 70
     0
  9
$PSLTSCALE
 70
     0
  9
$TREEDEPTH
 70
  3020
  9
$DWGCODEPAGE
  3
undefined
  0
ENDSEC
  0
SECTION
  2
TABLES
  0
TABLE
  2
VPORT
 70
     2
  0
VPORT
  2
*ACTIVE
 70
     0
 10
0.0
 20
0.0
 11
1.0
 21
1.0
 12
1155.314046
 22
-208.343055
 13
0.0
 23
0.0
 14
1.0
 24
1.0
 15
0.0
 25
0.0
 16
0.0
 26
0.0
 36
1.0
 17
0.0
 27
0.0
 37
0.0
 40
1899.296081
 41
1.767507
 42
50.0
 43
0.0
 44
0.0
 50
0.0
 51
0.0
 71
     0
 72
   100
 73
     1
 74
     0
 75
     0
 76
     0
 77
     0
 78
     0
  0
ENDTAB
  0
TABLE
  2
LTYPE
 70
     2
  0
LTYPE
  2
CONTINUOUS
 70
    64
  3
Solid line
 72
    65
 73
     0
 40
0.0
  0
LTYPE
  2
CENTER
 70
     0
  3
____ _ ____ _ ____ _ ____ _ ____ _ ____ _ ____
 72
    65
 73
     4
 40
2.0
 49
1.25
 49
-0.25
 49
0.25
 49
-0.25
  0
ENDTAB
  0
TABLE
  2
LAYER
 70
     1
  0
LAYER
  2
0
 70
    64
 62
     7
  6
CONTINUOUS
  0
ENDTAB
  0
TABLE
  2
STYLE
 70
     1
  0
STYLE
  2
STANDARD
 70
     0
 40
0.0
 41
1.0
 50
0.0
 71
     0
 42
123.041605
  3
txt
  4

  0
ENDTAB
  0
TABLE
  2
VIEW
 70
     0
  0
ENDTAB
  0
TABLE
  2
UCS
 70
     0
  0
ENDTAB
  0
TABLE
  2
APPID
 70
     1
  0
APPID
  2
ACAD
 70
    64
  0
ENDTAB
  0
TABLE
  2
DIMSTYLE
 70
     0
  0
ENDTAB
  0
ENDSEC
  0
SECTION
  2
BLOCKS
  0
BLOCK
  8
0
  2
*X0
 70
    65
 10
0.0
 20
0.0
 30
0.0
  3
*X
  0
LINE
  8
0
 62
     0
 10
-328.912381
 20
150.721472
 30
0.0
 11
-329.236669
 21
151.04576
 31
0.0
  0
LINE
  8
0
 62
     0
 10
-349.757551
 20
171.566642
 30
0.0
 11
-354.912381
 21
176.721472
 31
0.0
  0
LINE
  8
0
 62
     0
 10
-341.236669
 20
163.04576
 30
0.0
 11
-347.094821
 21
168.903912
 31
0.0
  0
LINE
  8
0
 62
     0
 10
-341.236669
 20
160.217333
 30
0.0
 11
-346.923148
 21
165.903812
 31
0.0
  0
LINE
  8
0
 62
     0
 10
-354.204555
 20
173.185219
 30
0.0
 11
-356.368504
 21
175.349168
 31
0.0
  0
LINE
  8
0
 62
     0
 10
-341.236669
 20
157.388905
 30
0.0
 11
-348.461089
 21
164.613326
 31
0.0
  0
LINE
  8
0
 62
     0
 10
-341.236669
 20
154.560478
 30
0.0
 11
-349.99903
 21
163.32284
 31
0.0
  0
LINE
  8
0
 62
     0
 10
-341.236669
 20
151.732051
 30
0.0
 11
-354.160311
 21
164.655693
 31
0.0
  0
LINE
  8
0
 62
     0
 10
-343.054517
 20
150.721472
 30
0.0
 11
-349.236669
 21
156.903624
 31
0.0
  0
LINE
  8
0
 62
     0
 10
-352.054517
 20
159.721472
 30
0.0
 11
-358.607315
 21
166.274271
 31
0.0
  0
LINE
  8
0
 62
     0
 10
-345.882944
 20
150.721472
 30
0.0
 11
-349.236669
 21
154.075197
 31
0.0
  0
LINE
  8
0
 62
     0
 10
-354.882944
 20
159.721472
 30
0.0
 11
-360.142279
 21
164.980807
 31
0.0
  0
LINE
  8
0
 62
     0
 10
-357.711371
 20
159.721472
 30
0.0
 11
-360.236669
 21
162.24677
 31
0.0
  0
LINE
  8
0
 62
     0
 10
-326.083954
 20
150.721472
 30
0.0
 11
-329.236669
 21
153.874187
 31
0.0
  0
LINE
  8
0
 62
     0
 10
-341.236669
 20
165.874187
 30
0.0
 11
-352.083954
 21
176.721472
 31
0.0
  0
LINE
  8
0
 62
     0
 10
-325.912844
 20
153.37879
 30
0.0
 11
-329.236669
 21
156.702614
 31
0.0
  0
LINE
  8
0
 62
     0
 10
-341.236669
 20
168.702614
 30
0.0
 11
-349.255527
 21
176.721472
 31
0.0
  0
LINE
  8
0
 62
     0
 10
-325.890807
 20
156.18518
 30
0.0
 11
-329.236669
 21
159.531041
 31
0.0
  0
LINE
  8
0
 62
     0
 10
-341.236669
 20
171.531041
 30
0.0
 11
-346.4271
 21
176.721472
 31
0.0
  0
LINE
  8
0
 62
     0
 10
-325.541676
 20
158.664476
 30
0.0
 11
-329.236669
 21
162.359468
 31
0.0
  0
LINE
  8
0
 62
     0
 10
-341.236669
 20
174.359468
 30
0.0
 11
-343.598673
 21
176.721472
 31
0.0
  0
LINE
  8
0
 62
     0
 10
-326.04061
 20
161.991836
 30
0.0
 11
-329.236669
 21
165.187895
 31
0.0
  0
LINE
  8
0
 62
     0
 10
-327.013383
 20
165.793037
 30
0.0
 11
-329.236669
 21
168.016322
 31
0.0
  0
LINE
  8
0
 62
     0
 10
-326.530508
 20
168.138589
 30
0.0
 11
-329.236669
 21
170.84475
 31
0.0
  0
LINE
  8
0
 62
     0
 10
-326.047633
 20
170.484141
 30
0.0
 11
-329.236669
 21
173.673177
 31
0.0
  0
LINE
  8
0
 62
     0
 10
-326.41269
 20
173.677625
 30
0.0
 11
-329.236669
 21
176.501604
 31
0.0
  0
ENDBLK
  8
0
  0
BLOCK
  8
0
  2
*X1
 70
    65
 10
0.0
 20
0.0
 30
0.0
  3
*X
  0
LINE
  8
0
 62
     0
 10
-347.264668
 20
158.80564
 30
0.0
 11
-335.569451
 21
163.062351
 31
0.0
  0
LINE
  8
0
 62
     0
 10
-350.188473
 20
159.869818
 30
0.0
 11
-338.493255
 21
164.126529
 31
0.0
  0
LINE
  8
0
 62
     0
 10
-353.112277
 20
160.933996
 30
0.0
 11
-341.417059
 21
165.190707
 31
0.0
  0
LINE
  8
0
 62
     0
 10
-355.232753
 20
162.290562
 30
0.0
 11
-344.340864
 21
166.254885
 31
0.0
  0
LINE
  8
0
 62
     0
 10
-353.620684
 20
165.005662
 30
0.0
 11
-347.264668
 21
167.319063
 31
0.0
  0
LINE
  8
0
 62
     0
 10
-353.223322
 20
167.278645
 30
0.0
 11
-350.188473
 21
168.38324
 31
0.0
  0
LINE
  8
0
 62
     0
 10
-344.340864
 20
157.741463
 30
0.0
 11
-332.645646
 21
161.998174
 31
0.0
  0
LINE
  8
0
 62
     0
 10
-341.417059
 20
156.677285
 30
0.0
 11
-331.906823
 21
160.138728
 31
0.0
  0
LINE
  8
0
 62
     0
 10
-338.493255
 20
155.613107
 30
0.0
 11
-332.799774
 21
157.685365
 31
0.0
  0
LINE
  8
0
 62
     0
 10
-335.569451
 20
154.548929
 30
0.0
 11
-333.692725
 21
155.232001
 31
0.0
  0
ENDBLK
  8
0
  0
BLOCK
  8
0
  2
*X2
 70
    65
 10
0.0
 20
0.0
 30
0.0
  3
*X
  0
LINE
  8
0
 62
     0
 10
115.011226
 20
165.00306
 30
0.0
 11
110.458905
 21
169.55538
 31
0.0
  0
LINE
  8
0
 62
     0
 10
101.561571
 20
178.452714
 30
0.0
 11
98.987277
 21
181.027008
 31
0.0
  0
LINE
  8
0
 62
     0
 10
115.011226
 20
162.174632
 30
0.0
 11
108.920964
 21
168.264895
 31
0.0
  0
LINE
  8
0
 62
     0
 10
115.011226
 20
159.346205
 30
0.0
 11
107.383023
 21
166.974409
 31
0.0
  0
LINE
  8
0
 62
     0
 10
115.011226
 20
156.517778
 30
0.0
 11
104.95213
 21
166.576874
 31
0.0
  0
LINE
  8
0
 62
     0
 10
114.971418
 20
153.729159
 30
0.0
 11
107.011226
 21
161.689351
 31
0.0
  0
LINE
  8
0
 62
     0
 10
104.971418
 20
163.729159
 30
0.0
 11
100.505125
 21
168.195451
 31
0.0
  0
LINE
  8
0
 62
     0
 10
112.142991
 20
153.729159
 30
0.0
 11
107.011226
 21
158.860924
 31
0.0
  0
LINE
  8
0
 62
     0
 10
102.142991
 20
163.729159
 30
0.0
 11
96.058121
 21
169.814029
 31
0.0
  0
LINE
  8
0
 62
     0
 10
109.314564
 20
153.729159
 30
0.0
 11
107.011226
 21
156.032497
 31
0.0
  0
LINE
  8
0
 62
     0
 10
99.314564
 20
163.729159
 30
0.0
 11
94.511226
 21
168.532497
 31
0.0
  0
LINE
  8
0
 62
     0
 10
96.486137
 20
163.729159
 30
0.0
 11
94.511226
 21
165.70407
 31
0.0
  0
LINE
  8
0
 62
     0
 10
129.113554
 20
153.729159
 30
0.0
 11
129.011226
 21
153.831487
 31
0.0
  0
LINE
  8
0
 62
     0
 10
106.008575
 20
176.834137
 30
0.0
 11
101.113554
 21
181.729159
 31
0.0
  0
LINE
  8
0
 62
     0
 10
115.011226
 20
167.831487
 30
0.0
 11
110.245063
 21
172.597649
 31
0.0
  0
LINE
  8
0
 62
     0
 10
131.941981
 20
153.729159
 30
0.0
 11
129.011226
 21
156.659914
 31
0.0
  0
LINE
  8
0
 62
     0
 10
115.011226
 20
170.659914
 30
0.0
 11
103.941981
 21
181.729159
 31
0.0
  0
LINE
  8
0
 62
     0
 10
131.760017
 20
156.739549
 30
0.0
 11
129.011226
 21
159.488341
 31
0.0
  0
LINE
  8
0
 62
     0
 10
115.011226
 20
173.488341
 30
0.0
 11
106.770408
 21
181.729159
 31
0.0
  0
LINE
  8
0
 62
     0
 10
131.746819
 20
159.581175
 30
0.0
 11
129.011226
 21
162.316768
 31
0.0
  0
LINE
  8
0
 62
     0
 10
115.011226
 20
176.316768
 30
0.0
 11
109.598835
 21
181.729159
 31
0.0
  0
LINE
  8
0
 62
     0
 10
132.174716
 20
161.981705
 30
0.0
 11
129.011226
 21
165.145195
 31
0.0
  0
LINE
  8
0
 62
     0
 10
115.011226
 20
179.145195
 30
0.0
 11
112.427262
 21
181.729159
 31
0.0
  0
LINE
  8
0
 62
     0
 10
132.368789
 20
164.616059
 30
0.0
 11
129.011226
 21
167.973622
 31
0.0
  0
LINE
  8
0
 62
     0
 10
131.937214
 20
167.876062
 30
0.0
 11
129.011226
 21
170.802049
 31
0.0
  0
LINE
  8
0
 62
     0
 10
132.039969
 20
170.601733
 30
0.0
 11
129.011226
 21
173.630477
 31
0.0
  0
LINE
  8
0
 62
     0
 10
132.533765
 20
172.936365
 30
0.0
 11
129.011226
 21
176.458904
 31
0.0
  0
LINE
  8
0
 62
     0
 10
133.02756
 20
175.270997
 30
0.0
 11
129.011226
 21
179.287331
 31
0.0
  0
LINE
  8
0
 62
     0
 10
132.705945
 20
178.421038
 30
0.0
 11
129.397825
 21
181.729159
 31
0.0
  0
ENDBLK
  8
0
  0
BLOCK
  8
0
  2
*X3
 70
    65
 10
0.0
 20
0.0
 30
0.0
  3
*X
  0
LINE
  8
0
 62
     0
 10
120.024114
 20
169.258182
 30
0.0
 11
134.643136
 21
174.579071
 31
0.0
  0
LINE
  8
0
 62
     0
 10
117.100309
 20
170.32236
 30
0.0
 11
131.719331
 21
175.643249
 31
0.0
  0
LINE
  8
0
 62
     0
 10
114.176505
 20
171.386537
 30
0.0
 11
128.795527
 21
176.707426
 31
0.0
  0
LINE
  8
0
 62
     0
 10
114.90041
 20
173.778373
 30
0.0
 11
125.871722
 21
177.771604
 31
0.0
  0
LINE
  8
0
 62
     0
 10
115.553964
 20
176.144603
 30
0.0
 11
122.947918
 21
178.835782
 31
0.0
  0
LINE
  8
0
 62
     0
 10
115.723122
 20
178.334527
 30
0.0
 11
120.024114
 21
179.89996
 31
0.0
  0
LINE
  8
0
 62
     0
 10
122.947918
 20
168.194004
 30
0.0
 11
137.170037
 21
173.370432
 31
0.0
  0
LINE
  8
0
 62
     0
 10
125.871722
 20
167.129826
 30
0.0
 11
136.277085
 21
170.917069
 31
0.0
  0
LINE
  8
0
 62
     0
 10
128.795527
 20
166.065649
 30
0.0
 11
135.384134
 21
168.463706
 31
0.0
  0
LINE
  8
0
 62
     0
 10
131.719331
 20
165.001471
 30
0.0
 11
134.491183
 21
166.010342
 31
0.0
  0
ENDBLK
  8
0
  0
BLOCK
  8
0
  2
*X4
 70
    65
 10
0.0
 20
0.0
 30
0.0
  3
*X
  0
LINE
  8
0
 62
     0
 10
717.545855
 20
191.086358
 30
0.0
 11
711.252596
 21
197.379618
 31
0.0
  0
LINE
  8
0
 62
     0
 10
702.709733
 20
205.922481
 30
0.0
 11
699.704333
 21
208.927881
 31
0.0
  0
LINE
  8
0
 62
     0
 10
717.545855
 20
187.550824
 30
0.0
 11
709.33017
 21
195.76651
 31
0.0
  0
LINE
  8
0
 62
     0
 10
717.545855
 20
184.015291
 30
0.0
 11
707.407743
 21
194.153403
 31
0.0
  0
LINE
  8
0
 62
     0
 10
717.545855
 20
180.479757
 30
0.0
 11
709.045855
 21
188.979757
 31
0.0
  0
LINE
  8
0
 62
     0
 10
706.826354
 20
191.199258
 30
0.0
 11
702.765039
 21
195.260573
 31
0.0
  0
LINE
  8
0
 62
     0
 10
714.29082
 20
180.199258
 30
0.0
 11
709.045855
 21
185.444223
 31
0.0
  0
LINE
  8
0
 62
     0
 10
703.29082
 20
191.199258
 30
0.0
 11
697.206283
 21
197.283795
 31
0.0
  0
LINE
  8
0
 62
     0
 10
710.755286
 20
180.199258
 30
0.0
 11
709.045855
 21
181.908689
 31
0.0
  0
LINE
  8
0
 62
     0
 10
699.755286
 20
191.199258
 30
0.0
 11
695.045855
 21
195.908689
 31
0.0
  0
LINE
  8
0
 62
     0
 10
696.219752
 20
191.199258
 30
0.0
 11
695.045855
 21
192.373155
 31
0.0
  0
LINE
  8
0
 62
     0
 10
717.545855
 20
194.621892
 30
0.0
 11
710.626203
 21
201.541545
 31
0.0
  0
LINE
  8
0
 62
     0
 10
708.268489
 20
203.899259
 30
0.0
 11
701.968489
 21
210.199258
 31
0.0
  0
LINE
  8
0
 62
     0
 10
735.504023
 20
180.199258
 30
0.0
 11
732.545855
 21
183.157426
 31
0.0
  0
LINE
  8
0
 62
     0
 10
717.545855
 20
198.157426
 30
0.0
 11
705.504023
 21
210.199258
 31
0.0
  0
LINE
  8
0
 62
     0
 10
735.974328
 20
183.264488
 30
0.0
 11
732.545855
 21
186.69296
 31
0.0
  0
LINE
  8
0
 62
     0
 10
717.545855
 20
201.69296
 30
0.0
 11
709.039557
 21
210.199258
 31
0.0
  0
LINE
  8
0
 62
     0
 10
735.500762
 20
187.273587
 30
0.0
 11
732.545855
 21
190.228494
 31
0.0
  0
LINE
  8
0
 62
     0
 10
717.545855
 20
205.228494
 30
0.0
 11
712.575091
 21
210.199258
 31
0.0
  0
LINE
  8
0
 62
     0
 10
736.083556
 20
190.226327
 30
0.0
 11
732.545855
 21
193.764028
 31
0.0
  0
LINE
  8
0
 62
     0
 10
717.545855
 20
208.764028
 30
0.0
 11
716.110625
 21
210.199258
 31
0.0
  0
LINE
  8
0
 62
     0
 10
735.90138
 20
193.944038
 30
0.0
 11
732.545855
 21
197.299562
 31
0.0
  0
LINE
  8
0
 62
     0
 10
735.343276
 20
198.037675
 30
0.0
 11
732.545855
 21
200.835096
 31
0.0
  0
LINE
  8
0
 62
     0
 10
735.73682
 20
201.179665
 30
0.0
 11
732.545855
 21
204.37063
 31
0.0
  0
LINE
  8
0
 62
     0
 10
736.019234
 20
204.432785
 30
0.0
 11
732.545855
 21
207.906164
 31
0.0
  0
LINE
  8
0
 62
     0
 10
735.49502
 20
208.492533
 30
0.0
 11
733.788294
 21
210.199258
 31
0.0
  0
ENDBLK
  8
0
  0
BLOCK
  8
0
  2
*X5
 70
    65
 10
0.0
 20
0.0
 30
0.0
  3
*X
  0
LINE
  8
0
 62
     0
 10
714.690575
 20
196.27543
 30
0.0
 11
729.309597
 21
201.596319
 31
0.0
  0
LINE
  8
0
 62
     0
 10
713.650851
 20
198.557445
 30
0.0
 11
725.654842
 21
202.926541
 31
0.0
  0
LINE
  8
0
 62
     0
 10
715.247354
 20
201.79897
 30
0.0
 11
722.000086
 21
204.256763
 31
0.0
  0
LINE
  8
0
 62
     0
 10
716.057176
 20
204.754165
 30
0.0
 11
718.345331
 21
205.586985
 31
0.0
  0
LINE
  8
0
 62
     0
 10
718.345331
 20
194.945208
 30
0.0
 11
732.964353
 21
200.266096
 31
0.0
  0
LINE
  8
0
 62
     0
 10
722.000086
 20
193.614985
 30
0.0
 11
733.739283
 21
197.887703
 31
0.0
  0
LINE
  8
0
 62
     0
 10
725.654842
 20
192.284763
 30
0.0
 11
732.623094
 21
194.820999
 31
0.0
  0
LINE
  8
0
 62
     0
 10
729.309597
 20
190.954541
 30
0.0
 11
731.506905
 21
191.754295
 31
0.0
  0
ENDBLK
  8
0
  0
BLOCK
  8
0
  2
*X6
 70
    65
 10
0.0
 20
0.0
 30
0.0
  3
*X
  0
LINE
  8
0
 62
     0
 10
-338.03738
 20
-167.543969
 30
0.0
 11
-344.105062
 21
-161.476287
 31
0.0
  0
LINE
  8
0
 62
     0
 10
-350.205925
 20
-155.375424
 30
0.0
 11
-355.551147
 21
-150.030202
 31
0.0
  0
LINE
  8
0
 62
     0
 10
-338.03738
 20
-171.079503
 30
0.0
 11
-344.356826
 21
-164.760056
 31
0.0
  0
LINE
  8
0
 62
     0
 10
-355.76468
 20
-153.352202
 30
0.0
 11
-357.613881
 21
-151.503001
 31
0.0
  0
LINE
  8
0
 62
     0
 10
-338.03738
 20
-174.615037
 30
0.0
 11
-346.279253
 21
-166.373163
 31
0.0
  0
LINE
  8
0
 62
     0
 10
-338.03738
 20
-178.150571
 30
0.0
 11
-348.201679
 21
-167.986271
 31
0.0
  0
LINE
  8
0
 62
     0
 10
-338.03738
 20
-181.686105
 30
0.0
 11
-347.53738
 21
-172.186105
 31
0.0
  0
LINE
  8
0
 62
     0
 10
-349.693283
 20
-170.030202
 30
0.0
 11
-352.36306
 21
-167.360424
 31
0.0
  0
LINE
  8
0
 62
     0
 10
-341.228817
 20
-182.030202
 30
0.0
 11
-347.53738
 21
-175.721638
 31
0.0
  0
LINE
  8
0
 62
     0
 10
-353.228817
 20
-170.030202
 30
0.0
 11
-357.921816
 21
-165.337202
 31
0.0
  0
LINE
  8
0
 62
     0
 10
-344.76435
 20
-182.030202
 30
0.0
 11
-347.53738
 21
-179.257172
 31
0.0
  0
LINE
  8
0
 62
     0
 10
-356.76435
 20
-170.030202
 30
0.0
 11
-362.3311
 21
-164.463452
 31
0.0
  0
LINE
  8
0
 62
     0
 10
-360.299884
 20
-170.030202
 30
0.0
 11
-362.53738
 21
-167.792706
 31
0.0
  0
LINE
  8
0
 62
     0
 10
-320.015613
 20
-182.030202
 30
0.0
 11
-322.03738
 21
-180.008435
 31
0.0
  0
LINE
  8
0
 62
     0
 10
-338.03738
 20
-164.008435
 30
0.0
 11
-352.015613
 21
-150.030202
 31
0.0
  0
LINE
  8
0
 62
     0
 10
-318.977192
 20
-179.533089
 30
0.0
 11
-322.03738
 21
-176.472901
 31
0.0
  0
LINE
  8
0
 62
     0
 10
-338.03738
 20
-160.472901
 30
0.0
 11
-348.480079
 21
-150.030202
 31
0.0
  0
LINE
  8
0
 62
     0
 10
-318.674344
 20
-176.300403
 30
0.0
 11
-322.03738
 21
-172.937367
 31
0.0
  0
LINE
  8
0
 62
     0
 10
-338.03738
 20
-156.937367
 30
0.0
 11
-344.944545
 21
-150.030202
 31
0.0
  0
LINE
  8
0
 62
     0
 10
-319.25911
 20
-172.180103
 30
0.0
 11
-322.03738
 21
-169.401833
 31
0.0
  0
LINE
  8
0
 62
     0
 10
-338.03738
 20
-153.401833
 30
0.0
 11
-341.409011
 21
-150.030202
 31
0.0
  0
LINE
  8
0
 62
     0
 10
-319.443355
 20
-168.460324
 30
0.0
 11
-322.03738
 21
-165.866299
 31
0.0
  0
LINE
  8
0
 62
     0
 10
-319.079635
 20
-165.28851
 30
0.0
 11
-322.03738
 21
-162.330766
 31
0.0
  0
LINE
  8
0
 62
     0
 10
-318.882657
 20
-161.949955
 30
0.0
 11
-322.03738
 21
-158.795232
 31
0.0
  0
LINE
  8
0
 62
     0
 10
-319.249911
 20
-158.047167
 30
0.0
 11
-322.03738
 21
-155.259698
 31
0.0
  0
LINE
  8
0
 62
     0
 10
-319.251916
 20
-154.509627
 30
0.0
 11
-322.03738
 21
-151.724164
 31
0.0
  0
LINE
  8
0
 62
     0
 10
-318.773863
 20
-151.452146
 30
0.0
 11
-320.195808
 21
-150.030202
 31
0.0
  0
ENDBLK
  8
0
  0
BLOCK
  8
0
  2
*X7
 70
    65
 10
0.0
 20
0.0
 30
0.0
  3
*X
  0
LINE
  8
0
 62
     0
 10
-338.94905
 20
-160.613587
 30
0.0
 11
-321.406223
 21
-154.22852
 31
0.0
  0
LINE
  8
0
 62
     0
 10
-339.611031
 20
-158.194084
 30
0.0
 11
-325.060979
 21
-152.898298
 31
0.0
  0
LINE
  8
0
 62
     0
 10
-337.644051
 20
-154.817718
 30
0.0
 11
-328.715734
 21
-151.568076
 31
0.0
  0
LINE
  8
0
 62
     0
 10
-337.201927
 20
-151.996353
 30
0.0
 11
-332.37049
 21
-150.237854
 31
0.0
  0
LINE
  8
0
 62
     0
 10
-335.294294
 20
-161.943809
 30
0.0
 11
-317.751468
 21
-155.558743
 31
0.0
  0
LINE
  8
0
 62
     0
 10
-331.639539
 20
-163.274031
 30
0.0
 11
-314.096712
 21
-156.888965
 31
0.0
  0
LINE
  8
0
 62
     0
 10
-327.984783
 20
-164.604254
 30
0.0
 11
-314.391365
 21
-159.656654
 31
0.0
  0
LINE
  8
0
 62
     0
 10
-324.330028
 20
-165.934476
 30
0.0
 11
-315.507554
 21
-162.723358
 31
0.0
  0
LINE
  8
0
 62
     0
 10
-320.675272
 20
-167.264698
 30
0.0
 11
-316.623743
 21
-165.790062
 31
0.0
  0
ENDBLK
  8
0
  0
BLOCK
  8
0
  2
*X8
 70
    65
 10
0.0
 20
0.0
 30
0.0
  3
*X
  0
LINE
  8
0
 62
     0
 10
259.148045
 20
-181.366299
 30
0.0
 11
250.708866
 21
-172.927121
 31
0.0
  0
LINE
  8
0
 62
     0
 10
239.676072
 20
-161.894326
 30
0.0
 11
237.350837
 21
-159.569091
 31
0.0
  0
LINE
  8
0
 62
     0
 10
259.148045
 20
-184.901833
 30
0.0
 11
248.78644
 21
-174.540228
 31
0.0
  0
LINE
  8
0
 62
     0
 10
259.148045
 20
-188.437367
 30
0.0
 11
246.864013
 21
-176.153335
 31
0.0
  0
LINE
  8
0
 62
     0
 10
259.148045
 20
-191.9729
 30
0.0
 11
248.148045
 21
-180.9729
 31
0.0
  0
LINE
  8
0
 62
     0
 10
247.03879
 20
-179.863646
 30
0.0
 11
243.077692
 21
-175.902547
 31
0.0
  0
LINE
  8
0
 62
     0
 10
257.503256
 20
-193.863646
 30
0.0
 11
248.148045
 21
-184.508434
 31
0.0
  0
LINE
  8
0
 62
     0
 10
243.503256
 20
-179.863646
 30
0.0
 11
237.518936
 21
-173.879326
 31
0.0
  0
LINE
  8
0
 62
     0
 10
253.967722
 20
-193.863646
 30
0.0
 11
248.148045
 21
-188.043968
 31
0.0
  0
LINE
  8
0
 62
     0
 10
239.967722
 20
-179.863646
 30
0.0
 11
232.633619
 21
-172.529542
 31
0.0
  0
LINE
  8
0
 62
     0
 10
250.432188
 20
-193.863646
 30
0.0
 11
248.148045
 21
-191.579502
 31
0.0
  0
LINE
  8
0
 62
     0
 10
236.432188
 20
-179.863646
 30
0.0
 11
232.148045
 21
-175.579502
 31
0.0
  0
LINE
  8
0
 62
     0
 10
259.148045
 20
-177.830765
 30
0.0
 11
250.684283
 21
-169.367003
 31
0.0
  0
LINE
  8
0
 62
     0
 10
245.234827
 20
-163.917547
 30
0.0
 11
239.391617
 21
-158.074337
 31
0.0
  0
LINE
  8
0
 62
     0
 10
278.716459
 20
-193.863646
 30
0.0
 11
277.148045
 21
-192.295231
 31
0.0
  0
LINE
  8
0
 62
     0
 10
259.148045
 20
-174.295231
 30
0.0
 11
242.716459
 21
-157.863646
 31
0.0
  0
LINE
  8
0
 62
     0
 10
281.113536
 20
-192.725188
 30
0.0
 11
277.148045
 21
-188.759697
 31
0.0
  0
LINE
  8
0
 62
     0
 10
259.148045
 20
-170.759697
 30
0.0
 11
246.251993
 21
-157.863646
 31
0.0
  0
LINE
  8
0
 62
     0
 10
281.466061
 20
-189.54218
 30
0.0
 11
277.148045
 21
-185.224163
 31
0.0
  0
LINE
  8
0
 62
     0
 10
259.148045
 20
-167.224163
 30
0.0
 11
249.787527
 21
-157.863646
 31
0.0
  0
LINE
  8
0
 62
     0
 10
281.643056
 20
-186.183641
 30
0.0
 11
277.148045
 21
-181.688629
 31
0.0
  0
LINE
  8
0
 62
     0
 10
259.148045
 20
-163.688629
 30
0.0
 11
253.323061
 21
-157.863646
 31
0.0
  0
LINE
  8
0
 62
     0
 10
280.880741
 20
-181.885792
 30
0.0
 11
277.148045
 21
-178.153095
 31
0.0
  0
LINE
  8
0
 62
     0
 10
259.148045
 20
-160.153095
 30
0.0
 11
256.858595
 21
-157.863646
 31
0.0
  0
LINE
  8
0
 62
     0
 10
280.760792
 20
-178.230309
 30
0.0
 11
277.148045
 21
-174.617561
 31
0.0
  0
LINE
  8
0
 62
     0
 10
281.211638
 20
-175.14562
 30
0.0
 11
277.148045
 21
-171.082028
 31
0.0
  0
LINE
  8
0
 62
     0
 10
281.452438
 20
-171.850887
 30
0.0
 11
277.148045
 21
-167.546494
 31
0.0
  0
LINE
  8
0
 62
     0
 10
280.166591
 20
-167.029506
 30
0.0
 11
277.148045
 21
-164.01096
 31
0.0
  0
LINE
  8
0
 62
     0
 10
280.400893
 20
-163.728274
 30
0.0
 11
277.148045
 21
-160.475426
 31
0.0
  0
LINE
  8
0
 62
     0
 10
280.869832
 20
-160.661679
 30
0.0
 11
278.071798
 21
-157.863646
 31
0.0
  0
ENDBLK
  8
0
  0
BLOCK
  8
0
  2
*X9
 70
    65
 10
0.0
 20
0.0
 30
0.0
  3
*X
  0
LINE
  8
0
 62
     0
 10
253.733322
 20
-176.353511
 30
0.0
 11
271.276148
 21
-169.968444
 31
0.0
  0
LINE
  8
0
 62
     0
 10
250.078566
 20
-175.023289
 30
0.0
 11
267.621393
 21
-168.638222
 31
0.0
  0
LINE
  8
0
 62
     0
 10
250.070489
 20
-172.365784
 30
0.0
 11
263.966637
 21
-167.308
 31
0.0
  0
LINE
  8
0
 62
     0
 10
251.042394
 20
-169.351595
 30
0.0
 11
260.311882
 21
-165.977778
 31
0.0
  0
LINE
  8
0
 62
     0
 10
253.049451
 20
-165.960642
 30
0.0
 11
256.657126
 21
-164.647556
 31
0.0
  0
LINE
  8
0
 62
     0
 10
257.388077
 20
-177.683733
 30
0.0
 11
274.930904
 21
-171.298667
 31
0.0
  0
LINE
  8
0
 62
     0
 10
261.042833
 20
-179.013955
 30
0.0
 11
278.585659
 21
-172.628889
 31
0.0
  0
LINE
  8
0
 62
     0
 10
264.697588
 20
-180.344178
 30
0.0
 11
281.04723
 21
-174.393395
 31
0.0
  0
LINE
  8
0
 62
     0
 10
268.352344
 20
-181.6744
 30
0.0
 11
279.931041
 21
-177.460099
 31
0.0
  0
LINE
  8
0
 62
     0
 10
272.007099
 20
-183.004622
 30
0.0
 11
278.814852
 21
-180.526803
 31
0.0
  0
LINE
  8
0
 62
     0
 10
275.661855
 20
-184.334844
 30
0.0
 11
277.698663
 21
-183.593507
 31
0.0
  0
ENDBLK
  8
0
  0
BLOCK
  8
0
  2
*X10
 70
    65
 10
0.0
 20
0.0
 30
0.0
  3
*X
  0
LINE
  8
0
 62
     0
 10
906.744393
 20
-185.495477
 30
0.0
 11
898.598855
 21
-177.349938
 31
0.0
  0
LINE
  8
0
 62
     0
 10
887.034196
 20
-165.78528
 30
0.0
 11
883.256101
 21
-162.007184
 31
0.0
  0
LINE
  8
0
 62
     0
 10
906.744393
 20
-189.738117
 30
0.0
 11
896.354493
 21
-179.348217
 31
0.0
  0
LINE
  8
0
 62
     0
 10
906.744393
 20
-193.980758
 30
0.0
 11
894.047581
 21
-181.283945
 31
0.0
  0
LINE
  8
0
 62
     0
 10
906.744393
 20
-198.223399
 30
0.0
 11
894.744393
 21
-186.223399
 31
0.0
  0
LINE
  8
0
 62
     0
 10
893.467042
 20
-184.946047
 30
0.0
 11
890.446878
 21
-181.925883
 31
0.0
  0
LINE
  8
0
 62
     0
 10
905.224401
 20
-200.946047
 30
0.0
 11
894.744393
 21
-190.466039
 31
0.0
  0
LINE
  8
0
 62
     0
 10
889.224401
 20
-184.946047
 30
0.0
 11
883.776371
 21
-179.498017
 31
0.0
  0
LINE
  8
0
 62
     0
 10
900.981761
 20
-200.946047
 30
0.0
 11
894.744393
 21
-194.70868
 31
0.0
  0
LINE
  8
0
 62
     0
 10
884.981761
 20
-184.946047
 30
0.0
 11
877.341426
 21
-177.305713
 31
0.0
  0
LINE
  8
0
 62
     0
 10
896.73912
 20
-200.946047
 30
0.0
 11
894.744393
 21
-198.951321
 31
0.0
  0
LINE
  8
0
 62
     0
 10
880.73912
 20
-184.946047
 30
0.0
 11
876.744393
 21
-180.951321
 31
0.0
  0
LINE
  8
0
 62
     0
 10
906.744393
 20
-181.252836
 30
0.0
 11
897.690616
 21
-172.199058
 31
0.0
  0
LINE
  8
0
 62
     0
 10
893.704703
 20
-168.213145
 30
0.0
 11
886.437605
 21
-160.946047
 31
0.0
  0
LINE
  8
0
 62
     0
 10
930.680246
 20
-200.946047
 30
0.0
 11
926.744393
 21
-197.010195
 31
0.0
  0
LINE
  8
0
 62
     0
 10
906.744393
 20
-177.010195
 30
0.0
 11
890.680246
 21
-160.946047
 31
0.0
  0
LINE
  8
0
 62
     0
 10
931.917771
 20
-197.940932
 30
0.0
 11
926.744393
 21
-192.767555
 31
0.0
  0
LINE
  8
0
 62
     0
 10
906.744393
 20
-172.767555
 30
0.0
 11
894.922886
 21
-160.946047
 31
0.0
  0
LINE
  8
0
 62
     0
 10
931.085256
 20
-192.865777
 30
0.0
 11
926.744393
 21
-188.524914
 31
0.0
  0
LINE
  8
0
 62
     0
 10
906.744393
 20
-168.524914
 30
0.0
 11
899.165527
 21
-160.946047
 31
0.0
  0
LINE
  8
0
 62
     0
 10
931.998335
 20
-189.536215
 30
0.0
 11
926.744393
 21
-184.282273
 31
0.0
  0
LINE
  8
0
 62
     0
 10
906.744393
 20
-164.282273
 30
0.0
 11
903.408168
 21
-160.946047
 31
0.0
  0
LINE
  8
0
 62
     0
 10
932.911415
 20
-186.206654
 30
0.0
 11
926.744393
 21
-180.039633
 31
0.0
  0
LINE
  8
0
 62
     0
 10
932.612212
 20
-181.66481
 30
0.0
 11
926.744393
 21
-175.796992
 31
0.0
  0
LINE
  8
0
 62
     0
 10
931.57437
 20
-176.384328
 30
0.0
 11
926.744393
 21
-171.554351
 31
0.0
  0
LINE
  8
0
 62
     0
 10
932.083284
 20
-172.650601
 30
0.0
 11
926.744393
 21
-167.31171
 31
0.0
  0
LINE
  8
0
 62
     0
 10
932.976543
 20
-169.301219
 30
0.0
 11
926.744393
 21
-163.06907
 31
0.0
  0
LINE
  8
0
 62
     0
 10
932.627589
 20
-164.709624
 30
0.0
 11
928.864012
 21
-160.946047
 31
0.0
  0
ENDBLK
  8
0
  0
BLOCK
  8
0
  2
*X11
 70
    65
 10
0.0
 20
0.0
 30
0.0
  3
*X
  0
LINE
  8
0
 62
     0
 10
902.105791
 20
-188.850741
 30
0.0
 11
922.572422
 21
-181.401497
 31
0.0
  0
LINE
  8
0
 62
     0
 10
897.720085
 20
-187.254475
 30
0.0
 11
918.186715
 21
-179.80523
 31
0.0
  0
LINE
  8
0
 62
     0
 10
893.334378
 20
-185.658208
 30
0.0
 11
913.801009
 21
-178.208964
 31
0.0
  0
LINE
  8
0
 62
     0
 10
893.373692
 20
-182.451366
 30
0.0
 11
909.415302
 21
-176.612697
 31
0.0
  0
LINE
  8
0
 62
     0
 10
895.476276
 20
-178.493554
 30
0.0
 11
905.029596
 21
-175.01643
 31
0.0
  0
LINE
  8
0
 62
     0
 10
897.080364
 20
-174.71718
 30
0.0
 11
900.643889
 21
-173.420164
 31
0.0
  0
LINE
  8
0
 62
     0
 10
906.491498
 20
-190.447008
 30
0.0
 11
926.958129
 21
-182.997764
 31
0.0
  0
LINE
  8
0
 62
     0
 10
910.877204
 20
-192.043275
 30
0.0
 11
931.343835
 21
-184.59403
 31
0.0
  0
LINE
  8
0
 62
     0
 10
915.262911
 20
-193.639541
 30
0.0
 11
930.459918
 21
-188.108283
 31
0.0
  0
LINE
  8
0
 62
     0
 10
919.648618
 20
-195.235808
 30
0.0
 11
929.120492
 21
-191.788328
 31
0.0
  0
LINE
  8
0
 62
     0
 10
924.034324
 20
-196.832075
 30
0.0
 11
927.781065
 21
-195.468372
 31
0.0
  0
ENDBLK
  8
0
  0
BLOCK
  8
0
  2
*X12
 70
    65
 10
0.0
 20
0.0
 30
0.0
  3
*X
  0
LINE
  8
0
 62
     0
 10
701.321447
 20
-846.163863
 30
0.0
 11
724.711882
 21
-837.650441
 31
0.0
  0
LINE
  8
0
 62
     0
 10
698.504188
 20
-843.996728
 30
0.0
 11
720.326175
 21
-836.054174
 31
0.0
  0
LINE
  8
0
 62
     0
 10
699.209099
 20
-840.547628
 30
0.0
 11
715.940469
 21
-834.457908
 31
0.0
  0
LINE
  8
0
 62
     0
 10
704.055015
 20
-835.591326
 30
0.0
 11
711.554762
 21
-832.861641
 31
0.0
  0
LINE
  8
0
 62
     0
 10
704.314687
 20
-832.30428
 30
0.0
 11
707.169055
 21
-831.265374
 31
0.0
  0
LINE
  8
0
 62
     0
 10
705.707153
 20
-847.76013
 30
0.0
 11
729.097588
 21
-839.246708
 31
0.0
  0
LINE
  8
0
 62
     0
 10
710.09286
 20
-849.356397
 30
0.0
 11
732.204875
 21
-841.308281
 31
0.0
  0
LINE
  8
0
 62
     0
 10
714.478566
 20
-850.952663
 30
0.0
 11
730.865448
 21
-844.988326
 31
0.0
  0
LINE
  8
0
 62
     0
 10
718.864273
 20
-852.54893
 30
0.0
 11
729.526021
 21
-848.668371
 31
0.0
  0
LINE
  8
0
 62
     0
 10
723.24998
 20
-854.145197
 30
0.0
 11
728.186595
 21
-852.348416
 31
0.0
  0
ENDBLK
  8
0
  0
BLOCK
  8
0
  2
*X13
 70
    65
 10
0.0
 20
0.0
 30
0.0
  3
*X
  0
LINE
  8
0
 62
     0
 10
691.898781
 20
-797.964798
 30
0.0
 11
675.976201
 21
-782.042218
 31
0.0
  0
LINE
  8
0
 62
     0
 10
670.506426
 20
-776.572443
 30
0.0
 11
663.334051
 21
-769.400069
 31
0.0
  0
LINE
  8
0
 62
     0
 10
691.898781
 20
-802.207439
 30
0.0
 11
676.88444
 21
-787.193098
 31
0.0
  0
LINE
  8
0
 62
     0
 10
663.83592
 20
-774.144578
 30
0.0
 11
660.888184
 21
-771.196842
 31
0.0
  0
LINE
  8
0
 62
     0
 10
691.898781
 20
-806.450079
 30
0.0
 11
674.720383
 21
-789.271681
 31
0.0
  0
LINE
  8
0
 62
     0
 10
691.898781
 20
-810.69272
 30
0.0
 11
672.413471
 21
-791.20741
 31
0.0
  0
LINE
  8
0
 62
     0
 10
691.898781
 20
-814.935361
 30
0.0
 11
676.898781
 21
-799.935361
 31
0.0
  0
LINE
  8
0
 62
     0
 10
674.363489
 20
-797.400069
 30
0.0
 11
670.106559
 21
-793.143139
 31
0.0
  0
LINE
  8
0
 62
     0
 10
691.898781
 20
-819.178001
 30
0.0
 11
676.898781
 21
-804.178001
 31
0.0
  0
LINE
  8
0
 62
     0
 10
670.120848
 20
-797.400069
 30
0.0
 11
663.924409
 21
-791.203629
 31
0.0
  0
LINE
  8
0
 62
     0
 10
689.878207
 20
-821.400069
 30
0.0
 11
676.898781
 21
-808.420642
 31
0.0
  0
LINE
  8
0
 62
     0
 10
665.878207
 20
-797.400069
 30
0.0
 11
657.253902
 21
-788.775763
 31
0.0
  0
LINE
  8
0
 62
     0
 10
685.635567
 20
-821.400069
 30
0.0
 11
676.898781
 21
-812.663283
 31
0.0
  0
LINE
  8
0
 62
     0
 10
661.635567
 20
-797.400069
 30
0.0
 11
654.095389
 21
-789.859891
 31
0.0
  0
LINE
  8
0
 62
     0
 10
681.392926
 20
-821.400069
 30
0.0
 11
676.898781
 21
-816.905923
 31
0.0
  0
LINE
  8
0
 62
     0
 10
657.392926
 20
-797.400069
 30
0.0
 11
653.898781
 21
-793.905923
 31
0.0
  0
LINE
  8
0
 62
     0
 10
719.576692
 20
-821.400069
 30
0.0
 11
715.898781
 21
-817.722157
 31
0.0
  0
LINE
  8
0
 62
     0
 10
691.898781
 20
-793.722157
 30
0.0
 11
667.576692
 21
-769.400069
 31
0.0
  0
LINE
  8
0
 62
     0
 10
722.153572
 20
-819.734308
 30
0.0
 11
715.898781
 21
-813.479517
 31
0.0
  0
LINE
  8
0
 62
     0
 10
691.898781
 20
-789.479517
 30
0.0
 11
671.819333
 21
-769.400069
 31
0.0
  0
LINE
  8
0
 62
     0
 10
721.440282
 20
-814.778378
 30
0.0
 11
715.898781
 21
-809.236876
 31
0.0
  0
LINE
  8
0
 62
     0
 10
691.898781
 20
-785.236876
 30
0.0
 11
676.061973
 21
-769.400069
 31
0.0
  0
LINE
  8
0
 62
     0
 10
720.726993
 20
-809.822447
 30
0.0
 11
715.898781
 21
-804.994235
 31
0.0
  0
LINE
  8
0
 62
     0
 10
691.898781
 20
-780.994235
 30
0.0
 11
680.304614
 21
-769.400069
 31
0.0
  0
LINE
  8
0
 62
     0
 10
720.883079
 20
-805.735893
 30
0.0
 11
715.898781
 21
-800.751594
 31
0.0
  0
LINE
  8
0
 62
     0
 10
691.898781
 20
-776.751594
 30
0.0
 11
684.547255
 21
-769.400069
 31
0.0
  0
LINE
  8
0
 62
     0
 10
721.366616
 20
-801.976789
 30
0.0
 11
715.898781
 21
-796.508954
 31
0.0
  0
LINE
  8
0
 62
     0
 10
691.898781
 20
-772.508954
 30
0.0
 11
688.789895
 21
-769.400069
 31
0.0
  0
LINE
  8
0
 62
     0
 10
721.850153
 20
-798.217685
 30
0.0
 11
715.898781
 21
-792.266313
 31
0.0
  0
LINE
  8
0
 62
     0
 10
721.246743
 20
-793.371635
 30
0.0
 11
715.898781
 21
-788.023672
 31
0.0
  0
LINE
  8
0
 62
     0
 10
720.341205
 20
-788.223456
 30
0.0
 11
715.898781
 21
-783.781032
 31
0.0
  0
LINE
  8
0
 62
     0
 10
720.893538
 20
-784.533149
 30
0.0
 11
715.898781
 21
-779.538391
 31
0.0
  0
LINE
  8
0
 62
     0
 10
721.707687
 20
-781.104657
 30
0.0
 11
715.898781
 21
-775.29575
 31
0.0
  0
LINE
  8
0
 62
     0
 10
722.038333
 20
-777.192661
 30
0.0
 11
715.898781
 21
-771.05311
 31
0.0
  0
LINE
  8
0
 62
     0
 10
721.198623
 20
-772.110312
 30
0.0
 11
718.48838
 21
-769.400069
 31
0.0
  0
ENDBLK
  8
0
  0
ENDSEC
  0
SECTION
  2
ENTITIES
  0
LINE
  8
0
 10
-276.840343
 20
162.879698
 30
0.0
 11
-281.072081
 21
162.879698
 31
0.0
  0
LINE
  8
0
 10
-276.840343
 20
162.879698
 30
0.0
 11
-277.540343
 21
162.179698
 31
0.0
  0
LINE
  8
0
 10
-304.140343
 20
162.179698
 30
0.0
 11
-277.540343
 21
162.179698
 31
0.0
  0
LINE
  8
0
 10
-276.840343
 20
171.179698
 30
0.0
 11
-276.840343
 21
162.879698
 31
0.0
  0
LINE
  8
0
 10
-304.840343
 20
171.179698
 30
0.0
 11
-304.840343
 21
162.879698
 31
0.0
  0
LINE
  8
0
 10
-304.840343
 20
162.879698
 30
0.0
 11
-304.140343
 21
162.179698
 31
0.0
  0
LINE
  8
0
 10
1607.638105
 20
206.991302
 30
0.0
 11
1607.638105
 21
195.991302
 31
0.0
  0
LINE
  8
0
 10
1607.638105
 20
195.991302
 30
0.0
 11
1608.638105
 21
194.991302
 31
0.0
  0
LINE
  8
0
 10
1608.638105
 20
194.991302
 30
0.0
 11
1641.638105
 21
194.991302
 31
0.0
  0
LINE
  8
0
 10
1642.638105
 20
206.991302
 30
0.0
 11
1642.638105
 21
195.991302
 31
0.0
  0
LINE
  8
0
 10
1607.638105
 20
195.991302
 30
0.0
 11
1642.638105
 21
195.991302
 31
0.0
  0
LINE
  8
0
 10
1642.638105
 20
195.991302
 30
0.0
 11
1641.638105
 21
194.991302
 31
0.0
  0
LINE
  8
0
 10
472.270628
 20
181.099944
 30
0.0
 11
442.270628
 21
181.099944
 31
0.0
  0
LINE
  8
0
 10
472.270628
 20
181.099944
 30
0.0
 11
471.570628
 21
180.399944
 31
0.0
  0
LINE
  8
0
 10
442.270628
 20
181.099944
 30
0.0
 11
442.970628
 21
180.399944
 31
0.0
  0
LINE
  8
0
 10
472.270628
 20
190.399944
 30
0.0
 11
472.270628
 21
181.099944
 31
0.0
  0
LINE
  8
0
 10
442.270628
 20
190.399944
 30
0.0
 11
442.270628
 21
181.099944
 31
0.0
  0
LINE
  8
0
 10
442.970628
 20
180.399944
 30
0.0
 11
471.570628
 21
180.399944
 31
0.0
  0
LINE
  8
0
 10
1046.481477
 20
183.768566
 30
0.0
 11
1014.481477
 21
183.768566
 31
0.0
  0
LINE
  8
0
 10
1046.481477
 20
183.768566
 30
0.0
 11
1045.781477
 21
183.068566
 31
0.0
  0
LINE
  8
0
 10
1014.481477
 20
183.768566
 30
0.0
 11
1015.181477
 21
183.068566
 31
0.0
  0
LINE
  8
0
 10
1046.481477
 20
194.068566
 30
0.0
 11
1046.481477
 21
183.768566
 31
0.0
  0
LINE
  8
0
 10
1014.481477
 20
194.068566
 30
0.0
 11
1014.481477
 21
183.768566
 31
0.0
  0
LINE
  8
0
 10
1015.181477
 20
183.068566
 30
0.0
 11
1045.781477
 21
183.068566
 31
0.0
  0
LINE
  8
0
 10
90.158088
 20
-336.11157
 30
0.0
 11
50.158088
 21
-336.11157
 31
0.0
  0
LINE
  8
0
 10
90.158088
 20
-336.11157
 30
0.0
 11
89.158088
 21
-337.11157
 31
0.0
  0
LINE
  8
0
 10
50.158088
 20
-336.11157
 30
0.0
 11
51.158088
 21
-337.11157
 31
0.0
  0
LINE
  8
0
 10
90.158088
 20
-323.11157
 30
0.0
 11
90.158088
 21
-336.11157
 31
0.0
  0
LINE
  8
0
 10
50.158088
 20
-323.11157
 30
0.0
 11
50.158088
 21
-336.11157
 31
0.0
  0
LINE
  8
0
 10
51.158088
 20
-337.11157
 30
0.0
 11
89.158088
 21
-337.11157
 31
0.0
  0
LINE
  8
0
 10
868.929141
 20
-302.26807
 30
0.0
 11
824.929141
 21
-302.26807
 31
0.0
  0
LINE
  8
0
 10
868.929141
 20
-302.26807
 30
0.0
 11
867.929141
 21
-303.26807
 31
0.0
  0
LINE
  8
0
 10
824.929141
 20
-302.26807
 30
0.0
 11
825.929141
 21
-303.26807
 31
0.0
  0
LINE
  8
0
 10
868.929141
 20
-287.26807
 30
0.0
 11
868.929141
 21
-302.26807
 31
0.0
  0
LINE
  8
0
 10
824.929141
 20
-287.26807
 30
0.0
 11
824.929141
 21
-302.26807
 31
0.0
  0
LINE
  8
0
 10
825.929141
 20
-303.26807
 30
0.0
 11
867.929141
 21
-303.26807
 31
0.0
  0
LINE
  8
0
 10
1276.172473
 20
-240.514898
 30
0.0
 11
1276.172473
 21
-247.014898
 31
0.0
  0
LINE
  8
0
 10
1376.172473
 20
-240.514898
 30
0.0
 11
1376.172473
 21
-247.014898
 31
0.0
  0
LINE
  8
0
 10
1300.172473
 20
-271.514898
 30
0.0
 11
1352.172473
 21
-271.514898
 31
0.0
  0
LINE
  8
0
 10
1284.815848
 20
-219.514898
 30
0.0
 11
1367.529098
 21
-219.514898
 31
0.0
  0
LINE
  8
0
 10
1276.672473
 20
-247.514898
 30
0.0
 11
1299.172473
 21
-247.514898
 31
0.0
  0
LINE
  8
0
 10
1299.172473
 20
-247.514898
 30
0.0
 11
1299.172473
 21
-270.514898
 31
0.0
  0
LINE
  8
0
 10
1353.172473
 20
-247.514898
 30
0.0
 11
1353.172473
 21
-270.514898
 31
0.0
  0
LINE
  8
0
 10
1342.997752
 20
-240.514898
 30
0.0
 11
1376.172473
 21
-240.514898
 31
0.0
  0
LINE
  8
0
 10
1299.172473
 20
-270.514898
 30
0.0
 11
1300.172473
 21
-271.514898
 31
0.0
  0
LINE
  8
0
 10
1353.172473
 20
-270.514898
 30
0.0
 11
1352.172473
 21
-271.514898
 31
0.0
  0
LINE
  8
0
 10
1276.172473
 20
-240.514898
 30
0.0
 11
1277.086989
 21
-238.002285
 31
0.0
  0
LINE
  8
0
 10
1283.473828
 20
-220.45459
 30
0.0
 11
1284.815848
 21
-219.514898
 31
0.0
  0
LINE
  8
0
 10
1367.529098
 20
-219.514898
 30
0.0
 11
1368.871118
 21
-220.45459
 31
0.0
  0
LINE
  8
0
 10
1276.172473
 20
-247.014898
 30
0.0
 11
1276.672473
 21
-247.514898
 31
0.0
  0
LINE
  8
0
 10
1376.172473
 20
-247.014898
 30
0.0
 11
1375.672473
 21
-247.514898
 31
0.0
  0
LINE
  8
0
 10
1368.871118
 20
-220.45459
 30
0.0
 11
1343.179784
 21
-220.45459
 31
0.0
  0
LINE
  8
0
 10
1376.172473
 20
-247.014898
 30
0.0
 11
1344.141068
 21
-247.014898
 31
0.0
  0
LINE
  8
0
 10
1353.172473
 20
-270.514898
 30
0.0
 11
1344.523085
 21
-270.514898
 31
0.0
  0
LINE
  8
0
 10
1314.172473
 20
-219.514898
 30
0.0
 11
1314.172473
 21
-271.514898
 31
0.0
  0
LINE
  8
0
 10
1338.172473
 20
-219.514898
 30
0.0
 11
1338.172473
 21
-271.514898
 31
0.0
  0
CIRCLE
  8
0
 10
1326.172473
 20
-502.472354
 30
0.0
 40
41.356625
  0
CIRCLE
  8
0
 10
1326.172473
 20
-502.472354
 30
0.0
 40
42.698645
  0
ARC
  8
0
 10
1326.172473
 20
-502.472354
 30
0.0
 40
50.0
 50
9.206896
 51
80.793104
  0
ARC
  8
0
 10
1513.475689
 20
-179.181723
 30
0.0
 40
20.0
 50
233.367013
 51
166.632987
  0
LINE
  8
0
 10
1369.785634
 20
-222.967203
 30
0.0
 11
1495.043566
 21
-177.377044
 31
0.0
  0
LINE
  8
0
 10
1375.257957
 20
-238.002285
 30
0.0
 11
1500.515888
 21
-192.412126
 31
0.0
  0
ARC
  8
0
 10
1415.422234
 20
-214.870261
 30
0.0
 40
46.349323
 50
190.060843
 51
209.939157
  0
LINE
  8
0
 10
1369.785634
 20
-222.967203
 30
0.0
 11
1368.871118
 21
-220.45459
 31
0.0
  0
LINE
  8
0
 10
1375.257957
 20
-238.002285
 30
0.0
 11
1376.172473
 21
-240.514898
 31
0.0
  0
CIRCLE
  8
0
 10
1513.475689
 20
-502.472354
 30
0.0
 40
20.0
  0
LINE
  8
0
 10
1371.868118
 20
-494.472354
 30
0.0
 11
1495.145386
 21
-494.472354
 31
0.0
  0
LINE
  8
0
 10
1371.868118
 20
-510.472354
 30
0.0
 11
1495.145386
 21
-510.472354
 31
0.0
  0
ARC
  8
0
 10
1386.193145
 20
-502.472354
 30
0.0
 40
16.407511
 50
150.818251
 51
209.181749
  0
CIRCLE
  8
0
 10
1326.172473
 20
-502.472354
 30
0.0
 40
12.0
  0
LINE
  8
0
 10
1494.017506
 20
-174.557966
 30
0.0
 11
1501.541949
 21
-195.231204
 31
0.0
  0
LINE
  8
0
 10
1318.172473
 20
-184.894585
 30
0.0
 11
1318.172473
 21
-219.514898
 31
0.0
  0
LINE
  8
0
 10
1334.172473
 20
-184.894585
 30
0.0
 11
1334.172473
 21
-219.514898
 31
0.0
  0
ARC
  8
0
 10
1326.172473
 20
-179.181723
 30
0.0
 40
20.0
 50
293.578178
 51
246.421822
  0
ARC
  8
0
 10
1326.172473
 20
-185.392526
 30
0.0
 40
8.015482
 50
3.561642
 51
176.438358
  0
ARC
  8
0
 10
1326.172473
 20
-185.579254
 30
0.0
 40
11.021287
 50
316.541106
 51
223.458894
  0
LINE
  8
0
 10
1158.32744
 20
-174.557966
 30
0.0
 11
1150.802997
 21
-195.231204
 31
0.0
  0
LINE
  8
0
 10
1292.122071
 20
-243.474607
 30
0.0
 11
1151.829057
 21
-192.412126
 31
0.0
  0
LINE
  8
0
 10
1297.594393
 20
-228.439525
 30
0.0
 11
1157.30138
 21
-177.377044
 31
0.0
  0
ARC
  8
0
 10
1138.869257
 20
-179.181723
 30
0.0
 40
20.0
 50
13.367013
 51
306.632987
  0
LINE
  8
0
 10
1292.122071
 20
-243.474607
 30
0.0
 11
1297.594393
 21
-228.439525
 31
0.0
  0
LINE
  8
0
 10
1297.594393
 20
-228.439525
 30
0.0
 11
1299.198486
 21
-237.53679
 31
0.0
  0
LINE
  8
0
 10
1292.122071
 20
-243.474607
 30
0.0
 11
1299.198486
 21
-237.53679
 31
0.0
  0
LINE
  8
0
 10
1282.559311
 20
-222.967203
 30
0.0
 11
1283.473828
 21
-220.45459
 31
0.0
  0
LINE
  8
0
 10
1729.233922
 20
-222.967203
 30
0.0
 11
1730.148438
 21
-220.45459
 31
0.0
  0
ARC
  8
0
 10
1585.543868
 20
-179.181723
 30
0.0
 40
20.0
 50
13.367013
 51
306.632987
  0
LINE
  8
0
 10
1729.233922
 20
-222.967203
 30
0.0
 11
1603.97599
 21
-177.377044
 31
0.0
  0
LINE
  8
0
 10
1723.7616
 20
-238.002285
 30
0.0
 11
1598.503668
 21
-192.412126
 31
0.0
  0
LINE
  8
0
 10
1605.00205
 20
-174.557966
 30
0.0
 11
1597.477607
 21
-195.231204
 31
0.0
  0
LINE
  8
0
 10
1780.847083
 20
-197.512025
 30
0.0
 11
1780.847083
 21
-230.722663
 31
0.0
  0
LINE
  8
0
 10
1764.847083
 20
-197.512025
 30
0.0
 11
1764.847083
 21
-230.722663
 31
0.0
  0
LINE
  8
0
 10
1940.692116
 20
-174.557966
 30
0.0
 11
1948.216559
 21
-195.231204
 31
0.0
  0
LINE
  8
0
 10
1821.932567
 20
-238.002285
 30
0.0
 11
1822.847083
 21
-240.514898
 31
0.0
  0
LINE
  8
0
 10
1816.460245
 20
-222.967203
 30
0.0
 11
1815.545729
 21
-220.45459
 31
0.0
  0
ARC
  8
0
 10
1862.096845
 20
-214.870261
 30
0.0
 40
46.349323
 50
190.060843
 51
209.939157
  0
LINE
  8
0
 10
1821.932567
 20
-238.002285
 30
0.0
 11
1947.190499
 21
-192.412126
 31
0.0
  0
LINE
  8
0
 10
1816.460245
 20
-222.967203
 30
0.0
 11
1941.718177
 21
-177.377044
 31
0.0
  0
ARC
  8
0
 10
1960.150299
 20
-179.181723
 30
0.0
 40
20.0
 50
233.367013
 51
166.632987
  0
LINE
  8
0
 10
1799.847083
 20
-270.514898
 30
0.0
 11
1745.847083
 21
-270.514898
 31
0.0
  0
LINE
  8
0
 10
1822.847083
 20
-247.014898
 30
0.0
 11
1722.847083
 21
-247.014898
 31
0.0
  0
LINE
  8
0
 10
1815.545729
 20
-220.45459
 30
0.0
 11
1780.847083
 21
-220.45459
 31
0.0
  0
LINE
  8
0
 10
1822.847083
 20
-247.014898
 30
0.0
 11
1822.347083
 21
-247.514898
 31
0.0
  0
LINE
  8
0
 10
1722.847083
 20
-247.014898
 30
0.0
 11
1723.347083
 21
-247.514898
 31
0.0
  0
LINE
  8
0
 10
1814.203708
 20
-219.514898
 30
0.0
 11
1815.545729
 21
-220.45459
 31
0.0
  0
LINE
  8
0
 10
1730.148438
 20
-220.45459
 30
0.0
 11
1731.490458
 21
-219.514898
 31
0.0
  0
LINE
  8
0
 10
1722.847083
 20
-240.514898
 30
0.0
 11
1723.7616
 21
-238.002285
 31
0.0
  0
LINE
  8
0
 10
1799.847083
 20
-270.514898
 30
0.0
 11
1798.847083
 21
-271.514898
 31
0.0
  0
LINE
  8
0
 10
1745.847083
 20
-270.514898
 30
0.0
 11
1746.847083
 21
-271.514898
 31
0.0
  0
LINE
  8
0
 10
1722.847083
 20
-240.514898
 30
0.0
 11
1822.847083
 21
-240.514898
 31
0.0
  0
LINE
  8
0
 10
1799.847083
 20
-247.514898
 30
0.0
 11
1799.847083
 21
-270.514898
 31
0.0
  0
LINE
  8
0
 10
1745.847083
 20
-247.514898
 30
0.0
 11
1745.847083
 21
-270.514898
 31
0.0
  0
LINE
  8
0
 10
1723.347083
 20
-247.514898
 30
0.0
 11
1822.347083
 21
-247.514898
 31
0.0
  0
LINE
  8
0
 10
1731.490458
 20
-219.514898
 30
0.0
 11
1764.847083
 21
-219.514898
 31
0.0
  0
LINE
  8
0
 10
1746.847083
 20
-271.514898
 30
0.0
 11
1798.847083
 21
-271.514898
 31
0.0
  0
LINE
  8
0
 10
1822.847083
 20
-240.514898
 30
0.0
 11
1822.847083
 21
-247.014898
 31
0.0
  0
LINE
  8
0
 10
1722.847083
 20
-240.514898
 30
0.0
 11
1722.847083
 21
-247.014898
 31
0.0
  0
ARC
  8
0
 10
1683.597322
 20
-214.870261
 30
0.0
 40
46.349323
 50
330.060843
 51
349.939157
  0
LINE
  8
0
 10
1729.233922
 20
-222.967203
 30
0.0
 11
1730.148438
 21
-220.45459
 31
0.0
  0
LINE
  8
0
 10
1723.7616
 20
-238.002285
 30
0.0
 11
1722.847083
 21
-240.514898
 31
0.0
  0
LINE
  8
0
 10
1780.847083
 20
-219.514898
 30
0.0
 11
1814.203708
 21
-219.514898
 31
0.0
  0
LINE
  8
0
 10
1764.847083
 20
-220.45459
 30
0.0
 11
1730.148438
 21
-220.45459
 31
0.0
  0
ARC
  8
0
 10
1772.847083
 20
-229.966641
 30
0.0
 40
8.035644
 50
185.398575
 51
354.601425
  0
CIRCLE
  8
0
 10
1772.847083
 20
-179.181723
 30
0.0
 40
20.0
  0
LINE
  8
0
 10
1343.024527
 20
-219.514898
 30
0.0
 11
1344.557513
 21
-228.793309
 31
0.0
  0
LINE
  8
0
 10
1344.557513
 20
-228.793309
 30
0.0
 11
1342.477033
 21
-237.554495
 31
0.0
  0
LINE
  8
0
 10
1342.477033
 20
-237.554495
 30
0.0
 11
1344.229016
 21
-247.514898
 31
0.0
  0
LINE
  8
0
 10
1344.229016
 20
-247.514898
 30
0.0
 11
1342.80553
 21
-258.58134
 31
0.0
  0
LINE
  8
0
 10
1342.80553
 20
-258.58134
 30
0.0
 11
1344.667011
 21
-271.514898
 31
0.0
  0
LINE
  8
0
 10
1344.229016
 20
-247.514898
 30
0.0
 11
1375.672473
 21
-247.514898
 31
0.0
  0
LINE
  8
0
 10
-315.840343
 20
176.179698
 30
0.0
 11
-315.840343
 21
171.979698
 31
0.0
  0
LINE
  8
0
 10
-265.840343
 20
176.179698
 30
0.0
 11
-265.840343
 21
171.979698
 31
0.0
  0
LINE
  8
0
 10
-315.040343
 20
171.179698
 30
0.0
 11
-304.840343
 21
171.179698
 31
0.0
  0
LINE
  8
0
 10
-310.662545
 20
188.179698
 30
0.0
 11
-271.018141
 21
188.179698
 31
0.0
  0
LINE
  8
0
 10
-282.423101
 20
176.179698
 30
0.0
 11
-265.840343
 21
176.179698
 31
0.0
  0
LINE
  8
0
 10
-265.840343
 20
176.179698
 30
0.0
 11
-266.530001
 21
178.074519
 31
0.0
  0
LINE
  8
0
 10
-315.840343
 20
171.979698
 30
0.0
 11
-315.040343
 21
171.179698
 31
0.0
  0
LINE
  8
0
 10
-265.840343
 20
171.979698
 30
0.0
 11
-266.640343
 21
171.179698
 31
0.0
  0
LINE
  8
0
 10
-265.840343
 20
171.979698
 30
0.0
 11
-281.224761
 21
171.979698
 31
0.0
  0
LINE
  8
0
 10
-269.955819
 20
187.486877
 30
0.0
 11
-282.516518
 21
187.486877
 31
0.0
  0
LINE
  8
0
 10
-296.840343
 20
188.179698
 30
0.0
 11
-296.840343
 21
162.179698
 31
0.0
  0
ARC
  8
0
 10
-200.240212
 20
206.458738
 30
0.0
 40
10.0
 50
236.869898
 51
163.130102
  0
LINE
  8
0
 10
-269.266162
 20
185.592058
 30
0.0
 11
-209.125834
 21
207.481347
 31
0.0
  0
LINE
  8
0
 10
-266.53
 20
178.074517
 30
0.0
 11
-206.389673
 21
199.963806
 31
0.0
  0
ARC
  8
0
 10
-247.821855
 20
189.140437
 30
0.0
 40
21.735898
 50
189.395572
 51
210.604433
  0
ARC
  8
0
 10
-290.840343
 20
49.850073
 30
0.0
 40
25.0
 50
9.206896
 51
80.793104
  0
CIRCLE
  8
0
 10
-290.840343
 20
49.850073
 30
0.0
 40
6.0
  0
CIRCLE
  8
0
 10
-200.240212
 20
49.850073
 30
0.0
 40
10.0
  0
LINE
  8
0
 10
-268.246918
 20
53.850073
 30
0.0
 11
-209.405364
 21
53.850073
 31
0.0
  0
LINE
  8
0
 10
-268.246918
 20
45.850073
 30
0.0
 11
-209.405364
 21
45.850073
 31
0.0
  0
LINE
  8
0
 10
-209.809874
 20
209.360732
 30
0.0
 11
-205.705632
 21
198.084421
 31
0.0
  0
LINE
  8
0
 10
-55.414078
 20
171.979698
 30
0.0
 11
-105.414078
 21
171.979698
 31
0.0
  0
LINE
  8
0
 10
-55.414078
 20
171.979698
 30
0.0
 11
-56.214078
 21
171.179698
 31
0.0
  0
LINE
  8
0
 10
-105.414078
 20
171.979698
 30
0.0
 11
-104.614078
 21
171.179698
 31
0.0
  0
LINE
  8
0
 10
-105.414078
 20
176.179698
 30
0.0
 11
-55.414078
 21
176.179698
 31
0.0
  0
LINE
  8
0
 10
-104.614078
 20
171.179698
 30
0.0
 11
-56.214078
 21
171.179698
 31
0.0
  0
LINE
  8
0
 10
-55.414078
 20
176.179698
 30
0.0
 11
-55.414078
 21
171.979698
 31
0.0
  0
LINE
  8
0
 10
-105.414078
 20
176.179698
 30
0.0
 11
-105.414078
 21
171.979698
 31
0.0
  0
LINE
  8
0
 10
-84.414078
 20
197.293587
 30
0.0
 11
-84.414078
 21
181.706321
 31
0.0
  0
LINE
  8
0
 10
-76.414078
 20
197.293587
 30
0.0
 11
-76.414078
 21
181.706321
 31
0.0
  0
LINE
  8
0
 10
175.258998
 20
195.399944
 30
0.0
 11
175.258998
 21
191.199944
 31
0.0
  0
LINE
  8
0
 10
230.258998
 20
195.399944
 30
0.0
 11
230.258998
 21
191.199944
 31
0.0
  0
LINE
  8
0
 10
176.058998
 20
190.399944
 30
0.0
 11
187.758998
 21
190.399944
 31
0.0
  0
LINE
  8
0
 10
180.647374
 20
208.399944
 30
0.0
 11
224.870622
 21
208.399944
 31
0.0
  0
LINE
  8
0
 10
212.572049
 20
195.399944
 30
0.0
 11
230.258998
 21
195.399944
 31
0.0
  0
LINE
  8
0
 10
230.258998
 20
195.399944
 30
0.0
 11
229.729376
 21
196.855071
 31
0.0
  0
LINE
  8
0
 10
175.258998
 20
191.199944
 30
0.0
 11
176.058998
 21
190.399944
 31
0.0
  0
LINE
  8
0
 10
229.458998
 20
190.399944
 30
0.0
 11
230.258998
 21
191.199944
 31
0.0
  0
ARC
  8
0
 10
306.483609
 20
230.112216
 30
0.0
 40
12.5
 50
236.869898
 51
163.130102
  0
LINE
  8
0
 10
226.309174
 20
206.251997
 30
0.0
 11
295.376582
 21
231.390477
 31
0.0
  0
LINE
  8
0
 10
229.729376
 20
196.855071
 30
0.0
 11
298.796783
 21
221.993551
 31
0.0
  0
LINE
  8
0
 10
225.779551
 20
207.707123
 30
0.0
 11
212.859492
 21
207.707123
 31
0.0
  0
LINE
  8
0
 10
230.258998
 20
191.199944
 30
0.0
 11
213.128066
 21
191.199944
 31
0.0
  0
ARC
  8
0
 10
202.758998
 20
49.850073
 30
0.0
 40
27.5
 50
10.475682
 51
79.524318
  0
LINE
  8
0
 10
195.758998
 20
208.399944
 30
0.0
 11
195.758998
 21
180.399944
 31
0.0
  0
CIRCLE
  8
0
 10
202.758998
 20
49.850073
 30
0.0
 40
7.0
  0
CIRCLE
  8
0
 10
306.483609
 20
49.850073
 30
0.0
 40
12.5
  0
ARC
  8
0
 10
250.026336
 20
209.563449
 30
0.0
 40
23.947223
 50
187.948402
 51
212.051598
  0
LINE
  8
0
 10
294.521531
 20
233.739709
 30
0.0
 11
299.651834
 21
219.64432
 31
0.0
  0
LINE
  8
0
 10
227.523307
 20
54.850073
 30
0.0
 11
295.027169
 21
54.850073
 31
0.0
  0
LINE
  8
0
 10
227.523307
 20
44.850073
 30
0.0
 11
295.027169
 21
44.850073
 31
0.0
  0
LINE
  8
0
 10
484.770628
 20
191.199944
 30
0.0
 11
429.770628
 21
191.199944
 31
0.0
  0
LINE
  8
0
 10
480.291181
 20
207.707123
 30
0.0
 11
462.270628
 21
207.707123
 31
0.0
  0
LINE
  8
0
 10
483.970628
 20
190.399944
 30
0.0
 11
484.770628
 21
191.199944
 31
0.0
  0
LINE
  8
0
 10
429.770628
 20
191.199944
 30
0.0
 11
430.570628
 21
190.399944
 31
0.0
  0
LINE
  8
0
 10
429.770628
 20
195.399944
 30
0.0
 11
484.770628
 21
195.399944
 31
0.0
  0
LINE
  8
0
 10
435.159004
 20
208.399944
 30
0.0
 11
452.270628
 21
208.399944
 31
0.0
  0
LINE
  8
0
 10
430.570628
 20
190.399944
 30
0.0
 11
483.970628
 21
190.399944
 31
0.0
  0
LINE
  8
0
 10
484.770628
 20
195.399944
 30
0.0
 11
484.770628
 21
191.199944
 31
0.0
  0
LINE
  8
0
 10
429.770628
 20
195.399944
 30
0.0
 11
429.770628
 21
191.199944
 31
0.0
  0
LINE
  8
0
 10
452.270628
 20
218.655776
 30
0.0
 11
452.270628
 21
201.373016
 31
0.0
  0
LINE
  8
0
 10
462.270628
 20
218.655776
 30
0.0
 11
462.270628
 21
201.373016
 31
0.0
  0
LINE
  8
0
 10
738.755172
 20
199.068566
 30
0.0
 11
738.755172
 21
194.868566
 31
0.0
  0
LINE
  8
0
 10
798.755172
 20
199.068566
 30
0.0
 11
798.755172
 21
194.868566
 31
0.0
  0
LINE
  8
0
 10
739.555172
 20
194.068566
 30
0.0
 11
752.755172
 21
194.068566
 31
0.0
  0
LINE
  8
0
 10
745.054824
 20
213.068566
 30
0.0
 11
792.45552
 21
213.068566
 31
0.0
  0
LINE
  8
0
 10
779.303232
 20
199.068566
 30
0.0
 11
798.755172
 21
199.068566
 31
0.0
  0
LINE
  8
0
 10
798.755172
 20
199.068566
 30
0.0
 11
798.153887
 21
200.720584
 31
0.0
  0
LINE
  8
0
 10
738.755172
 20
194.868566
 30
0.0
 11
739.555172
 21
194.068566
 31
0.0
  0
LINE
  8
0
 10
798.755172
 20
194.868566
 30
0.0
 11
797.955172
 21
194.068566
 31
0.0
  0
LINE
  8
0
 10
794.1324
 20
211.769528
 30
0.0
 11
779.151694
 21
211.769528
 31
0.0
  0
LINE
  8
0
 10
794.733685
 20
210.11751
 30
0.0
 11
863.801093
 21
235.255991
 31
0.0
  0
LINE
  8
0
 10
798.153887
 20
200.720584
 30
0.0
 11
867.221294
 21
225.859065
 31
0.0
  0
LINE
  8
0
 10
862.946042
 20
237.605222
 30
0.0
 11
868.076345
 21
223.509833
 31
0.0
  0
ARC
  8
0
 10
874.90812
 20
233.977729
 30
0.0
 40
12.5
 50
236.869898
 51
163.130102
  0
LINE
  8
0
 10
1035.481477
 20
222.52129
 30
0.0
 11
1035.481477
 21
205.255207
 31
0.0
  0
LINE
  8
0
 10
1025.481477
 20
222.52129
 30
0.0
 11
1025.481477
 21
205.255207
 31
0.0
  0
LINE
  8
0
 10
795.993638
 20
44.850073
 30
0.0
 11
863.45168
 21
44.850073
 31
0.0
  0
LINE
  8
0
 10
795.993638
 20
54.850073
 30
0.0
 11
863.45168
 21
54.850073
 31
0.0
  0
CIRCLE
  8
0
 10
874.90812
 20
49.850073
 30
0.0
 40
12.5
  0
LINE
  8
0
 10
1055.858705
 20
211.769528
 30
0.0
 11
1035.481477
 21
211.769528
 31
0.0
  0
LINE
  8
0
 10
1060.481477
 20
194.868566
 30
0.0
 11
1059.681477
 21
194.068566
 31
0.0
  0
LINE
  8
0
 10
1000.481477
 20
194.868566
 30
0.0
 11
1001.281477
 21
194.068566
 31
0.0
  0
LINE
  8
0
 10
1000.481477
 20
199.068566
 30
0.0
 11
1060.481477
 21
199.068566
 31
0.0
  0
LINE
  8
0
 10
1006.781129
 20
213.068566
 30
0.0
 11
1025.481477
 21
213.068566
 31
0.0
  0
LINE
  8
0
 10
1001.281477
 20
194.068566
 30
0.0
 11
1059.681477
 21
194.068566
 31
0.0
  0
LINE
  8
0
 10
1060.481477
 20
199.068566
 30
0.0
 11
1060.481477
 21
194.868566
 31
0.0
  0
LINE
  8
0
 10
1000.481477
 20
199.068566
 30
0.0
 11
1000.481477
 21
194.868566
 31
0.0
  0
LINE
  8
0
 10
1060.481477
 20
194.868566
 30
0.0
 11
1000.481477
 21
194.868566
 31
0.0
  0
ARC
  8
0
 10
820.739079
 20
214.261811
 30
0.0
 40
26.333548
 50
189.054693
 51
210.945307
  0
LINE
  8
0
 10
798.755172
 20
194.868566
 30
0.0
 11
779.875836
 21
194.868566
 31
0.0
  0
LINE
  8
0
 10
761.255172
 20
213.068566
 30
0.0
 11
761.255172
 21
183.068566
 31
0.0
  0
ARC
  8
0
 10
768.755172
 20
49.850073
 30
0.0
 40
30.0
 50
9.594068
 51
80.405932
  0
CIRCLE
  8
0
 10
768.755172
 20
49.850073
 30
0.0
 40
7.5
  0
LINE
  8
0
 10
1302.984927
 20
211.991302
 30
0.0
 11
1302.984927
 21
207.791302
 31
0.0
  0
LINE
  8
0
 10
1367.984927
 20
211.991302
 30
0.0
 11
1367.984927
 21
207.791302
 31
0.0
  0
LINE
  8
0
 10
1303.784927
 20
206.991302
 30
0.0
 11
1317.984927
 21
206.991302
 31
0.0
  0
LINE
  8
0
 10
1309.961262
 20
226.991302
 30
0.0
 11
1361.008591
 21
226.991302
 31
0.0
  0
LINE
  8
0
 10
1346.472292
 20
211.991302
 30
0.0
 11
1367.984927
 21
211.991302
 31
0.0
  0
LINE
  8
0
 10
1367.984927
 20
211.991302
 30
0.0
 11
1367.543676
 21
213.203627
 31
0.0
  0
LINE
  8
0
 10
1302.984927
 20
207.791302
 30
0.0
 11
1303.784927
 21
206.991302
 31
0.0
  0
LINE
  8
0
 10
1367.984927
 20
207.791302
 30
0.0
 11
1367.184927
 21
206.991302
 31
0.0
  0
LINE
  8
0
 10
1367.984927
 20
207.791302
 30
0.0
 11
1345.990667
 21
207.791302
 31
0.0
  0
LINE
  8
0
 10
1362.998184
 20
225.692264
 30
0.0
 11
1346.76766
 21
225.692264
 31
0.0
  0
LINE
  8
0
 10
1327.484927
 20
226.991302
 30
0.0
 11
1327.484927
 21
194.991302
 31
0.0
  0
ARC
  8
0
 10
1454.762354
 20
251.333696
 30
0.0
 40
15.0
 50
232.230953
 51
167.769047
  0
LINE
  8
0
 10
1363.439435
 20
224.479938
 30
0.0
 11
1440.786871
 21
252.632103
 31
0.0
  0
LINE
  8
0
 10
1367.543676
 20
213.203627
 30
0.0
 11
1444.891113
 21
241.355791
 31
0.0
  0
LINE
  8
0
 10
1440.102831
 20
254.511488
 30
0.0
 11
1445.575153
 21
239.476406
 31
0.0
  0
LINE
  8
0
 10
1652.651363
 20
225.692264
 30
0.0
 11
1631.138105
 21
225.692264
 31
0.0
  0
LINE
  8
0
 10
1657.638105
 20
207.791302
 30
0.0
 11
1592.638105
 21
207.791302
 31
0.0
  0
LINE
  8
0
 10
1657.638105
 20
207.791302
 30
0.0
 11
1656.838105
 21
206.991302
 31
0.0
  0
LINE
  8
0
 10
1592.638105
 20
207.791302
 30
0.0
 11
1593.438105
 21
206.991302
 31
0.0
  0
LINE
  8
0
 10
1592.638105
 20
211.991302
 30
0.0
 11
1657.638105
 21
211.991302
 31
0.0
  0
LINE
  8
0
 10
1599.614441
 20
226.991302
 30
0.0
 11
1619.138105
 21
226.991302
 31
0.0
  0
LINE
  8
0
 10
1593.438105
 20
206.991302
 30
0.0
 11
1656.838105
 21
206.991302
 31
0.0
  0
LINE
  8
0
 10
1657.638105
 20
211.991302
 30
0.0
 11
1657.638105
 21
207.791302
 31
0.0
  0
LINE
  8
0
 10
1592.638105
 20
211.991302
 30
0.0
 11
1592.638105
 21
207.791302
 31
0.0
  0
ARC
  8
0
 10
1335.484927
 20
49.850073
 30
0.0
 40
32.5
 50
10.638709
 51
79.361291
  0
CIRCLE
  8
0
 10
1335.484927
 20
49.850073
 30
0.0
 40
8.0
  0
CIRCLE
  8
0
 10
1454.762354
 20
49.850073
 30
0.0
 40
15.0
  0
ARC
  8
0
 10
1391.715711
 20
228.386595
 30
0.0
 40
28.544873
 50
187.866199
 51
212.133801
  0
LINE
  8
0
 10
1619.138105
 20
237.585969
 30
0.0
 11
1619.138105
 21
218.623673
 31
0.0
  0
LINE
  8
0
 10
1631.138105
 20
237.585969
 30
0.0
 11
1631.138105
 21
218.623673
 31
0.0
  0
LINE
  8
0
 10
1364.892304
 20
55.850073
 30
0.0
 11
1441.014627
 21
55.850073
 31
0.0
  0
LINE
  8
0
 10
1364.892304
 20
43.850073
 30
0.0
 11
1441.014627
 21
43.850073
 31
0.0
  0
LINE
  8
0
 10
-276.629026
 20
-317.11157
 30
0.0
 11
-276.629026
 21
-322.31157
 31
0.0
  0
LINE
  8
0
 10
-204.629026
 20
-317.11157
 30
0.0
 11
-204.629026
 21
-322.31157
 31
0.0
  0
LINE
  8
0
 10
-275.829026
 20
-323.11157
 30
0.0
 11
-260.629026
 21
-323.11157
 31
0.0
  0
LINE
  8
0
 10
-269.019019
 20
-301.11157
 30
0.0
 11
-212.239034
 21
-301.11157
 31
0.0
  0
LINE
  8
0
 10
-227.378065
 20
-317.11157
 30
0.0
 11
-204.629026
 21
-317.11157
 31
0.0
  0
LINE
  8
0
 10
-204.629026
 20
-317.11157
 30
0.0
 11
-205.252261
 21
-315.399245
 31
0.0
  0
LINE
  8
0
 10
-209.979739
 20
-302.410608
 30
0.0
 11
-227.678015
 21
-302.410608
 31
0.0
  0
LINE
  8
0
 10
-276.629026
 20
-322.31157
 30
0.0
 11
-275.829026
 21
-323.11157
 31
0.0
  0
LINE
  8
0
 10
-204.629026
 20
-322.31157
 30
0.0
 11
-205.429026
 21
-323.11157
 31
0.0
  0
LINE
  8
0
 10
-204.629026
 20
-322.31157
 30
0.0
 11
-228.138076
 21
-322.31157
 31
0.0
  0
ARC
  8
0
 10
-105.817579
 20
-272.822914
 30
0.0
 40
16.0
 50
234.228866
 51
165.771134
  0
LINE
  8
0
 10
-209.356503
 20
-304.122934
 30
0.0
 11
-120.300665
 21
-271.709259
 31
0.0
  0
LINE
  8
0
 10
-205.252261
 20
-315.399245
 30
0.0
 11
-116.196423
 21
-282.985571
 31
0.0
  0
LINE
  8
0
 10
-121.326726
 20
-268.890181
 30
0.0
 11
-115.170363
 21
-285.804649
 31
0.0
  0
LINE
  8
0
 10
106.158088
 20
-322.31157
 30
0.0
 11
34.158088
 21
-322.31157
 31
0.0
  0
LINE
  8
0
 10
106.158088
 20
-322.31157
 30
0.0
 11
105.358088
 21
-323.11157
 31
0.0
  0
LINE
  8
0
 10
34.158088
 20
-322.31157
 30
0.0
 11
34.958088
 21
-323.11157
 31
0.0
  0
LINE
  8
0
 10
100.807376
 20
-302.410608
 30
0.0
 11
76.158088
 21
-302.410608
 31
0.0
  0
LINE
  8
0
 10
34.158088
 20
-317.11157
 30
0.0
 11
106.158088
 21
-317.11157
 31
0.0
  0
LINE
  8
0
 10
41.768096
 20
-301.11157
 30
0.0
 11
64.158088
 21
-301.11157
 31
0.0
  0
LINE
  8
0
 10
34.958088
 20
-323.11157
 30
0.0
 11
105.358088
 21
-323.11157
 31
0.0
  0
LINE
  8
0
 10
106.158088
 20
-317.11157
 30
0.0
 11
106.158088
 21
-322.31157
 31
0.0
  0
LINE
  8
0
 10
34.158088
 20
-317.11157
 30
0.0
 11
34.158088
 21
-322.31157
 31
0.0
  0
LINE
  8
0
 10
64.158088
 20
-287.655311
 30
0.0
 11
64.158088
 21
-309.956714
 31
0.0
  0
LINE
  8
0
 10
76.158088
 20
-287.655311
 30
0.0
 11
76.158088
 21
-309.956714
 31
0.0
  0
ARC
  8
0
 10
-240.629026
 20
-502.472354
 30
0.0
 40
36.0
 50
9.594068
 51
80.405932
  0
LINE
  8
0
 10
-249.629026
 20
-301.11157
 30
0.0
 11
-249.629026
 21
-337.11157
 31
0.0
  0
CIRCLE
  8
0
 10
-240.629026
 20
-502.472354
 30
0.0
 40
9.0
  0
CIRCLE
  8
0
 10
-105.817579
 20
-502.472354
 30
0.0
 40
16.0
  0
LINE
  8
0
 10
-208.069433
 20
-496.472354
 30
0.0
 11
-120.649976
 21
-496.472354
 31
0.0
  0
LINE
  8
0
 10
-208.069433
 20
-508.472354
 30
0.0
 11
-120.649976
 21
-508.472354
 31
0.0
  0
ARC
  8
0
 10
-178.000793
 20
-299.095455
 30
0.0
 40
31.756198
 50
189.109099
 51
210.890901
  0
LINE
  8
0
 10
439.194105
 20
-281.26807
 30
0.0
 11
439.194105
 21
-286.46807
 31
0.0
  0
LINE
  8
0
 10
519.194105
 20
-281.26807
 30
0.0
 11
519.194105
 21
-286.46807
 31
0.0
  0
LINE
  8
0
 10
439.994105
 20
-287.26807
 30
0.0
 11
457.194105
 21
-287.26807
 31
0.0
  0
LINE
  8
0
 10
447.637406
 20
-263.26807
 30
0.0
 11
510.750803
 21
-263.26807
 31
0.0
  0
LINE
  8
0
 10
494.527569
 20
-281.26807
 30
0.0
 11
519.194105
 21
-281.26807
 31
0.0
  0
LINE
  8
0
 10
519.194105
 20
-281.26807
 30
0.0
 11
518.548919
 21
-279.495437
 31
0.0
  0
LINE
  8
0
 10
439.194105
 20
-286.46807
 30
0.0
 11
439.994105
 21
-287.26807
 31
0.0
  0
LINE
  8
0
 10
519.194105
 20
-286.46807
 30
0.0
 11
518.394105
 21
-287.26807
 31
0.0
  0
LINE
  8
0
 10
519.194105
 20
-286.46807
 30
0.0
 11
495.549593
 21
-286.46807
 31
0.0
  0
LINE
  8
0
 10
513.115452
 20
-264.567108
 30
0.0
 11
494.63897
 21
-264.567108
 31
0.0
  0
ARC
  8
0
 10
629.387739
 20
-231.704161
 30
0.0
 40
17.5
 50
229.059281
 51
170.940719
  0
LINE
  8
0
 10
513.760637
 20
-266.33974
 30
0.0
 11
612.619065
 21
-230.358215
 31
0.0
  0
LINE
  8
0
 10
518.548919
 20
-279.495437
 30
0.0
 11
617.407347
 21
-243.513912
 31
0.0
  0
LINE
  8
0
 10
880.850488
 20
-264.567108
 30
0.0
 11
853.929141
 21
-264.567108
 31
0.0
  0
LINE
  8
0
 10
886.929141
 20
-286.46807
 30
0.0
 11
806.929141
 21
-286.46807
 31
0.0
  0
LINE
  8
0
 10
886.929141
 20
-286.46807
 30
0.0
 11
886.129141
 21
-287.26807
 31
0.0
  0
LINE
  8
0
 10
806.929141
 20
-286.46807
 30
0.0
 11
807.729141
 21
-287.26807
 31
0.0
  0
LINE
  8
0
 10
806.929141
 20
-281.26807
 30
0.0
 11
886.929141
 21
-281.26807
 31
0.0
  0
LINE
  8
0
 10
815.372442
 20
-263.26807
 30
0.0
 11
839.929141
 21
-263.26807
 31
0.0
  0
LINE
  8
0
 10
807.729141
 20
-287.26807
 30
0.0
 11
886.129141
 21
-287.26807
 31
0.0
  0
LINE
  8
0
 10
886.929141
 20
-281.26807
 30
0.0
 11
886.929141
 21
-286.46807
 31
0.0
  0
LINE
  8
0
 10
806.929141
 20
-281.26807
 30
0.0
 11
806.929141
 21
-286.46807
 31
0.0
  0
LINE
  8
0
 10
612.106035
 20
-228.948676
 30
0.0
 11
617.920377
 21
-244.923451
 31
0.0
  0
LINE
  8
0
 10
469.194105
 20
-263.26807
 30
0.0
 11
469.194105
 21
-303.26807
 31
0.0
  0
ARC
  8
0
 10
479.194105
 20
-502.472354
 30
0.0
 40
40.0
 50
10.078658
 51
79.921342
  0
CIRCLE
  8
0
 10
479.194105
 20
-502.472354
 30
0.0
 40
10.0
  0
CIRCLE
  8
0
 10
629.387739
 20
-502.472354
 30
0.0
 40
17.5
  0
LINE
  8
0
 10
839.929141
 20
-247.743176
 30
0.0
 11
839.929141
 21
-273.158191
 31
0.0
  0
LINE
  8
0
 10
853.929141
 20
-247.743176
 30
0.0
 11
853.929141
 21
-273.158191
 31
0.0
  0
ARC
  8
0
 10
548.551031
 20
-261.126317
 30
0.0
 40
35.178848
 50
188.522494
 51
211.477506
  0
LINE
  8
0
 10
515.493728
 20
-495.472354
 30
0.0
 11
613.348724
 21
-495.472354
 31
0.0
  0
LINE
  8
0
 10
515.493728
 20
-509.472354
 30
0.0
 11
613.348724
 21
-509.472354
 31
0.0
  0
LINE
  8
0
 10
-269.955819
 20
187.486877
 30
0.0
 11
-271.018141
 21
188.179698
 31
0.0
  0
LINE
  8
0
 10
-269.266162
 20
185.592058
 30
0.0
 11
-269.955819
 21
187.486877
 31
0.0
  0
LINE
  8
0
 10
-315.840343
 20
176.179698
 30
0.0
 11
-315.150685
 21
178.074517
 31
0.0
  0
LINE
  8
0
 10
-311.724866
 20
187.486877
 30
0.0
 11
-310.662545
 21
188.179698
 31
0.0
  0
ARC
  8
0
 10
-260.907582
 20
49.850073
 30
0.0
 40
8.35858
 50
151.409245
 51
208.590755
  0
CIRCLE
  8
0
 10
-290.840343
 20
49.850073
 30
0.0
 40
19.822202
  0
CIRCLE
  8
0
 10
-290.840343
 20
49.850073
 30
0.0
 40
20.884523
  0
LINE
  8
0
 10
-101.298601
 20
187.486877
 30
0.0
 11
-100.23628
 21
188.179698
 31
0.0
  0
LINE
  8
0
 10
-59.529555
 20
187.486877
 30
0.0
 11
-60.591876
 21
188.179698
 31
0.0
  0
LINE
  8
0
 10
-100.23628
 20
188.179698
 30
0.0
 11
-84.414078
 21
188.179698
 31
0.0
  0
LINE
  8
0
 10
-101.298601
 20
187.486877
 30
0.0
 11
-84.414078
 21
187.486877
 31
0.0
  0
LINE
  8
0
 10
225.779551
 20
207.707123
 30
0.0
 11
224.870622
 21
208.399944
 31
0.0
  0
LINE
  8
0
 10
226.309174
 20
206.251997
 30
0.0
 11
225.779551
 21
207.707123
 31
0.0
  0
LINE
  8
0
 10
175.258998
 20
195.399944
 30
0.0
 11
175.788621
 21
196.855071
 31
0.0
  0
LINE
  8
0
 10
179.738445
 20
207.707123
 30
0.0
 11
180.647374
 21
208.399944
 31
0.0
  0
ARC
  8
0
 10
237.211651
 20
49.850073
 30
0.0
 40
10.902477
 50
152.702461
 51
207.297539
  0
CIRCLE
  8
0
 10
202.758998
 20
49.850073
 30
0.0
 40
22.111624
  0
CIRCLE
  8
0
 10
202.758998
 20
49.850073
 30
0.0
 40
23.020553
  0
LINE
  8
0
 10
434.250075
 20
207.707123
 30
0.0
 11
435.159004
 21
208.399944
 31
0.0
  0
LINE
  8
0
 10
480.291181
 20
207.707123
 30
0.0
 11
479.382252
 21
208.399944
 31
0.0
  0
LINE
  8
0
 10
794.1324
 20
211.769528
 30
0.0
 11
792.45552
 21
213.068566
 31
0.0
  0
LINE
  8
0
 10
794.733685
 20
210.11751
 30
0.0
 11
794.1324
 21
211.769528
 31
0.0
  0
LINE
  8
0
 10
738.755172
 20
199.068566
 30
0.0
 11
739.356457
 21
200.720584
 31
0.0
  0
LINE
  8
0
 10
743.377944
 20
211.769528
 30
0.0
 11
745.054824
 21
213.068566
 31
0.0
  0
LINE
  8
0
 10
1005.104249
 20
211.769528
 30
0.0
 11
1006.781129
 21
213.068566
 31
0.0
  0
LINE
  8
0
 10
1055.858705
 20
211.769528
 30
0.0
 11
1054.181825
 21
213.068566
 31
0.0
  0
ARC
  8
0
 10
805.284664
 20
49.850073
 30
0.0
 40
10.550979
 50
151.712917
 51
208.287083
  0
CIRCLE
  8
0
 10
768.755172
 20
49.850073
 30
0.0
 40
23.700348
  0
CIRCLE
  8
0
 10
768.755172
 20
49.850073
 30
0.0
 40
25.377228
  0
LINE
  8
0
 10
1362.998184
 20
225.692264
 30
0.0
 11
1361.008591
 21
226.991302
 31
0.0
  0
LINE
  8
0
 10
1363.439435
 20
224.479938
 30
0.0
 11
1362.998184
 21
225.692264
 31
0.0
  0
ARC
  8
0
 10
1376.555141
 20
49.850073
 30
0.0
 40
13.115706
 50
152.776236
 51
207.223764
  0
LINE
  8
0
 10
1302.984927
 20
211.991302
 30
0.0
 11
1303.426177
 21
213.203627
 31
0.0
  0
LINE
  8
0
 10
1307.971669
 20
225.692264
 30
0.0
 11
1309.961262
 21
226.991302
 31
0.0
  0
LINE
  8
0
 10
1597.624848
 20
225.692264
 30
0.0
 11
1599.614441
 21
226.991302
 31
0.0
  0
LINE
  8
0
 10
1652.651363
 20
225.692264
 30
0.0
 11
1650.66177
 21
226.991302
 31
0.0
  0
CIRCLE
  8
0
 10
1335.484927
 20
49.850073
 30
0.0
 40
25.523664
  0
CIRCLE
  8
0
 10
1335.484927
 20
49.850073
 30
0.0
 40
27.513258
  0
LINE
  8
0
 10
-209.979739
 20
-302.410608
 30
0.0
 11
-212.239034
 21
-301.11157
 31
0.0
  0
LINE
  8
0
 10
-178.228368
 20
-298.470197
 30
0.0
 11
-178.228368
 21
-298.470197
 31
0.0
  0
LINE
  8
0
 10
-276.629026
 20
-317.11157
 30
0.0
 11
-276.005791
 21
-315.399245
 31
0.0
  0
LINE
  8
0
 10
-271.278314
 20
-302.410608
 30
0.0
 11
-269.019019
 21
-301.11157
 31
0.0
  0
ARC
  8
0
 10
-196.942786
 20
-502.472354
 30
0.0
 40
12.641292
 50
151.664411
 51
208.335589
  0
CIRCLE
  8
0
 10
-240.629026
 20
-502.472354
 30
0.0
 40
28.389993
  0
CIRCLE
  8
0
 10
-240.629026
 20
-502.472354
 30
0.0
 40
30.649287
  0
LINE
  8
0
 10
39.508801
 20
-302.410608
 30
0.0
 11
41.768096
 21
-301.11157
 31
0.0
  0
LINE
  8
0
 10
100.807376
 20
-302.410608
 30
0.0
 11
98.548081
 21
-301.11157
 31
0.0
  0
LINE
  8
0
 10
513.115452
 20
-264.567108
 30
0.0
 11
510.750803
 21
-263.26807
 31
0.0
  0
LINE
  8
0
 10
513.760637
 20
-266.33974
 30
0.0
 11
513.115452
 21
-264.567108
 31
0.0
  0
LINE
  8
0
 10
439.194105
 20
-281.26807
 30
0.0
 11
439.83929
 21
-279.495437
 31
0.0
  0
LINE
  8
0
 10
445.272758
 20
-264.567108
 30
0.0
 11
447.637406
 21
-263.26807
 31
0.0
  0
ARC
  8
0
 10
528.763776
 20
-502.472354
 30
0.0
 40
15.003139
 50
152.188186
 51
207.811814
  0
CIRCLE
  8
0
 10
479.194105
 20
-502.472354
 30
0.0
 40
31.556699
  0
CIRCLE
  8
0
 10
479.194105
 20
-502.472354
 30
0.0
 40
33.921347
  0
LINE
  8
0
 10
813.007794
 20
-264.567108
 30
0.0
 11
815.372442
 21
-263.26807
 31
0.0
  0
LINE
  8
0
 10
880.850488
 20
-264.567108
 30
0.0
 11
878.48584
 21
-263.26807
 31
0.0
  0
LINE
  8
0
 10
-209.356503
 20
-304.122934
 30
0.0
 11
-209.979739
 21
-302.410608
 31
0.0
  0
LINE
  8
0
 10
-284.840343
 20
188.179698
 30
0.0
 11
-284.840343
 21
162.179698
 31
0.0
  0
LINE
  8
0
 10
-282.663907
 20
188.179698
 30
0.0
 11
-281.496726
 21
182.693236
 31
0.0
  0
LINE
  8
0
 10
-281.496726
 20
182.693236
 30
0.0
 11
-282.663907
 21
177.023688
 31
0.0
  0
LINE
  8
0
 10
-282.663907
 20
177.023688
 30
0.0
 11
-280.996506
 21
171.179698
 31
0.0
  0
LINE
  8
0
 10
-280.996506
 20
171.179698
 30
0.0
 11
-281.746836
 21
165.851344
 31
0.0
  0
LINE
  8
0
 10
-281.746836
 20
165.851344
 30
0.0
 11
-280.913135
 21
162.179698
 31
0.0
  0
LINE
  8
0
 10
-280.996506
 20
171.179698
 30
0.0
 11
-266.640343
 21
171.179698
 31
0.0
  0
LINE
  8
0
 10
-371.870811
 20
209.360732
 30
0.0
 11
-375.975053
 21
198.084421
 31
0.0
  0
LINE
  8
0
 10
-305.753759
 20
174.654316
 30
0.0
 11
-375.291012
 21
199.963806
 31
0.0
  0
LINE
  8
0
 10
-303.017597
 20
182.171857
 30
0.0
 11
-372.554851
 21
207.481347
 31
0.0
  0
ARC
  8
0
 10
-381.440473
 20
206.458738
 30
0.0
 40
10.0
 50
16.869898
 51
303.130102
  0
LINE
  8
0
 10
-305.753759
 20
174.654316
 30
0.0
 11
-303.017597
 21
182.171857
 31
0.0
  0
LINE
  8
0
 10
-303.017597
 20
182.171857
 30
0.0
 11
-302.215551
 21
177.623224
 31
0.0
  0
LINE
  8
0
 10
-305.753759
 20
174.654316
 30
0.0
 11
-302.215551
 21
177.623224
 31
0.0
  0
LINE
  8
0
 10
-312.414524
 20
185.592058
 30
0.0
 11
-311.724866
 21
187.486877
 31
0.0
  0
LINE
  8
0
 10
-323.451193
 20
189.609077
 30
0.0
 11
-325.736602
 21
186.819256
 31
0.0
  0
LINE
  8
0
 10
-325.736602
 20
186.819256
 30
0.0
 11
-325.190721
 21
185.509747
 31
0.0
  0
LINE
  8
0
 10
-325.190721
 20
185.509747
 30
0.0
 11
-327.159161
 21
182.445245
 31
0.0
  0
INSERT
  8
0
  2
*X0
 10
44.396326
 20
11.458225
 30
0.0
  0
INSERT
  8
0
  2
*X1
 10
28.378037
 20
20.62865
 30
0.0
  0
ARC
  8
0
 10
-290.840343
 20
203.722577
 30
0.0
 40
5.196152
 50
320.335965
 51
219.664035
  0
ARC
  8
0
 10
-290.840343
 20
203.722577
 30
0.0
 40
4.0
 50
0.0
 51
180.0
  0
LINE
  8
0
 10
-286.840343
 20
203.722577
 30
0.0
 11
-286.840343
 21
188.179698
 31
0.0
  0
LINE
  8
0
 10
-294.840343
 20
203.722577
 30
0.0
 11
-294.840343
 21
188.179698
 31
0.0
  0
ARC
  8
0
 10
-290.840343
 20
206.458738
 30
0.0
 40
10.0
 50
293.578178
 51
246.421822
  0
LINE
  8
0
 10
-94.414078
 20
162.879698
 30
0.0
 11
-93.714078
 21
162.179698
 31
0.0
  0
LINE
  8
0
 10
-94.414078
 20
171.179698
 30
0.0
 11
-94.414078
 21
162.879698
 31
0.0
  0
LINE
  8
0
 10
-66.414078
 20
171.179698
 30
0.0
 11
-66.414078
 21
162.879698
 31
0.0
  0
LINE
  8
0
 10
-93.714078
 20
162.179698
 30
0.0
 11
-67.114078
 21
162.179698
 31
0.0
  0
LINE
  8
0
 10
-66.414078
 20
162.879698
 30
0.0
 11
-67.114078
 21
162.179698
 31
0.0
  0
LINE
  8
0
 10
-66.414078
 20
162.879698
 30
0.0
 11
-94.414078
 21
162.879698
 31
0.0
  0
LINE
  8
0
 10
0.61639
 20
209.360732
 30
0.0
 11
4.720632
 21
198.084421
 31
0.0
  0
LINE
  8
0
 10
-56.103736
 20
178.074517
 30
0.0
 11
4.036592
 21
199.963806
 31
0.0
  0
LINE
  8
0
 10
-58.839897
 20
185.592058
 30
0.0
 11
1.300431
 21
207.481347
 31
0.0
  0
ARC
  8
0
 10
10.186052
 20
206.458738
 30
0.0
 40
10.0
 50
236.869898
 51
163.130102
  0
ARC
  8
0
 10
-37.395591
 20
189.140437
 30
0.0
 40
21.735898
 50
189.395572
 51
210.604433
  0
LINE
  8
0
 10
-58.839897
 20
185.592058
 30
0.0
 11
-59.529555
 21
187.486877
 31
0.0
  0
LINE
  8
0
 10
-55.414078
 20
176.179698
 30
0.0
 11
-56.103737
 21
178.074519
 31
0.0
  0
ARC
  8
0
 10
-171.014208
 20
206.458738
 30
0.0
 40
10.0
 50
16.869898
 51
303.130102
  0
LINE
  8
0
 10
-101.988259
 20
185.592058
 30
0.0
 11
-162.128587
 21
207.481347
 31
0.0
  0
LINE
  8
0
 10
-104.72442
 20
178.074517
 30
0.0
 11
-164.864748
 21
199.963806
 31
0.0
  0
LINE
  8
0
 10
-161.444547
 20
209.360732
 30
0.0
 11
-165.548788
 21
198.084421
 31
0.0
  0
ARC
  8
0
 10
-123.432566
 20
189.140437
 30
0.0
 40
21.735898
 50
329.395567
 51
350.604428
  0
LINE
  8
0
 10
-101.988259
 20
185.592058
 30
0.0
 11
-101.298601
 21
187.486877
 31
0.0
  0
LINE
  8
0
 10
-105.414078
 20
176.179698
 30
0.0
 11
-104.72442
 21
178.074519
 31
0.0
  0
LINE
  8
0
 10
-286.840343
 20
72.443497
 30
0.0
 11
-286.840343
 21
131.285052
 31
0.0
  0
LINE
  8
0
 10
-294.840343
 20
72.443497
 30
0.0
 11
-294.840343
 21
131.285052
 31
0.0
  0
CIRCLE
  8
0
 10
-290.840343
 20
140.450203
 30
0.0
 40
10.0
  0
ARC
  8
0
 10
-290.840343
 20
79.782834
 30
0.0
 40
8.35858
 50
241.409245
 51
298.590755
  0
LINE
  8
0
 10
-313.433767
 20
53.850073
 30
0.0
 11
-372.275321
 21
53.850073
 31
0.0
  0
LINE
  8
0
 10
-313.433767
 20
45.850073
 30
0.0
 11
-372.275321
 21
45.850073
 31
0.0
  0
CIRCLE
  8
0
 10
-381.440473
 20
49.850073
 30
0.0
 40
10.0
  0
ARC
  8
0
 10
-320.773103
 20
49.850073
 30
0.0
 40
8.35858
 50
331.409245
 51
28.590755
  0
LINE
  8
0
 10
-294.840343
 20
27.256648
 30
0.0
 11
-294.840343
 21
-31.584906
 31
0.0
  0
LINE
  8
0
 10
-286.840343
 20
27.256648
 30
0.0
 11
-286.840343
 21
-31.584906
 31
0.0
  0
CIRCLE
  8
0
 10
-290.840343
 20
-40.750057
 30
0.0
 40
10.0
  0
ARC
  8
0
 10
-290.840343
 20
19.917312
 30
0.0
 40
8.35858
 50
61.409245
 51
118.590755
  0
ARC
  8
0
 10
-290.840343
 20
49.850073
 30
0.0
 40
25.0
 50
279.206896
 51
350.793104
  0
ARC
  8
0
 10
-290.840343
 20
49.850073
 30
0.0
 40
25.0
 50
189.206896
 51
260.793104
  0
ARC
  8
0
 10
-290.840343
 20
49.850073
 30
0.0
 40
25.0
 50
99.206896
 51
170.793104
  0
LINE
  8
0
 10
188.458998
 20
180.399944
 30
0.0
 11
217.058998
 21
180.399944
 31
0.0
  0
LINE
  8
0
 10
187.758998
 20
190.399944
 30
0.0
 11
187.758998
 21
181.099944
 31
0.0
  0
LINE
  8
0
 10
217.758998
 20
190.399944
 30
0.0
 11
217.758998
 21
181.099944
 31
0.0
  0
LINE
  8
0
 10
187.758998
 20
181.099944
 30
0.0
 11
188.458998
 21
180.399944
 31
0.0
  0
LINE
  8
0
 10
217.758998
 20
181.099944
 30
0.0
 11
217.058998
 21
180.399944
 31
0.0
  0
LINE
  8
0
 10
217.758998
 20
181.099944
 30
0.0
 11
212.656898
 21
181.099944
 31
0.0
  0
LINE
  8
0
 10
209.758998
 20
208.399944
 30
0.0
 11
209.758998
 21
180.399944
 31
0.0
  0
LINE
  8
0
 10
212.702075
 20
208.399944
 30
0.0
 11
213.965335
 21
202.840102
 31
0.0
  0
LINE
  8
0
 10
213.965335
 20
202.840102
 30
0.0
 11
212.502613
 21
195.924445
 31
0.0
  0
LINE
  8
0
 10
212.502613
 20
195.924445
 30
0.0
 11
213.233974
 21
190.399944
 31
0.0
  0
LINE
  8
0
 10
213.233974
 20
190.399944
 30
0.0
 11
212.369638
 21
185.55096
 31
0.0
  0
LINE
  8
0
 10
212.369638
 20
185.55096
 30
0.0
 11
212.702075
 21
180.399944
 31
0.0
  0
LINE
  8
0
 10
213.233974
 20
190.399944
 30
0.0
 11
229.458998
 21
190.399944
 31
0.0
  0
LINE
  8
0
 10
110.996465
 20
233.739709
 30
0.0
 11
105.866163
 21
219.64432
 31
0.0
  0
LINE
  8
0
 10
187.064933
 20
192.750829
 30
0.0
 11
106.721214
 21
221.993551
 31
0.0
  0
LINE
  8
0
 10
190.485134
 20
202.147755
 30
0.0
 11
110.141415
 21
231.390477
 31
0.0
  0
ARC
  8
0
 10
99.034388
 20
230.112216
 30
0.0
 40
12.5
 50
16.869898
 51
303.130102
  0
ARC
  8
0
 10
202.758998
 20
226.692014
 30
0.0
 40
6.495191
 50
320.335965
 51
219.664035
  0
ARC
  8
0
 10
202.758998
 20
226.692014
 30
0.0
 40
5.0
 50
0.0
 51
180.0
  0
LINE
  8
0
 10
207.758998
 20
226.692014
 30
0.0
 11
207.758998
 21
208.399944
 31
0.0
  0
LINE
  8
0
 10
197.758998
 20
226.692014
 30
0.0
 11
197.758998
 21
208.399944
 31
0.0
  0
ARC
  8
0
 10
202.758998
 20
230.112216
 30
0.0
 40
12.5
 50
293.578178
 51
246.421822
  0
LINE
  8
0
 10
549.033161
 20
233.739709
 30
0.0
 11
554.163463
 21
219.64432
 31
0.0
  0
LINE
  8
0
 10
484.241005
 20
196.855071
 30
0.0
 11
553.308412
 21
221.993551
 31
0.0
  0
LINE
  8
0
 10
480.820803
 20
206.251997
 30
0.0
 11
549.888211
 21
231.390477
 31
0.0
  0
ARC
  8
0
 10
560.995238
 20
230.112216
 30
0.0
 40
12.5
 50
236.869898
 51
163.130102
  0
ARC
  8
0
 10
504.537966
 20
209.563449
 30
0.0
 40
23.947223
 50
187.948402
 51
212.051598
  0
LINE
  8
0
 10
480.820803
 20
206.251997
 30
0.0
 11
480.291181
 21
207.707123
 31
0.0
  0
LINE
  8
0
 10
484.770628
 20
195.399944
 30
0.0
 11
484.241005
 21
196.855071
 31
0.0
  0
ARC
  8
0
 10
353.546017
 20
230.112216
 30
0.0
 40
12.5
 50
16.869898
 51
303.130102
  0
LINE
  8
0
 10
433.720452
 20
206.251997
 30
0.0
 11
364.653044
 21
231.390477
 31
0.0
  0
LINE
  8
0
 10
430.30025
 20
196.855071
 30
0.0
 11
361.232843
 21
221.993551
 31
0.0
  0
LINE
  8
0
 10
365.508095
 20
233.739709
 30
0.0
 11
360.377792
 21
219.64432
 31
0.0
  0
ARC
  8
0
 10
410.00329
 20
209.563449
 30
0.0
 40
23.947223
 50
327.948402
 51
352.051598
  0
LINE
  8
0
 10
429.770628
 20
195.399944
 30
0.0
 11
430.30025
 21
196.855071
 31
0.0
  0
LINE
  8
0
 10
433.720452
 20
206.251997
 30
0.0
 11
434.250075
 21
207.707123
 31
0.0
  0
ARC
  8
0
 10
-80.414078
 20
182.093181
 30
0.0
 40
4.018664
 50
185.524178
 51
354.475822
  0
LINE
  8
0
 10
-76.414078
 20
188.179698
 30
0.0
 11
-60.591876
 21
188.179698
 31
0.0
  0
LINE
  8
0
 10
-76.414078
 20
187.486877
 30
0.0
 11
-59.529555
 21
187.486877
 31
0.0
  0
CIRCLE
  8
0
 10
-80.414078
 20
206.458738
 30
0.0
 40
10.0
  0
LINE
  8
0
 10
187.064933
 20
192.750829
 30
0.0
 11
190.485134
 21
202.147755
 31
0.0
  0
LINE
  8
0
 10
190.485134
 20
202.147755
 30
0.0
 11
191.487692
 21
196.461965
 31
0.0
  0
LINE
  8
0
 10
187.064933
 20
192.750829
 30
0.0
 11
191.487692
 21
196.461965
 31
0.0
  0
LINE
  8
0
 10
179.208823
 20
206.251997
 30
0.0
 11
179.738445
 21
207.707123
 31
0.0
  0
INSERT
  8
0
  2
*X2
 10
80.747773
 20
26.670785
 30
0.0
  0
LINE
  8
0
 10
171.336284
 20
209.117367
 30
0.0
 11
168.087004
 21
206.04514
 31
0.0
  0
LINE
  8
0
 10
168.087004
 20
206.04514
 30
0.0
 11
169.321333
 21
203.576588
 31
0.0
  0
LINE
  8
0
 10
169.321333
 20
203.576588
 30
0.0
 11
166.263818
 21
200.321816
 31
0.0
  0
INSERT
  8
0
  2
*X3
 10
53.22224
 20
28.522199
 30
0.0
  0
LINE
  8
0
 10
207.758998
 20
74.614382
 30
0.0
 11
207.758998
 21
142.118244
 31
0.0
  0
LINE
  8
0
 10
197.758998
 20
74.614382
 30
0.0
 11
197.758998
 21
142.118244
 31
0.0
  0
CIRCLE
  8
0
 10
202.758998
 20
153.574683
 30
0.0
 40
12.5
  0
ARC
  8
0
 10
202.758998
 20
84.302725
 30
0.0
 40
10.902477
 50
242.702461
 51
297.297539
  0
LINE
  8
0
 10
177.994689
 20
54.850073
 30
0.0
 11
110.490827
 21
54.850073
 31
0.0
  0
LINE
  8
0
 10
177.994689
 20
44.850073
 30
0.0
 11
110.490827
 21
44.850073
 31
0.0
  0
CIRCLE
  8
0
 10
99.034388
 20
49.850073
 30
0.0
 40
12.5
  0
ARC
  8
0
 10
168.306346
 20
49.850073
 30
0.0
 40
10.902477
 50
332.702461
 51
27.297539
  0
LINE
  8
0
 10
197.758998
 20
25.085764
 30
0.0
 11
197.758998
 21
-42.418098
 31
0.0
  0
LINE
  8
0
 10
207.758998
 20
25.085764
 30
0.0
 11
207.758998
 21
-42.418098
 31
0.0
  0
CIRCLE
  8
0
 10
202.758998
 20
-53.874537
 30
0.0
 40
12.5
  0
ARC
  8
0
 10
202.758998
 20
15.39742
 30
0.0
 40
10.902477
 50
62.702461
 51
117.297539
  0
ARC
  8
0
 10
202.758998
 20
49.850073
 30
0.0
 40
27.5
 50
280.475682
 51
349.524318
  0
ARC
  8
0
 10
202.758998
 20
49.850073
 30
0.0
 40
27.5
 50
190.475682
 51
259.524318
  0
ARC
  8
0
 10
202.758998
 20
49.850073
 30
0.0
 40
27.5
 50
100.475682
 51
169.524318
  0
ARC
  8
0
 10
457.270628
 20
201.880788
 30
0.0
 40
5.025717
 50
185.79875
 51
354.20125
  0
LINE
  8
0
 10
462.270628
 20
208.399944
 30
0.0
 11
479.382252
 21
208.399944
 31
0.0
  0
LINE
  8
0
 10
452.270628
 20
207.707123
 30
0.0
 11
434.250075
 21
207.707123
 31
0.0
  0
CIRCLE
  8
0
 10
457.270628
 20
230.112216
 30
0.0
 40
12.5
  0
LINE
  8
0
 10
753.455172
 20
183.068566
 30
0.0
 11
784.055172
 21
183.068566
 31
0.0
  0
LINE
  8
0
 10
752.755172
 20
194.068566
 30
0.0
 11
752.755172
 21
183.768566
 31
0.0
  0
LINE
  8
0
 10
784.755172
 20
194.068566
 30
0.0
 11
784.755172
 21
183.768566
 31
0.0
  0
LINE
  8
0
 10
752.755172
 20
183.768566
 30
0.0
 11
753.455172
 21
183.068566
 31
0.0
  0
LINE
  8
0
 10
784.755172
 20
183.768566
 30
0.0
 11
784.055172
 21
183.068566
 31
0.0
  0
LINE
  8
0
 10
784.755172
 20
183.768566
 30
0.0
 11
780.157469
 21
183.768566
 31
0.0
  0
LINE
  8
0
 10
776.255172
 20
213.068566
 30
0.0
 11
776.255172
 21
183.068566
 31
0.0
  0
LINE
  8
0
 10
778.983956
 20
213.068566
 30
0.0
 11
779.797226
 21
206.770235
 31
0.0
  0
LINE
  8
0
 10
779.797226
 20
206.770235
 30
0.0
 11
779.046516
 21
200.951556
 31
0.0
  0
LINE
  8
0
 10
779.046516
 20
200.951556
 30
0.0
 11
779.984904
 21
194.068566
 31
0.0
  0
LINE
  8
0
 10
779.984904
 20
194.068566
 30
0.0
 11
779.046516
 21
189.314199
 31
0.0
  0
LINE
  8
0
 10
779.046516
 20
189.314199
 30
0.0
 11
780.2977
 21
183.068566
 31
0.0
  0
LINE
  8
0
 10
779.984904
 20
194.068566
 30
0.0
 11
797.955172
 21
194.068566
 31
0.0
  0
ARC
  8
0
 10
768.755172
 20
233.977729
 30
0.0
 40
12.5
 50
293.578178
 51
246.421822
  0
LINE
  8
0
 10
763.755172
 20
230.557528
 30
0.0
 11
763.755172
 21
213.068566
 31
0.0
  0
LINE
  8
0
 10
773.755172
 20
230.557528
 30
0.0
 11
773.755172
 21
213.068566
 31
0.0
  0
ARC
  8
0
 10
768.755172
 20
230.557528
 30
0.0
 40
5.0
 50
0.0
 51
180.0
  0
ARC
  8
0
 10
768.755172
 20
230.557528
 30
0.0
 40
6.495191
 50
320.335965
 51
219.664035
  0
ARC
  8
0
 10
662.602224
 20
233.977729
 30
0.0
 40
12.5
 50
16.869898
 51
303.130102
  0
LINE
  8
0
 10
674.564301
 20
237.605222
 30
0.0
 11
669.433999
 21
223.509833
 31
0.0
  0
LINE
  8
0
 10
750.632769
 20
196.616342
 30
0.0
 11
670.28905
 21
225.859065
 31
0.0
  0
LINE
  8
0
 10
754.05297
 20
206.013269
 30
0.0
 11
673.709251
 21
235.255991
 31
0.0
  0
LINE
  8
0
 10
750.632769
 20
196.616342
 30
0.0
 11
754.05297
 21
206.013269
 31
0.0
  0
LINE
  8
0
 10
754.05297
 20
206.013269
 30
0.0
 11
755.055528
 21
200.327478
 31
0.0
  0
LINE
  8
0
 10
750.632769
 20
196.616342
 30
0.0
 11
755.055528
 21
200.327478
 31
0.0
  0
LINE
  8
0
 10
742.776659
 20
210.11751
 30
0.0
 11
743.377944
 21
211.769528
 31
0.0
  0
INSERT
  8
0
  2
*X4
 10
43.709316
 20
2.869308
 30
0.0
  0
LINE
  8
0
 10
735.755993
 20
212.672824
 30
0.0
 11
735.605576
 21
208.47249
 31
0.0
  0
LINE
  8
0
 10
735.605576
 20
208.47249
 30
0.0
 11
733.492167
 21
207.298304
 31
0.0
  0
LINE
  8
0
 10
733.492167
 20
207.298304
 30
0.0
 11
733.139846
 21
202.983246
 31
0.0
  0
INSERT
  8
0
  2
*X5
 10
19.639936
 20
6.274449
 30
0.0
  0
ARC
  8
0
 10
1136.634425
 20
233.977729
 30
0.0
 40
12.5
 50
236.869898
 51
163.130102
  0
LINE
  8
0
 10
1124.672348
 20
237.605222
 30
0.0
 11
1129.80265
 21
223.509833
 31
0.0
  0
LINE
  8
0
 10
1059.880192
 20
200.720584
 30
0.0
 11
1128.9476
 21
225.859065
 31
0.0
  0
LINE
  8
0
 10
1056.459991
 20
210.11751
 30
0.0
 11
1125.527398
 21
235.255991
 31
0.0
  0
ARC
  8
0
 10
1082.465385
 20
214.261811
 30
0.0
 40
26.333548
 50
189.054693
 51
210.945307
  0
LINE
  8
0
 10
1056.459991
 20
210.11751
 30
0.0
 11
1055.858705
 21
211.769528
 31
0.0
  0
LINE
  8
0
 10
1060.481477
 20
199.068566
 30
0.0
 11
1059.880192
 21
200.720584
 31
0.0
  0
LINE
  8
0
 10
1004.502964
 20
210.11751
 30
0.0
 11
935.435557
 21
235.255991
 31
0.0
  0
LINE
  8
0
 10
1001.082763
 20
200.720584
 30
0.0
 11
932.015355
 21
225.859065
 31
0.0
  0
LINE
  8
0
 10
936.290607
 20
237.605222
 30
0.0
 11
931.160305
 21
223.509833
 31
0.0
  0
ARC
  8
0
 10
924.32853
 20
233.977729
 30
0.0
 40
12.5
 50
16.869898
 51
303.130102
  0
ARC
  8
0
 10
978.49757
 20
214.261811
 30
0.0
 40
26.333548
 50
329.054693
 51
350.945307
  0
LINE
  8
0
 10
1004.502964
 20
210.11751
 30
0.0
 11
1005.104249
 21
211.769528
 31
0.0
  0
LINE
  8
0
 10
1000.481477
 20
199.068566
 30
0.0
 11
1001.082763
 21
200.720584
 31
0.0
  0
ARC
  8
0
 10
1030.481477
 20
205.744464
 30
0.0
 40
5.02388
 50
185.588685
 51
354.411315
  0
LINE
  8
0
 10
1035.481477
 20
213.068566
 30
0.0
 11
1054.181825
 21
213.068566
 31
0.0
  0
LINE
  8
0
 10
1025.481477
 20
211.769528
 30
0.0
 11
1005.104249
 21
211.769528
 31
0.0
  0
CIRCLE
  8
0
 10
1030.481477
 20
233.977729
 30
0.0
 40
12.5
  0
CIRCLE
  8
0
 10
768.755172
 20
156.003021
 30
0.0
 40
12.5
  0
LINE
  8
0
 10
763.755172
 20
77.088539
 30
0.0
 11
763.755172
 21
144.546581
 31
0.0
  0
LINE
  8
0
 10
773.755172
 20
77.088539
 30
0.0
 11
773.755172
 21
144.546581
 31
0.0
  0
ARC
  8
0
 10
768.755172
 20
86.379565
 30
0.0
 40
10.550979
 50
241.712917
 51
298.287083
  0
CIRCLE
  8
0
 10
662.602224
 20
49.850073
 30
0.0
 40
12.5
  0
LINE
  8
0
 10
741.516705
 20
44.850073
 30
0.0
 11
674.058663
 21
44.850073
 31
0.0
  0
LINE
  8
0
 10
741.516705
 20
54.850073
 30
0.0
 11
674.058663
 21
54.850073
 31
0.0
  0
ARC
  8
0
 10
732.22568
 20
49.850073
 30
0.0
 40
10.550979
 50
331.712917
 51
28.287083
  0
CIRCLE
  8
0
 10
768.755172
 20
-56.302875
 30
0.0
 40
12.5
  0
LINE
  8
0
 10
773.755172
 20
22.611606
 30
0.0
 11
773.755172
 21
-44.846436
 31
0.0
  0
LINE
  8
0
 10
763.755172
 20
22.611606
 30
0.0
 11
763.755172
 21
-44.846436
 31
0.0
  0
ARC
  8
0
 10
768.755172
 20
13.320581
 30
0.0
 40
10.550979
 50
61.712917
 51
118.287083
  0
ARC
  8
0
 10
768.755172
 20
49.850073
 30
0.0
 40
30.0
 50
279.594068
 51
350.405932
  0
ARC
  8
0
 10
768.755172
 20
49.850073
 30
0.0
 40
30.0
 50
189.594068
 51
260.405932
  0
ARC
  8
0
 10
768.755172
 20
49.850073
 30
0.0
 40
30.0
 50
99.594068
 51
170.405932
  0
LINE
  8
0
 10
1352.984927
 20
195.991302
 30
0.0
 11
1351.984927
 21
194.991302
 31
0.0
  0
LINE
  8
0
 10
1346.404859
 20
195.991302
 30
0.0
 11
1352.984927
 21
195.991302
 31
0.0
  0
LINE
  8
0
 10
1352.984927
 20
206.991302
 30
0.0
 11
1352.984927
 21
195.991302
 31
0.0
  0
LINE
  8
0
 10
1318.984927
 20
194.991302
 30
0.0
 11
1351.984927
 21
194.991302
 31
0.0
  0
LINE
  8
0
 10
1317.984927
 20
195.991302
 30
0.0
 11
1318.984927
 21
194.991302
 31
0.0
  0
LINE
  8
0
 10
1317.984927
 20
206.991302
 30
0.0
 11
1317.984927
 21
195.991302
 31
0.0
  0
LINE
  8
0
 10
1230.867023
 20
254.511488
 30
0.0
 11
1225.3947
 21
239.476406
 31
0.0
  0
LINE
  8
0
 10
1316.581874
 20
208.415345
 30
0.0
 11
1226.078741
 21
241.355791
 31
0.0
  0
LINE
  8
0
 10
1320.686115
 20
219.691656
 30
0.0
 11
1230.182982
 21
252.632103
 31
0.0
  0
ARC
  8
0
 10
1216.207499
 20
251.333696
 30
0.0
 40
15.0
 50
12.230953
 51
307.769047
  0
ARC
  8
0
 10
1335.484927
 20
246.993947
 30
0.0
 40
6.928203
 50
330.0
 51
210.0
  0
ARC
  8
0
 10
1335.484927
 20
246.993947
 30
0.0
 40
6.0
 50
0.0
 51
180.0
  0
LINE
  8
0
 10
1341.484927
 20
246.993947
 30
0.0
 11
1341.484927
 21
226.991302
 31
0.0
  0
LINE
  8
0
 10
1329.484927
 20
246.993947
 30
0.0
 11
1329.484927
 21
226.991302
 31
0.0
  0
ARC
  8
0
 10
1335.484927
 20
251.333696
 30
0.0
 40
15.0
 50
293.578178
 51
246.421822
  0
LINE
  8
0
 10
1729.756009
 20
254.511488
 30
0.0
 11
1735.228332
 21
239.476406
 31
0.0
  0
LINE
  8
0
 10
1657.196855
 20
213.203627
 30
0.0
 11
1734.544291
 21
241.355791
 31
0.0
  0
LINE
  8
0
 10
1653.092613
 20
224.479938
 30
0.0
 11
1730.44005
 21
252.632103
 31
0.0
  0
ARC
  8
0
 10
1744.415533
 20
251.333696
 30
0.0
 40
15.0
 50
232.230953
 51
167.769047
  0
ARC
  8
0
 10
1681.36889
 20
228.386595
 30
0.0
 40
28.544873
 50
187.866199
 51
212.133801
  0
LINE
  8
0
 10
1653.092613
 20
224.479938
 30
0.0
 11
1652.651363
 21
225.692264
 31
0.0
  0
LINE
  8
0
 10
1657.638105
 20
211.991302
 30
0.0
 11
1657.196855
 21
213.203627
 31
0.0
  0
ARC
  8
0
 10
1505.860677
 20
251.333696
 30
0.0
 40
15.0
 50
12.230953
 51
307.769047
  0
LINE
  8
0
 10
1597.183597
 20
224.479938
 30
0.0
 11
1519.836161
 21
252.632103
 31
0.0
  0
LINE
  8
0
 10
1593.079356
 20
213.203627
 30
0.0
 11
1515.731919
 21
241.355791
 31
0.0
  0
LINE
  8
0
 10
1520.520201
 20
254.511488
 30
0.0
 11
1515.047879
 21
239.476406
 31
0.0
  0
ARC
  8
0
 10
1568.907321
 20
228.386595
 30
0.0
 40
28.544873
 50
327.866199
 51
352.133801
  0
LINE
  8
0
 10
1592.638105
 20
211.991302
 30
0.0
 11
1593.079356
 21
213.203627
 31
0.0
  0
LINE
  8
0
 10
1597.183597
 20
224.479938
 30
0.0
 11
1597.624848
 21
225.692264
 31
0.0
  0
ARC
  8
0
 10
1625.138105
 20
219.234655
 30
0.0
 40
6.031028
 50
185.814404
 51
354.185596
  0
LINE
  8
0
 10
1631.138105
 20
226.991302
 30
0.0
 11
1650.66177
 21
226.991302
 31
0.0
  0
LINE
  8
0
 10
1619.138105
 20
225.692264
 30
0.0
 11
1597.624848
 21
225.692264
 31
0.0
  0
CIRCLE
  8
0
 10
1625.138105
 20
251.333696
 30
0.0
 40
15.0
  0
LINE
  8
0
 10
1343.484927
 20
226.991302
 30
0.0
 11
1343.484927
 21
194.991302
 31
0.0
  0
LINE
  8
0
 10
1346.970771
 20
226.991302
 30
0.0
 11
1346.063828
 21
221.190772
 31
0.0
  0
LINE
  8
0
 10
1346.063828
 20
221.190772
 30
0.0
 11
1346.723423
 21
214.181292
 31
0.0
  0
LINE
  8
0
 10
1346.723423
 20
214.181292
 30
0.0
 11
1345.898929
 21
206.991302
 31
0.0
  0
LINE
  8
0
 10
1345.898929
 20
206.991302
 30
0.0
 11
1346.888322
 21
201.151907
 31
0.0
  0
LINE
  8
0
 10
1346.888322
 20
201.151907
 30
0.0
 11
1346.311176
 21
194.991302
 31
0.0
  0
LINE
  8
0
 10
1345.898929
 20
206.991302
 30
0.0
 11
1367.184927
 21
206.991302
 31
0.0
  0
LINE
  8
0
 10
1316.581874
 20
208.415345
 30
0.0
 11
1320.686115
 21
219.691656
 31
0.0
  0
LINE
  8
0
 10
1320.686115
 20
219.691656
 30
0.0
 11
1321.889185
 21
212.868708
 31
0.0
  0
LINE
  8
0
 10
1316.581874
 20
208.415345
 30
0.0
 11
1321.889185
 21
212.868708
 31
0.0
  0
LINE
  8
0
 10
1307.530419
 20
224.479938
 30
0.0
 11
1307.971669
 21
225.692264
 31
0.0
  0
INSERT
  8
0
  2
*X6
 10
1665.522306
 20
377.021503
 30
0.0
  0
LINE
  8
0
 10
1299.270073
 20
227.486458
 30
0.0
 11
1296.034619
 21
223.756127
 31
0.0
  0
LINE
  8
0
 10
1296.034619
 20
223.756127
 30
0.0
 11
1296.622863
 21
221.570561
 31
0.0
  0
LINE
  8
0
 10
1296.622863
 20
221.570561
 30
0.0
 11
1293.321539
 21
216.881414
 31
0.0
  0
INSERT
  8
0
  2
*X7
 10
1634.153494
 20
376.80968
 30
0.0
  0
LINE
  8
0
 10
1341.484927
 20
79.257451
 30
0.0
 11
1341.484927
 21
155.379774
 31
0.0
  0
LINE
  8
0
 10
1329.484927
 20
79.257451
 30
0.0
 11
1329.484927
 21
155.379774
 31
0.0
  0
CIRCLE
  8
0
 10
1335.484927
 20
169.127501
 30
0.0
 40
15.0
  0
ARC
  8
0
 10
1335.484927
 20
90.920287
 30
0.0
 40
13.115706
 50
242.776236
 51
297.223764
  0
LINE
  8
0
 10
1306.077549
 20
55.850073
 30
0.0
 11
1229.955226
 21
55.850073
 31
0.0
  0
LINE
  8
0
 10
1306.077549
 20
43.850073
 30
0.0
 11
1229.955226
 21
43.850073
 31
0.0
  0
CIRCLE
  8
0
 10
1216.207499
 20
49.850073
 30
0.0
 40
15.0
  0
ARC
  8
0
 10
1294.414712
 20
49.850073
 30
0.0
 40
13.115706
 50
332.776236
 51
27.223764
  0
LINE
  8
0
 10
1329.484927
 20
20.442695
 30
0.0
 11
1329.484927
 21
-55.679628
 31
0.0
  0
LINE
  8
0
 10
1341.484927
 20
20.442695
 30
0.0
 11
1341.484927
 21
-55.679628
 31
0.0
  0
CIRCLE
  8
0
 10
1335.484927
 20
-69.427355
 30
0.0
 40
15.0
  0
ARC
  8
0
 10
1335.484927
 20
8.779859
 30
0.0
 40
13.115706
 50
62.776236
 51
117.223764
  0
ARC
  8
0
 10
1335.484927
 20
49.850073
 30
0.0
 40
32.5
 50
280.638709
 51
349.361291
  0
ARC
  8
0
 10
1335.484927
 20
49.850073
 30
0.0
 40
32.5
 50
190.638709
 51
259.361291
  0
ARC
  8
0
 10
1335.484927
 20
49.850073
 30
0.0
 40
32.5
 50
100.638709
 51
169.361291
  0
LINE
  8
0
 10
-259.629026
 20
-337.11157
 30
0.0
 11
-221.629026
 21
-337.11157
 31
0.0
  0
LINE
  8
0
 10
-260.629026
 20
-323.11157
 30
0.0
 11
-260.629026
 21
-336.11157
 31
0.0
  0
LINE
  8
0
 10
-220.629026
 20
-323.11157
 30
0.0
 11
-220.629026
 21
-336.11157
 31
0.0
  0
LINE
  8
0
 10
-260.629026
 20
-336.11157
 30
0.0
 11
-259.629026
 21
-337.11157
 31
0.0
  0
LINE
  8
0
 10
-220.629026
 20
-336.11157
 30
0.0
 11
-221.629026
 21
-337.11157
 31
0.0
  0
LINE
  8
0
 10
-220.629026
 20
-336.11157
 30
0.0
 11
-227.678869
 21
-336.11157
 31
0.0
  0
ARC
  8
0
 10
-240.629026
 20
-277.347415
 30
0.0
 40
7.794229
 50
320.335965
 51
219.664035
  0
ARC
  8
0
 10
-240.629026
 20
-277.347415
 30
0.0
 40
6.0
 50
0.0
 51
180.0
  0
LINE
  8
0
 10
-234.629026
 20
-277.347415
 30
0.0
 11
-234.629026
 21
-301.11157
 31
0.0
  0
LINE
  8
0
 10
-246.629026
 20
-277.347415
 30
0.0
 11
-246.629026
 21
-301.11157
 31
0.0
  0
ARC
  8
0
 10
-240.629026
 20
-272.822914
 30
0.0
 40
16.0
 50
292.024313
 51
247.975687
  0
ARC
  8
0
 10
-375.440473
 20
-272.822914
 30
0.0
 40
16.0
 50
14.228866
 51
305.771134
  0
LINE
  8
0
 10
-359.931327
 20
-268.890181
 30
0.0
 11
-366.087689
 21
-285.804649
 31
0.0
  0
LINE
  8
0
 10
-262.850094
 20
-320.187527
 30
0.0
 11
-365.061629
 21
-282.985571
 31
0.0
  0
LINE
  8
0
 10
-258.745852
 20
-308.911216
 30
0.0
 11
-360.957387
 21
-271.709259
 31
0.0
  0
ARC
  8
0
 10
132.786321
 20
-299.095455
 30
0.0
 40
31.756198
 50
189.109099
 51
210.890901
  0
LINE
  8
0
 10
101.430611
 20
-304.122934
 30
0.0
 11
100.807376
 21
-302.410608
 31
0.0
  0
LINE
  8
0
 10
106.158088
 20
-317.11157
 30
0.0
 11
105.534853
 21
-315.399245
 31
0.0
  0
LINE
  8
0
 10
189.460389
 20
-268.890181
 30
0.0
 11
195.616751
 21
-285.804649
 31
0.0
  0
LINE
  8
0
 10
105.534853
 20
-315.399245
 30
0.0
 11
194.590691
 21
-282.985571
 31
0.0
  0
LINE
  8
0
 10
101.430611
 20
-304.122934
 30
0.0
 11
190.486449
 21
-271.709259
 31
0.0
  0
ARC
  8
0
 10
204.969535
 20
-272.822914
 30
0.0
 40
16.0
 50
234.228866
 51
165.771134
  0
ARC
  8
0
 10
-64.653358
 20
-272.822914
 30
0.0
 40
16.0
 50
14.228866
 51
305.771134
  0
LINE
  8
0
 10
38.885565
 20
-304.122934
 30
0.0
 11
-50.170273
 21
-271.709259
 31
0.0
  0
LINE
  8
0
 10
34.781324
 20
-315.399245
 30
0.0
 11
-54.274514
 21
-282.985571
 31
0.0
  0
LINE
  8
0
 10
-49.144212
 20
-268.890181
 30
0.0
 11
-55.300575
 21
-285.804649
 31
0.0
  0
ARC
  8
0
 10
7.529855
 20
-299.095455
 30
0.0
 40
31.756198
 50
329.109099
 51
350.890901
  0
LINE
  8
0
 10
38.885565
 20
-304.122934
 30
0.0
 11
39.508801
 21
-302.410608
 31
0.0
  0
LINE
  8
0
 10
34.158088
 20
-317.11157
 30
0.0
 11
34.781324
 21
-315.399245
 31
0.0
  0
ARC
  8
0
 10
70.158088
 20
-309.370695
 30
0.0
 40
6.02855
 50
185.578382
 51
354.421618
  0
LINE
  8
0
 10
76.158088
 20
-301.11157
 30
0.0
 11
98.548081
 21
-301.11157
 31
0.0
  0
LINE
  8
0
 10
64.158088
 20
-302.410608
 30
0.0
 11
39.508801
 21
-302.410608
 31
0.0
  0
CIRCLE
  8
0
 10
70.158088
 20
-272.822914
 30
0.0
 40
16.0
  0
LINE
  8
0
 10
-231.629026
 20
-301.11157
 30
0.0
 11
-231.629026
 21
-337.11157
 31
0.0
  0
LINE
  8
0
 10
-227.479368
 20
-301.11157
 30
0.0
 11
-228.782414
 21
-309.632751
 31
0.0
  0
LINE
  8
0
 10
-228.782414
 20
-309.632751
 30
0.0
 11
-227.169116
 21
-315.681936
 31
0.0
  0
LINE
  8
0
 10
-227.169116
 20
-315.681936
 30
0.0
 11
-228.255001
 21
-323.11157
 31
0.0
  0
LINE
  8
0
 10
-228.255001
 20
-323.11157
 30
0.0
 11
-227.013989
 21
-330.108255
 31
0.0
  0
LINE
  8
0
 10
-227.013989
 20
-330.108255
 30
0.0
 11
-227.789621
 21
-337.11157
 31
0.0
  0
LINE
  8
0
 10
-262.850094
 20
-320.187527
 30
0.0
 11
-258.745852
 21
-308.911216
 31
0.0
  0
LINE
  8
0
 10
-258.745852
 20
-308.911216
 30
0.0
 11
-257.542782
 21
-315.734164
 31
0.0
  0
LINE
  8
0
 10
-262.850094
 20
-320.187527
 30
0.0
 11
-257.542782
 21
-315.734164
 31
0.0
  0
LINE
  8
0
 10
-271.901549
 20
-304.122934
 30
0.0
 11
-271.278314
 21
-302.410608
 31
0.0
  0
LINE
  8
0
 10
-228.255001
 20
-323.11157
 30
0.0
 11
-205.429026
 21
-323.11157
 31
0.0
  0
INSERT
  8
0
  2
*X8
 10
-508.777071
 20
-143.247925
 30
0.0
  0
LINE
  8
0
 10
-284.924296
 20
-299.383041
 30
0.0
 11
-289.239243
 21
-303.212511
 31
0.0
  0
LINE
  8
0
 10
-289.239243
 20
-303.212511
 30
0.0
 11
-288.789032
 21
-306.273804
 31
0.0
  0
LINE
  8
0
 10
-288.789032
 20
-306.273804
 30
0.0
 11
-291.772344
 21
-309.660689
 31
0.0
  0
INSERT
  8
0
  2
*X9
 10
-540.072235
 20
-135.284785
 30
0.0
  0
LINE
  8
0
 10
-234.629026
 20
-469.912761
 30
0.0
 11
-234.629026
 21
-382.493304
 31
0.0
  0
LINE
  8
0
 10
-246.629026
 20
-469.912761
 30
0.0
 11
-246.629026
 21
-382.493304
 31
0.0
  0
CIRCLE
  8
0
 10
-240.629026
 20
-367.660907
 30
0.0
 40
16.0
  0
ARC
  8
0
 10
-240.629026
 20
-458.786114
 30
0.0
 40
12.641292
 50
241.664411
 51
298.335589
  0
LINE
  8
0
 10
-273.188619
 20
-496.472354
 30
0.0
 11
-360.608076
 21
-496.472354
 31
0.0
  0
LINE
  8
0
 10
-273.188619
 20
-508.472354
 30
0.0
 11
-360.608076
 21
-508.472354
 31
0.0
  0
CIRCLE
  8
0
 10
-375.440473
 20
-502.472354
 30
0.0
 40
16.0
  0
ARC
  8
0
 10
-284.315266
 20
-502.472354
 30
0.0
 40
12.641292
 50
331.664411
 51
28.335589
  0
LINE
  8
0
 10
-246.629026
 20
-535.031947
 30
0.0
 11
-246.629026
 21
-622.451403
 31
0.0
  0
LINE
  8
0
 10
-234.629026
 20
-535.031947
 30
0.0
 11
-234.629026
 21
-622.451403
 31
0.0
  0
CIRCLE
  8
0
 10
-240.629026
 20
-637.2838
 30
0.0
 40
16.0
  0
ARC
  8
0
 10
-240.629026
 20
-546.158594
 30
0.0
 40
12.641292
 50
61.664411
 51
118.335589
  0
ARC
  8
0
 10
-240.629026
 20
-502.472354
 30
0.0
 40
36.0
 50
279.594068
 51
350.405932
  0
ARC
  8
0
 10
-240.629026
 20
-502.472354
 30
0.0
 40
36.0
 50
189.594068
 51
260.405932
  0
ARC
  8
0
 10
-240.629026
 20
-502.472354
 30
0.0
 40
36.0
 50
99.594068
 51
170.405932
  0
LINE
  8
0
 10
458.194105
 20
-303.26807
 30
0.0
 11
500.194105
 21
-303.26807
 31
0.0
  0
LINE
  8
0
 10
457.194105
 20
-287.26807
 30
0.0
 11
457.194105
 21
-302.26807
 31
0.0
  0
LINE
  8
0
 10
501.194105
 20
-287.26807
 30
0.0
 11
501.194105
 21
-302.26807
 31
0.0
  0
LINE
  8
0
 10
457.194105
 20
-302.26807
 30
0.0
 11
458.194105
 21
-303.26807
 31
0.0
  0
LINE
  8
0
 10
501.194105
 20
-302.26807
 30
0.0
 11
500.194105
 21
-303.26807
 31
0.0
  0
LINE
  8
0
 10
501.194105
 20
-302.26807
 30
0.0
 11
494.945986
 21
-302.26807
 31
0.0
  0
ARC
  8
0
 10
479.194105
 20
-236.936064
 30
0.0
 40
7.361216
 50
341.97653
 51
198.02347
  0
ARC
  8
0
 10
479.194105
 20
-236.936064
 30
0.0
 40
7.0
 50
0.0
 51
180.0
  0
LINE
  8
0
 10
486.194105
 20
-236.936064
 30
0.0
 11
486.194105
 21
-263.26807
 31
0.0
  0
LINE
  8
0
 10
472.194105
 20
-236.936064
 30
0.0
 11
472.194105
 21
-263.26807
 31
0.0
  0
ARC
  8
0
 10
479.194105
 20
-231.704161
 30
0.0
 40
17.5
 50
293.578178
 51
246.421822
  0
LINE
  8
0
 10
346.282175
 20
-228.948676
 30
0.0
 11
340.467832
 21
-244.923451
 31
0.0
  0
LINE
  8
0
 10
454.874372
 20
-284.967759
 30
0.0
 11
340.980862
 21
-243.513912
 31
0.0
  0
LINE
  8
0
 10
459.662654
 20
-271.812063
 30
0.0
 11
345.769144
 21
-230.358215
 31
0.0
  0
ARC
  8
0
 10
329.00047
 20
-231.704161
 30
0.0
 40
17.5
 50
9.059281
 51
310.940719
  0
ARC
  8
0
 10
916.286068
 20
-261.126317
 30
0.0
 40
35.178848
 50
188.522494
 51
211.477506
  0
LINE
  8
0
 10
881.495674
 20
-266.33974
 30
0.0
 11
880.850488
 21
-264.567108
 31
0.0
  0
LINE
  8
0
 10
886.929141
 20
-281.26807
 30
0.0
 11
886.283956
 21
-279.495437
 31
0.0
  0
LINE
  8
0
 10
979.841071
 20
-228.948676
 30
0.0
 11
985.655414
 21
-244.923451
 31
0.0
  0
LINE
  8
0
 10
886.283956
 20
-279.495437
 30
0.0
 11
985.142383
 21
-243.513912
 31
0.0
  0
LINE
  8
0
 10
881.495674
 20
-266.33974
 30
0.0
 11
980.354101
 21
-230.358215
 31
0.0
  0
ARC
  8
0
 10
997.122775
 20
-231.704161
 30
0.0
 40
17.5
 50
229.059281
 51
170.940719
  0
ARC
  8
0
 10
696.735507
 20
-231.704161
 30
0.0
 40
17.5
 50
9.059281
 51
310.940719
  0
LINE
  8
0
 10
812.362609
 20
-266.33974
 30
0.0
 11
713.504181
 21
-230.358215
 31
0.0
  0
LINE
  8
0
 10
807.574327
 20
-279.495437
 30
0.0
 11
708.715899
 21
-243.513912
 31
0.0
  0
LINE
  8
0
 10
714.017211
 20
-228.948676
 30
0.0
 11
708.202869
 21
-244.923451
 31
0.0
  0
ARC
  8
0
 10
777.572214
 20
-261.126317
 30
0.0
 40
35.178848
 50
328.522494
 51
351.477506
  0
LINE
  8
0
 10
812.362609
 20
-266.33974
 30
0.0
 11
813.007794
 21
-264.567108
 31
0.0
  0
LINE
  8
0
 10
806.929141
 20
-281.26807
 30
0.0
 11
807.574327
 21
-279.495437
 31
0.0
  0
ARC
  8
0
 10
846.929141
 20
-272.460781
 30
0.0
 40
7.034656
 50
185.689602
 51
354.310398
  0
CIRCLE
  8
0
 10
846.929141
 20
-231.704161
 30
0.0
 40
17.5
  0
LINE
  8
0
 10
853.929141
 20
-263.26807
 30
0.0
 11
878.48584
 21
-263.26807
 31
0.0
  0
LINE
  8
0
 10
839.929141
 20
-264.567108
 30
0.0
 11
813.007794
 21
-264.567108
 31
0.0
  0
LINE
  8
0
 10
489.194105
 20
-263.26807
 30
0.0
 11
489.194105
 21
-303.26807
 31
0.0
  0
LINE
  8
0
 10
494.407929
 20
-263.26807
 30
0.0
 11
495.706827
 21
-270.571198
 31
0.0
  0
LINE
  8
0
 10
495.706827
 20
-270.571198
 30
0.0
 11
493.817521
 21
-277.655381
 31
0.0
  0
LINE
  8
0
 10
493.817521
 20
-277.655381
 30
0.0
 11
495.706827
 21
-287.26807
 31
0.0
  0
LINE
  8
0
 10
495.706827
 20
-287.26807
 30
0.0
 11
493.227113
 21
-296.310397
 31
0.0
  0
LINE
  8
0
 10
493.227113
 20
-296.310397
 30
0.0
 11
495.234501
 21
-303.26807
 31
0.0
  0
LINE
  8
0
 10
495.706827
 20
-287.26807
 30
0.0
 11
518.394105
 21
-287.26807
 31
0.0
  0
LINE
  8
0
 10
454.874372
 20
-284.967759
 30
0.0
 11
459.662654
 21
-271.812063
 31
0.0
  0
LINE
  8
0
 10
459.662654
 20
-271.812063
 30
0.0
 11
461.066236
 21
-279.772169
 31
0.0
  0
LINE
  8
0
 10
454.874372
 20
-284.967759
 30
0.0
 11
461.066236
 21
-279.772169
 31
0.0
  0
LINE
  8
0
 10
444.627572
 20
-266.33974
 30
0.0
 11
445.272758
 21
-264.567108
 31
0.0
  0
INSERT
  8
0
  2
*X10
 10
-437.550289
 20
-102.322022
 30
0.0
  0
LINE
  8
0
 10
427.314432
 20
-260.038273
 30
0.0
 11
423.204712
 21
-263.250875
 31
0.0
  0
LINE
  8
0
 10
423.204712
 20
-263.250875
 30
0.0
 11
423.558957
 21
-266.674897
 31
0.0
  0
LINE
  8
0
 10
423.558957
 20
-266.674897
 30
0.0
 11
419.401157
 21
-272.056565
 31
0.0
  0
INSERT
  8
0
  2
*X11
 10
-472.030122
 20
-87.091028
 30
0.0
  0
LINE
  8
0
 10
486.194105
 20
-466.17273
 30
0.0
 11
486.194105
 21
-368.317734
 31
0.0
  0
LINE
  8
0
 10
472.194105
 20
-466.17273
 30
0.0
 11
472.194105
 21
-368.317734
 31
0.0
  0
CIRCLE
  8
0
 10
479.194105
 20
-352.278719
 30
0.0
 40
17.5
  0
ARC
  8
0
 10
479.194105
 20
-452.902682
 30
0.0
 40
15.003139
 50
242.188186
 51
297.811814
  0
LINE
  8
0
 10
442.894481
 20
-495.472354
 30
0.0
 11
345.039485
 21
-495.472354
 31
0.0
  0
LINE
  8
0
 10
442.894481
 20
-509.472354
 30
0.0
 11
345.039485
 21
-509.472354
 31
0.0
  0
CIRCLE
  8
0
 10
329.00047
 20
-502.472354
 30
0.0
 40
17.5
  0
ARC
  8
0
 10
429.624433
 20
-502.472354
 30
0.0
 40
15.003139
 50
332.188186
 51
27.811814
  0
LINE
  8
0
 10
472.194105
 20
-538.771977
 30
0.0
 11
472.194105
 21
-636.626973
 31
0.0
  0
LINE
  8
0
 10
486.194105
 20
-538.771977
 30
0.0
 11
486.194105
 21
-636.626973
 31
0.0
  0
CIRCLE
  8
0
 10
479.194105
 20
-652.665988
 30
0.0
 40
17.5
  0
ARC
  8
0
 10
479.194105
 20
-552.042025
 30
0.0
 40
15.003139
 50
62.188186
 51
117.811814
  0
ARC
  8
0
 10
479.194105
 20
-502.472354
 30
0.0
 40
40.0
 50
280.078658
 51
349.921342
  0
ARC
  8
0
 10
479.194105
 20
-502.472354
 30
0.0
 40
40.0
 50
190.078658
 51
259.921342
  0
ARC
  8
0
 10
479.194105
 20
-502.472354
 30
0.0
 40
40.0
 50
100.078658
 51
169.921342
  0
LINE
  8
0
 10
1269.564668
 20
-218.23754
 30
0.0
 11
1269.070076
 21
-224.498306
 31
0.0
  0
LINE
  8
0
 10
1269.070076
 20
-224.498306
 30
0.0
 11
1264.691295
 21
-226.583705
 31
0.0
  0
LINE
  8
0
 10
1264.691295
 20
-226.583705
 30
0.0
 11
1263.377426
 21
-233.012412
 31
0.0
  0
INSERT
  8
0
  2
*X12
 10
565.090425
 20
612.047003
 30
0.0
  0
INSERT
  8
0
  2
*X13
 10
622.273692
 20
549.885171
 30
0.0
  0
LINE
  8
0
 10
1334.172473
 20
-456.776709
 30
0.0
 11
1334.172473
 21
-333.499441
 31
0.0
  0
LINE
  8
0
 10
1318.172473
 20
-456.776709
 30
0.0
 11
1318.172473
 21
-333.499441
 31
0.0
  0
CIRCLE
  8
0
 10
1326.172473
 20
-315.169138
 30
0.0
 40
20.0
  0
ARC
  8
0
 10
1326.172473
 20
-442.451681
 30
0.0
 40
16.407511
 50
240.818251
 51
299.181749
  0
LINE
  8
0
 10
1280.476828
 20
-494.472354
 30
0.0
 11
1157.19956
 21
-494.472354
 31
0.0
  0
LINE
  8
0
 10
1280.476828
 20
-510.472354
 30
0.0
 11
1157.19956
 21
-510.472354
 31
0.0
  0
CIRCLE
  8
0
 10
1138.869257
 20
-502.472354
 30
0.0
 40
20.0
  0
ARC
  8
0
 10
1266.1518
 20
-502.472354
 30
0.0
 40
16.407511
 50
330.818251
 51
29.181749
  0
LINE
  8
0
 10
1318.172473
 20
-548.167999
 30
0.0
 11
1318.172473
 21
-671.445267
 31
0.0
  0
LINE
  8
0
 10
1334.172473
 20
-548.167999
 30
0.0
 11
1334.172473
 21
-671.445267
 31
0.0
  0
CIRCLE
  8
0
 10
1326.172473
 20
-689.775569
 30
0.0
 40
20.0
  0
ARC
  8
0
 10
1326.172473
 20
-562.493026
 30
0.0
 40
16.407511
 50
60.818251
 51
119.181749
  0
ARC
  8
0
 10
1326.172473
 20
-502.472354
 30
0.0
 40
50.0
 50
279.206896
 51
350.793104
  0
ARC
  8
0
 10
1326.172473
 20
-502.472354
 30
0.0
 40
50.0
 50
189.206896
 51
260.793104
  0
ARC
  8
0
 10
1326.172473
 20
-502.472354
 30
0.0
 40
50.0
 50
99.206896
 51
170.793104
  0
ENDSEC
  0
EOF
