  0
SECTION
  2
HEADER
  9
$ACADVER
  1
AC1009
  9
$INSBASE
 10
0.0
 20
0.0
 30
0.0
  9
$EXTMIN
 10
258.296059
 20
-488.730136
 30
0.0
  9
$EXTMAX
 10
591.715414
 20
77.585694
 30
0.0
  9
$LIMMIN
 10
0.0
 20
0.0
  9
$LIMMAX
 10
12.0
 20
9.0
  9
$ORTHOMODE
 70
     1
  9
$REGENMODE
 70
     1
  9
$FILLMODE
 70
     1
  9
$QTEXTMODE
 70
     0
  9
$MIRRTEXT
 70
     1
  9
$DRAGMODE
 70
     2
  9
$LTSCALE
 40
7.0
  9
$OSMODE
 70
     0
  9
$ATTMODE
 70
     1
  9
$TEXTSIZE
 40
0.2
  9
$TRACEWID
 40
0.05
  9
$TEXTSTYLE
  7
STANDARD
  9
$CLAYER
  8
0
  9
$CELTYPE
  6
BYLAYER
  9
$CECOLOR
 62
   256
  9
$DIMSCALE
 40
1.0
  9
$DIMASZ
 40
2.5
  9
$DIMEXO
 40
0.0
  9
$DIMDLI
 40
5.0
  9
$DIMRND
 40
0.0
  9
$DIMDLE
 40
0.0
  9
$DIMEXE
 40
1.0
  9
$DIMTP
 40
0.0
  9
$DIMTM
 40
0.0
  9
$DIMTXT
 40
2.5
  9
$DIMCEN
 40
0.09
  9
$DIMTSZ
 40
0.0
  9
$DIMTOL
 70
     0
  9
$DIMLIM
 70
     0
  9
$DIMTIH
 70
     0
  9
$DIMTOH
 70
     0
  9
$DIMSE1
 70
     0
  9
$DIMSE2
 70
     0
  9
$DIMTAD
 70
     1
  9
$DIMZIN
 70
     0
  9
$DIMBLK
  1

  9
$DIMASO
 70
     0
  9
$DIMSHO
 70
     0
  9
$DIMPOST
  1

  9
$DIMAPOST
  1

  9
$DIMALT
 70
     0
  9
$DIMALTD
 70
     2
  9
$DIMALTF
 40
25.4
  9
$DIMLFAC
 40
1.0
  9
$DIMTOFL
 70
     1
  9
$DIMTVP
 40
0.0
  9
$DIMTIX
 70
     0
  9
$DIMSOXD
 70
     0
  9
$DIMSAH
 70
     0
  9
$DIMBLK1
  1

  9
$DIMBLK2
  1

  9
$DIMSTYLE
  2
*UNNAMED
  9
$DIMCLRD
 70
     0
  9
$DIMCLRE
 70
     0
  9
$DIMCLRT
 70
     0
  9
$DIMTFAC
 40
1.0
  9
$DIMGAP
 40
0.09
  9
$LUNITS
 70
     2
  9
$LUPREC
 70
     4
  9
$SKETCHINC
 40
0.1
  9
$FILLETRAD
 40
5.0
  9
$AUNITS
 70
     0
  9
$AUPREC
 70
     0
  9
$MENU
  1
wiberger
  9
$ELEVATION
 40
0.0
  9
$PELEVATION
 40
0.0
  9
$THICKNESS
 40
0.0
  9
$LIMCHECK
 70
     0
  9
$BLIPMODE
 70
     1
  9
$CHAMFERA
 40
7.0
  9
$CHAMFERB
 40
2.0
  9
$SKPOLY
 70
     0
  9
$TDCREATE
 40
2450191.448598842
  9
$TDUPDATE
 40
2450210.598300694
  9
$TDINDWG
 40
0.0035612269
  9
$TDUSRTIMER
 40
0.0035612269
  9
$USRTIMER
 70
     1
  9
$ANGBASE
 50
0.0
  9
$ANGDIR
 70
     0
  9
$PDMODE
 70
     0
  9
$PDSIZE
 40
0.0
  9
$PLINEWID
 40
0.0
  9
$COORDS
 70
     2
  9
$SPLFRAME
 70
     0
  9
$SPLINETYPE
 70
     6
  9
$SPLINESEGS
 70
     8
  9
$ATTDIA
 70
     0
  9
$ATTREQ
 70
     1
  9
$HANDLING
 70
     0
  9
$HANDSEED
  5
0
  9
$SURFTAB1
 70
     6
  9
$SURFTAB2
 70
     6
  9
$SURFTYPE
 70
     6
  9
$SURFU
 70
     6
  9
$SURFV
 70
     6
  9
$UCSNAME
  2

  9
$UCSORG
 10
0.0
 20
0.0
 30
0.0
  9
$UCSXDIR
 10
1.0
 20
0.0
 30
0.0
  9
$UCSYDIR
 10
0.0
 20
1.0
 30
0.0
  9
$PUCSNAME
  2

  9
$PUCSORG
 10
0.0
 20
0.0
 30
0.0
  9
$PUCSXDIR
 10
1.0
 20
0.0
 30
0.0
  9
$PUCSYDIR
 10
0.0
 20
1.0
 30
0.0
  9
$USERI1
 70
     0
  9
$USERI2
 70
     0
  9
$USERI3
 70
     0
  9
$USERI4
 70
     0
  9
$USERI5
 70
     0
  9
$USERR1
 40
0.0
  9
$USERR2
 40
0.0
  9
$USERR3
 40
0.0
  9
$USERR4
 40
0.0
  9
$USERR5
 40
0.0
  9
$WORLDVIEW
 70
     1
  9
$SHADEDGE
 70
     3
  9
$SHADEDIF
 70
    70
  9
$TILEMODE
 70
     1
  9
$MAXACTVP
 70
    16
  9
$PINSBASE
 10
0.0
 20
0.0
 30
0.0
  9
$PLIMCHECK
 70
     0
  9
$PEXTMIN
 10
1.000000E+20
 20
1.000000E+20
 30
1.000000E+20
  9
$PEXTMAX
 10
-1.000000E+20
 20
-1.000000E+20
 30
-1.000000E+20
  9
$PLIMMIN
 10
0.0
 20
0.0
  9
$PLIMMAX
 10
12.0
 20
9.0
  9
$UNITMODE
 70
     0
  9
$VISRETAIN
 70
     0
  9
$PLINEGEN
 70
     0
  9
$PSLTSCALE
 70
     0
  9
$TREEDEPTH
 70
  3020
  9
$DWGCODEPAGE
  3
undefined
  0
ENDSEC
  0
SECTION
  2
TABLES
  0
TABLE
  2
VPORT
 70
     2
  0
VPORT
  2
*ACTIVE
 70
     0
 10
0.0
 20
0.0
 11
1.0
 21
1.0
 12
586.96774
 22
-205.572221
 13
0.0
 23
0.0
 14
1.0
 24
1.0
 15
0.0
 25
0.0
 16
0.0
 26
0.0
 36
1.0
 17
0.0
 27
0.0
 37
0.0
 40
629.239812
 41
1.767507
 42
50.0
 43
0.0
 44
0.0
 50
0.0
 51
0.0
 71
     0
 72
   100
 73
     1
 74
     0
 75
     0
 76
     0
 77
     0
 78
     0
  0
ENDTAB
  0
TABLE
  2
LTYPE
 70
     2
  0
LTYPE
  2
CONTINUOUS
 70
    64
  3
Solid line
 72
    65
 73
     0
 40
0.0
  0
LTYPE
  2
CENTER
 70
    64
  3
____ _ ____ _ ____ _ ____ _ ____ _ ____ _ ____
 72
    65
 73
     4
 40
2.0
 49
1.25
 49
-0.25
 49
0.25
 49
-0.25
  0
ENDTAB
  0
TABLE
  2
LAYER
 70
     1
  0
LAYER
  2
0
 70
    64
 62
     7
  6
CONTINUOUS
  0
ENDTAB
  0
TABLE
  2
STYLE
 70
     1
  0
STYLE
  2
STANDARD
 70
     0
 40
0.0
 41
1.0
 50
0.0
 71
     0
 42
0.2
  3
txt
  4

  0
ENDTAB
  0
TABLE
  2
VIEW
 70
     0
  0
ENDTAB
  0
TABLE
  2
UCS
 70
     0
  0
ENDTAB
  0
TABLE
  2
APPID
 70
     1
  0
APPID
  2
ACAD
 70
    64
  0
ENDTAB
  0
TABLE
  2
DIMSTYLE
 70
     0
  0
ENDTAB
  0
ENDSEC
  0
SECTION
  2
BLOCKS
  0
BLOCK
  8
0
  2
*X0
 70
    65
 10
0.0
 20
0.0
 30
0.0
  3
*X
  0
LINE
  8
0
 62
     0
 10
366.992636
 20
59.401186
 30
0.0
 11
371.628241
 21
64.036791
 31
0.0
  0
LINE
  8
0
 62
     0
 10
365.233782
 20
60.293983
 30
0.0
 11
369.909955
 21
64.970156
 31
0.0
  0
LINE
  8
0
 62
     0
 10
363.474929
 20
61.18678
 30
0.0
 11
368.19167
 21
65.903521
 31
0.0
  0
LINE
  8
0
 62
     0
 10
361.716076
 20
62.079577
 30
0.0
 11
366.473385
 21
66.836886
 31
0.0
  0
LINE
  8
0
 62
     0
 10
359.957222
 20
62.972374
 30
0.0
 11
364.7551
 21
67.770252
 31
0.0
  0
LINE
  8
0
 62
     0
 10
358.198369
 20
63.865171
 30
0.0
 11
363.036815
 21
68.703617
 31
0.0
  0
LINE
  8
0
 62
     0
 10
356.439515
 20
64.757968
 30
0.0
 11
361.318529
 21
69.636982
 31
0.0
  0
LINE
  8
0
 62
     0
 10
354.680662
 20
65.650765
 30
0.0
 11
359.600244
 21
70.570347
 31
0.0
  0
LINE
  8
0
 62
     0
 10
352.921808
 20
66.543562
 30
0.0
 11
357.881959
 21
71.503712
 31
0.0
  0
LINE
  8
0
 62
     0
 10
351.162955
 20
67.436359
 30
0.0
 11
356.163674
 21
72.437078
 31
0.0
  0
LINE
  8
0
 62
     0
 10
349.404102
 20
68.329156
 30
0.0
 11
354.445388
 21
73.370443
 31
0.0
  0
LINE
  8
0
 62
     0
 10
347.645248
 20
69.221953
 30
0.0
 11
352.727103
 21
74.303808
 31
0.0
  0
LINE
  8
0
 62
     0
 10
345.886395
 20
70.11475
 30
0.0
 11
351.008818
 21
75.237173
 31
0.0
  0
LINE
  8
0
 62
     0
 10
344.128483
 20
71.008489
 30
0.0
 11
349.290533
 21
76.170538
 31
0.0
  0
LINE
  8
0
 62
     0
 10
342.779355
 20
72.311012
 30
0.0
 11
347.572247
 21
77.103904
 31
0.0
  0
LINE
  8
0
 62
     0
 10
342.321208
 20
74.504515
 30
0.0
 11
345.377239
 21
77.560545
 31
0.0
  0
LINE
  8
0
 62
     0
 10
368.751489
 20
58.508389
 30
0.0
 11
373.346526
 21
63.103426
 31
0.0
  0
LINE
  8
0
 62
     0
 10
370.510343
 20
57.615592
 30
0.0
 11
375.064811
 21
62.170061
 31
0.0
  0
LINE
  8
0
 62
     0
 10
372.269196
 20
56.722795
 30
0.0
 11
376.783096
 21
61.236695
 31
0.0
  0
LINE
  8
0
 62
     0
 10
374.02805
 20
55.829998
 30
0.0
 11
378.501382
 21
60.30333
 31
0.0
  0
LINE
  8
0
 62
     0
 10
375.786903
 20
54.937201
 30
0.0
 11
380.219667
 21
59.369965
 31
0.0
  0
LINE
  8
0
 62
     0
 10
377.545756
 20
54.044404
 30
0.0
 11
381.937952
 21
58.4366
 31
0.0
  0
LINE
  8
0
 62
     0
 10
379.30461
 20
53.151607
 30
0.0
 11
383.656237
 21
57.503235
 31
0.0
  0
LINE
  8
0
 62
     0
 10
381.063463
 20
52.25881
 30
0.0
 11
385.374523
 21
56.569869
 31
0.0
  0
LINE
  8
0
 62
     0
 10
382.822317
 20
51.366013
 30
0.0
 11
387.092808
 21
55.636504
 31
0.0
  0
LINE
  8
0
 62
     0
 10
384.58117
 20
50.473216
 30
0.0
 11
389.069853
 21
54.961898
 31
0.0
  0
LINE
  8
0
 62
     0
 10
386.340024
 20
49.580419
 30
0.0
 11
392.345299
 21
55.585694
 31
0.0
  0
LINE
  8
0
 62
     0
 10
388.098877
 20
48.687622
 30
0.0
 11
394.646504
 21
55.235249
 31
0.0
  0
LINE
  8
0
 62
     0
 10
389.651546
 20
47.588641
 30
0.0
 11
394.896059
 21
52.833154
 31
0.0
  0
LINE
  8
0
 62
     0
 10
390.296059
 20
45.581503
 30
0.0
 11
394.896059
 21
50.181503
 31
0.0
  0
LINE
  8
0
 62
     0
 10
390.951901
 20
43.585694
 30
0.0
 11
394.896059
 21
47.529853
 31
0.0
  0
LINE
  8
0
 62
     0
 10
393.603551
 20
43.585694
 30
0.0
 11
394.896059
 21
44.878202
 31
0.0
  0
ENDBLK
  8
0
  0
BLOCK
  8
0
  2
*X1
 70
    65
 10
0.0
 20
0.0
 30
0.0
  3
*X
  0
LINE
  8
0
 62
     0
 10
359.519348
 20
-14.363362
 30
0.0
 11
365.236833
 21
-8.645877
 31
0.0
  0
LINE
  8
0
 62
     0
 10
357.759604
 20
-13.471456
 30
0.0
 11
363.532095
 21
-7.698965
 31
0.0
  0
LINE
  8
0
 62
     0
 10
355.99986
 20
-12.57955
 30
0.0
 11
361.827356
 21
-6.752054
 31
0.0
  0
LINE
  8
0
 62
     0
 10
354.240116
 20
-11.687643
 30
0.0
 11
360.122617
 21
-5.805142
 31
0.0
  0
LINE
  8
0
 62
     0
 10
352.480372
 20
-10.795737
 30
0.0
 11
358.417878
 21
-4.858231
 31
0.0
  0
LINE
  8
0
 62
     0
 10
350.720628
 20
-9.903831
 30
0.0
 11
356.713139
 21
-3.911319
 31
0.0
  0
LINE
  8
0
 62
     0
 10
348.960883
 20
-9.011925
 30
0.0
 11
355.008401
 21
-2.964407
 31
0.0
  0
LINE
  8
0
 62
     0
 10
347.201139
 20
-8.120018
 30
0.0
 11
353.303662
 21
-2.017496
 31
0.0
  0
LINE
  8
0
 62
     0
 10
345.441395
 20
-7.228112
 30
0.0
 11
351.598923
 21
-1.070584
 31
0.0
  0
LINE
  8
0
 62
     0
 10
343.681651
 20
-6.336206
 30
0.0
 11
349.894184
 21
-0.123673
 31
0.0
  0
LINE
  8
0
 62
     0
 10
341.921907
 20
-5.4443
 30
0.0
 11
348.189445
 21
0.823239
 31
0.0
  0
LINE
  8
0
 62
     0
 10
340.162163
 20
-4.552393
 30
0.0
 11
346.484706
 21
1.770151
 31
0.0
  0
LINE
  8
0
 62
     0
 10
338.402418
 20
-3.660487
 30
0.0
 11
344.779968
 21
2.717062
 31
0.0
  0
LINE
  8
0
 62
     0
 10
336.642674
 20
-2.768581
 30
0.0
 11
343.075229
 21
3.663974
 31
0.0
  0
LINE
  8
0
 62
     0
 10
334.88293
 20
-1.876674
 30
0.0
 11
341.37049
 21
4.610885
 31
0.0
  0
LINE
  8
0
 62
     0
 10
333.123186
 20
-0.984768
 30
0.0
 11
339.665751
 21
5.557797
 31
0.0
  0
LINE
  8
0
 62
     0
 10
331.363442
 20
-0.092862
 30
0.0
 11
337.961012
 21
6.504709
 31
0.0
  0
LINE
  8
0
 62
     0
 10
329.73355
 20
0.928897
 30
0.0
 11
336.256274
 21
7.45162
 31
0.0
  0
LINE
  8
0
 62
     0
 10
328.643992
 20
2.490989
 30
0.0
 11
334.531092
 21
8.37809
 31
0.0
  0
LINE
  8
0
 62
     0
 10
328.33763
 20
4.836278
 30
0.0
 11
332.185804
 21
8.684452
 31
0.0
  0
LINE
  8
0
 62
     0
 10
361.279093
 20
-15.255268
 30
0.0
 11
366.941572
 21
-9.592789
 31
0.0
  0
LINE
  8
0
 62
     0
 10
363.038837
 20
-16.147175
 30
0.0
 11
368.646311
 21
-10.5397
 31
0.0
  0
LINE
  8
0
 62
     0
 10
364.798581
 20
-17.039081
 30
0.0
 11
370.35105
 21
-11.486612
 31
0.0
  0
LINE
  8
0
 62
     0
 10
366.558325
 20
-17.930987
 30
0.0
 11
372.055789
 21
-12.433524
 31
0.0
  0
LINE
  8
0
 62
     0
 10
368.318069
 20
-18.822894
 30
0.0
 11
373.760528
 21
-13.380435
 31
0.0
  0
LINE
  8
0
 62
     0
 10
370.077813
 20
-19.7148
 30
0.0
 11
375.465266
 21
-14.327347
 31
0.0
  0
LINE
  8
0
 62
     0
 10
371.837557
 20
-20.606706
 30
0.0
 11
377.170005
 21
-15.274258
 31
0.0
  0
LINE
  8
0
 62
     0
 10
373.597302
 20
-21.498612
 30
0.0
 11
378.874744
 21
-16.22117
 31
0.0
  0
LINE
  8
0
 62
     0
 10
375.357046
 20
-22.390519
 30
0.0
 11
380.579483
 21
-17.168082
 31
0.0
  0
LINE
  8
0
 62
     0
 10
377.11679
 20
-23.282425
 30
0.0
 11
382.284222
 21
-18.114993
 31
0.0
  0
LINE
  8
0
 62
     0
 10
378.876534
 20
-24.174331
 30
0.0
 11
383.98896
 21
-19.061905
 31
0.0
  0
LINE
  8
0
 62
     0
 10
380.636278
 20
-25.066237
 30
0.0
 11
385.693699
 21
-20.008816
 31
0.0
  0
LINE
  8
0
 62
     0
 10
382.396022
 20
-25.958144
 30
0.0
 11
387.761915
 21
-20.592251
 31
0.0
  0
LINE
  8
0
 62
     0
 10
384.155767
 20
-26.85005
 30
0.0
 11
391.231839
 21
-19.773977
 31
0.0
  0
LINE
  8
0
 62
     0
 10
385.915511
 20
-27.741956
 30
0.0
 11
393.589774
 21
-20.067693
 31
0.0
  0
LINE
  8
0
 62
     0
 10
387.525349
 20
-28.783769
 30
0.0
 11
394.046059
 21
-22.263058
 31
0.0
  0
LINE
  8
0
 62
     0
 10
388.293493
 20
-30.667274
 30
0.0
 11
394.046059
 21
-24.914709
 31
0.0
  0
LINE
  8
0
 62
     0
 10
388.296059
 20
-33.316359
 30
0.0
 11
394.046059
 21
-27.566359
 31
0.0
  0
LINE
  8
0
 62
     0
 10
390.490092
 20
-33.773977
 30
0.0
 11
394.046059
 21
-30.21801
 31
0.0
  0
LINE
  8
0
 62
     0
 10
393.141742
 20
-33.773977
 30
0.0
 11
394.046059
 21
-32.86966
 31
0.0
  0
ENDBLK
  8
0
  0
BLOCK
  8
0
  2
*X2
 70
    65
 10
0.0
 20
0.0
 30
0.0
  3
*X
  0
LINE
  8
0
 62
     0
 10
351.245679
 20
-111.909263
 30
0.0
 11
358.245187
 21
-104.909755
 31
0.0
  0
LINE
  8
0
 62
     0
 10
348.902182
 20
-110.717226
 30
0.0
 11
355.970784
 21
-103.648624
 31
0.0
  0
LINE
  8
0
 62
     0
 10
346.558684
 20
-109.52519
 30
0.0
 11
353.696382
 21
-102.387492
 31
0.0
  0
LINE
  8
0
 62
     0
 10
344.215187
 20
-108.333153
 30
0.0
 11
351.421979
 21
-101.126361
 31
0.0
  0
LINE
  8
0
 62
     0
 10
341.87169
 20
-107.141116
 30
0.0
 11
349.147577
 21
-99.865229
 31
0.0
  0
LINE
  8
0
 62
     0
 10
339.528192
 20
-105.94908
 30
0.0
 11
346.873175
 21
-98.604098
 31
0.0
  0
LINE
  8
0
 62
     0
 10
337.184695
 20
-104.757043
 30
0.0
 11
344.598772
 21
-97.342966
 31
0.0
  0
LINE
  8
0
 62
     0
 10
334.841198
 20
-103.565007
 30
0.0
 11
342.32437
 21
-96.081835
 31
0.0
  0
LINE
  8
0
 62
     0
 10
332.4977
 20
-102.37297
 30
0.0
 11
340.049967
 21
-94.820703
 31
0.0
  0
LINE
  8
0
 62
     0
 10
330.154203
 20
-101.180934
 30
0.0
 11
337.775565
 21
-93.559572
 31
0.0
  0
LINE
  8
0
 62
     0
 10
327.810706
 20
-99.988897
 30
0.0
 11
335.501162
 21
-92.29844
 31
0.0
  0
LINE
  8
0
 62
     0
 10
325.467208
 20
-98.79686
 30
0.0
 11
333.22676
 21
-91.037309
 31
0.0
  0
LINE
  8
0
 62
     0
 10
323.123711
 20
-97.604824
 30
0.0
 11
330.952358
 21
-89.776177
 31
0.0
  0
LINE
  8
0
 62
     0
 10
320.780214
 20
-96.412787
 30
0.0
 11
328.677955
 21
-88.515046
 31
0.0
  0
LINE
  8
0
 62
     0
 10
318.436716
 20
-95.220751
 30
0.0
 11
326.403553
 21
-87.253914
 31
0.0
  0
LINE
  8
0
 62
     0
 10
316.093219
 20
-94.028714
 30
0.0
 11
324.12915
 21
-85.992783
 31
0.0
  0
LINE
  8
0
 62
     0
 10
313.774885
 20
-92.811514
 30
0.0
 11
321.854748
 21
-84.731651
 31
0.0
  0
LINE
  8
0
 62
     0
 10
312.05218
 20
-90.998685
 30
0.0
 11
319.580345
 21
-83.47052
 31
0.0
  0
LINE
  8
0
 62
     0
 10
311.29606
 20
-88.219271
 30
0.0
 11
316.799739
 21
-82.715592
 31
0.0
  0
LINE
  8
0
 62
     0
 10
353.589176
 20
-113.101299
 30
0.0
 11
360.519589
 21
-106.170887
 31
0.0
  0
LINE
  8
0
 62
     0
 10
355.932673
 20
-114.293336
 30
0.0
 11
362.793992
 21
-107.432018
 31
0.0
  0
LINE
  8
0
 62
     0
 10
358.276171
 20
-115.485373
 30
0.0
 11
365.068394
 21
-108.693149
 31
0.0
  0
LINE
  8
0
 62
     0
 10
360.619668
 20
-116.677409
 30
0.0
 11
367.342796
 21
-109.954281
 31
0.0
  0
LINE
  8
0
 62
     0
 10
362.963165
 20
-117.869446
 30
0.0
 11
369.617199
 21
-111.215412
 31
0.0
  0
LINE
  8
0
 62
     0
 10
365.306663
 20
-119.061482
 30
0.0
 11
371.891601
 21
-112.476544
 31
0.0
  0
LINE
  8
0
 62
     0
 10
367.65016
 20
-120.253519
 30
0.0
 11
374.166004
 21
-113.737675
 31
0.0
  0
LINE
  8
0
 62
     0
 10
369.993657
 20
-121.445556
 30
0.0
 11
376.440406
 21
-114.998807
 31
0.0
  0
LINE
  8
0
 62
     0
 10
372.337155
 20
-122.637592
 30
0.0
 11
378.714808
 21
-116.259938
 31
0.0
  0
LINE
  8
0
 62
     0
 10
374.680652
 20
-123.829629
 30
0.0
 11
380.989211
 21
-117.52107
 31
0.0
  0
LINE
  8
0
 62
     0
 10
377.024149
 20
-125.021665
 30
0.0
 11
383.263613
 21
-118.782201
 31
0.0
  0
LINE
  8
0
 62
     0
 10
379.367647
 20
-126.213702
 30
0.0
 11
387.708415
 21
-117.872933
 31
0.0
  0
LINE
  8
0
 62
     0
 10
381.711144
 20
-127.405738
 30
0.0
 11
391.401291
 21
-117.715591
 31
0.0
  0
LINE
  8
0
 62
     0
 10
383.967755
 20
-128.684661
 30
0.0
 11
393.196059
 21
-119.456357
 31
0.0
  0
LINE
  8
0
 62
     0
 10
385.454447
 20
-130.733504
 30
0.0
 11
393.196059
 21
-122.991891
 31
0.0
  0
LINE
  8
0
 62
     0
 10
385.796059
 20
-133.927425
 30
0.0
 11
393.196059
 21
-126.527425
 31
0.0
  0
LINE
  8
0
 62
     0
 10
387.543427
 20
-135.715591
 30
0.0
 11
393.196059
 21
-130.062959
 31
0.0
  0
LINE
  8
0
 62
     0
 10
391.078961
 20
-135.715591
 30
0.0
 11
393.196059
 21
-133.598493
 31
0.0
  0
ENDBLK
  8
0
  0
BLOCK
  8
0
  2
*X3
 70
    65
 10
0.0
 20
0.0
 30
0.0
  3
*X
  0
LINE
  8
0
 62
     0
 10
338.072965
 20
-241.754595
 30
0.0
 11
347.137182
 21
-232.690379
 31
0.0
  0
LINE
  8
0
 62
     0
 10
335.698182
 20
-240.593845
 30
0.0
 11
344.866575
 21
-231.425451
 31
0.0
  0
LINE
  8
0
 62
     0
 10
333.323399
 20
-239.433094
 30
0.0
 11
342.595969
 21
-230.160524
 31
0.0
  0
LINE
  8
0
 62
     0
 10
330.948615
 20
-238.272343
 30
0.0
 11
340.325362
 21
-228.895597
 31
0.0
  0
LINE
  8
0
 62
     0
 10
328.573832
 20
-237.111593
 30
0.0
 11
338.054756
 21
-227.630669
 31
0.0
  0
LINE
  8
0
 62
     0
 10
326.199049
 20
-235.950842
 30
0.0
 11
335.784149
 21
-226.365742
 31
0.0
  0
LINE
  8
0
 62
     0
 10
323.824266
 20
-234.790091
 30
0.0
 11
333.513542
 21
-225.100815
 31
0.0
  0
LINE
  8
0
 62
     0
 10
321.449483
 20
-233.629341
 30
0.0
 11
331.242936
 21
-223.835887
 31
0.0
  0
LINE
  8
0
 62
     0
 10
319.074699
 20
-232.46859
 30
0.0
 11
328.972329
 21
-222.57096
 31
0.0
  0
LINE
  8
0
 62
     0
 10
316.699916
 20
-231.307839
 30
0.0
 11
326.701723
 21
-221.306033
 31
0.0
  0
LINE
  8
0
 62
     0
 10
314.325133
 20
-230.147089
 30
0.0
 11
324.431116
 21
-220.041106
 31
0.0
  0
LINE
  8
0
 62
     0
 10
311.95035
 20
-228.986338
 30
0.0
 11
322.160509
 21
-218.776178
 31
0.0
  0
LINE
  8
0
 62
     0
 10
309.575566
 20
-227.825587
 30
0.0
 11
319.889903
 21
-217.511251
 31
0.0
  0
LINE
  8
0
 62
     0
 10
307.200783
 20
-226.664837
 30
0.0
 11
317.619296
 21
-216.246324
 31
0.0
  0
LINE
  8
0
 62
     0
 10
304.826
 20
-225.504086
 30
0.0
 11
315.34869
 21
-214.981396
 31
0.0
  0
LINE
  8
0
 62
     0
 10
302.451217
 20
-224.343335
 30
0.0
 11
313.078083
 21
-213.716469
 31
0.0
  0
LINE
  8
0
 62
     0
 10
300.076434
 20
-223.182584
 30
0.0
 11
310.807476
 21
-212.451542
 31
0.0
  0
LINE
  8
0
 62
     0
 10
297.70165
 20
-222.021834
 30
0.0
 11
308.53687
 21
-211.186614
 31
0.0
  0
LINE
  8
0
 62
     0
 10
295.326867
 20
-220.861083
 30
0.0
 11
306.266263
 21
-209.921687
 31
0.0
  0
LINE
  8
0
 62
     0
 10
292.970318
 20
-219.682099
 30
0.0
 11
303.995657
 21
-208.65676
 31
0.0
  0
LINE
  8
0
 62
     0
 10
291.057127
 20
-218.059756
 30
0.0
 11
301.72505
 21
-207.391833
 31
0.0
  0
LINE
  8
0
 62
     0
 10
289.758174
 20
-215.823175
 30
0.0
 11
299.388003
 21
-206.193345
 31
0.0
  0
LINE
  8
0
 62
     0
 10
289.312613
 20
-212.733202
 30
0.0
 11
296.298031
 21
-205.747784
 31
0.0
  0
LINE
  8
0
 62
     0
 10
340.447748
 20
-242.915346
 30
0.0
 11
349.407789
 21
-233.955306
 31
0.0
  0
LINE
  8
0
 62
     0
 10
342.822532
 20
-244.076097
 30
0.0
 11
351.678395
 21
-235.220233
 31
0.0
  0
LINE
  8
0
 62
     0
 10
345.197315
 20
-245.236847
 30
0.0
 11
353.949002
 21
-236.48516
 31
0.0
  0
LINE
  8
0
 62
     0
 10
347.572098
 20
-246.397598
 30
0.0
 11
356.219608
 21
-237.750088
 31
0.0
  0
LINE
  8
0
 62
     0
 10
349.946881
 20
-247.558349
 30
0.0
 11
358.490215
 21
-239.015015
 31
0.0
  0
LINE
  8
0
 62
     0
 10
352.321664
 20
-248.7191
 30
0.0
 11
360.760822
 21
-240.279942
 31
0.0
  0
LINE
  8
0
 62
     0
 10
354.696448
 20
-249.87985
 30
0.0
 11
363.031428
 21
-241.54487
 31
0.0
  0
LINE
  8
0
 62
     0
 10
357.071231
 20
-251.040601
 30
0.0
 11
365.302035
 21
-242.809797
 31
0.0
  0
LINE
  8
0
 62
     0
 10
359.446014
 20
-252.201352
 30
0.0
 11
367.572641
 21
-244.074724
 31
0.0
  0
LINE
  8
0
 62
     0
 10
361.820797
 20
-253.362102
 30
0.0
 11
369.843248
 21
-245.339652
 31
0.0
  0
LINE
  8
0
 62
     0
 10
364.195581
 20
-254.522853
 30
0.0
 11
372.113855
 21
-246.604579
 31
0.0
  0
LINE
  8
0
 62
     0
 10
366.570364
 20
-255.683604
 30
0.0
 11
374.384461
 21
-247.869506
 31
0.0
  0
LINE
  8
0
 62
     0
 10
368.945147
 20
-256.844354
 30
0.0
 11
376.655068
 21
-249.134433
 31
0.0
  0
LINE
  8
0
 62
     0
 10
371.31993
 20
-258.005105
 30
0.0
 11
378.925674
 21
-250.399361
 31
0.0
  0
LINE
  8
0
 62
     0
 10
373.694714
 20
-259.165856
 30
0.0
 11
381.220524
 21
-251.640045
 31
0.0
  0
LINE
  8
0
 62
     0
 10
376.069497
 20
-260.326606
 30
0.0
 11
386.164873
 21
-250.23123
 31
0.0
  0
LINE
  8
0
 62
     0
 10
378.443916
 20
-261.487721
 30
0.0
 11
389.700407
 21
-250.23123
 31
0.0
  0
LINE
  8
0
 62
     0
 10
380.456667
 20
-263.010504
 30
0.0
 11
391.296059
 21
-252.171112
 31
0.0
  0
LINE
  8
0
 62
     0
 10
381.814405
 20
-265.1883
 30
0.0
 11
391.296059
 21
-255.706646
 31
0.0
  0
LINE
  8
0
 62
     0
 10
382.296059
 20
-268.24218
 30
0.0
 11
391.296059
 21
-259.24218
 31
0.0
  0
LINE
  8
0
 62
     0
 10
382.296059
 20
-271.777714
 30
0.0
 11
391.296059
 21
-262.777714
 31
0.0
  0
LINE
  8
0
 62
     0
 10
385.378076
 20
-272.23123
 30
0.0
 11
391.296059
 21
-266.313247
 31
0.0
  0
LINE
  8
0
 62
     0
 10
388.91361
 20
-272.23123
 30
0.0
 11
391.296059
 21
-269.848781
 31
0.0
  0
ENDBLK
  8
0
  0
BLOCK
  8
0
  2
*X4
 70
    65
 10
0.0
 20
0.0
 30
0.0
  3
*X
  0
LINE
  8
0
 62
     0
 10
319.958497
 20
-390.683819
 30
0.0
 11
331.373831
 21
-379.268484
 31
0.0
  0
LINE
  8
0
 62
     0
 10
317.630469
 20
-389.476312
 30
0.0
 11
329.118849
 21
-377.987932
 31
0.0
  0
LINE
  8
0
 62
     0
 10
315.302441
 20
-388.268806
 30
0.0
 11
326.863868
 21
-376.70738
 31
0.0
  0
LINE
  8
0
 62
     0
 10
312.974414
 20
-387.061299
 30
0.0
 11
324.608886
 21
-375.426828
 31
0.0
  0
LINE
  8
0
 62
     0
 10
310.646386
 20
-385.853793
 30
0.0
 11
322.353904
 21
-374.146276
 31
0.0
  0
LINE
  8
0
 62
     0
 10
308.318359
 20
-384.646287
 30
0.0
 11
320.098922
 21
-372.865724
 31
0.0
  0
LINE
  8
0
 62
     0
 10
305.990331
 20
-383.43878
 30
0.0
 11
317.84394
 21
-371.585171
 31
0.0
  0
LINE
  8
0
 62
     0
 10
303.662304
 20
-382.231274
 30
0.0
 11
315.588958
 21
-370.304619
 31
0.0
  0
LINE
  8
0
 62
     0
 10
301.334276
 20
-381.023768
 30
0.0
 11
313.333976
 21
-369.024067
 31
0.0
  0
LINE
  8
0
 62
     0
 10
299.006249
 20
-379.816261
 30
0.0
 11
311.078995
 21
-367.743515
 31
0.0
  0
LINE
  8
0
 62
     0
 10
296.678221
 20
-378.608755
 30
0.0
 11
308.824013
 21
-366.462963
 31
0.0
  0
LINE
  8
0
 62
     0
 10
294.350194
 20
-377.401249
 30
0.0
 11
306.569031
 21
-365.182411
 31
0.0
  0
LINE
  8
0
 62
     0
 10
292.022166
 20
-376.193742
 30
0.0
 11
304.314049
 21
-363.901859
 31
0.0
  0
LINE
  8
0
 62
     0
 10
289.694138
 20
-374.986236
 30
0.0
 11
302.059067
 21
-362.621307
 31
0.0
  0
LINE
  8
0
 62
     0
 10
287.366111
 20
-373.77873
 30
0.0
 11
299.804085
 21
-361.340755
 31
0.0
  0
LINE
  8
0
 62
     0
 10
285.038083
 20
-372.571223
 30
0.0
 11
297.549104
 21
-360.060203
 31
0.0
  0
LINE
  8
0
 62
     0
 10
282.710056
 20
-371.363717
 30
0.0
 11
295.294122
 21
-358.779651
 31
0.0
  0
LINE
  8
0
 62
     0
 10
280.382028
 20
-370.15621
 30
0.0
 11
293.03914
 21
-357.499099
 31
0.0
  0
LINE
  8
0
 62
     0
 10
278.054001
 20
-368.948704
 30
0.0
 11
290.784158
 21
-356.218547
 31
0.0
  0
LINE
  8
0
 62
     0
 10
275.725973
 20
-367.741198
 30
0.0
 11
288.529176
 21
-354.937995
 31
0.0
  0
LINE
  8
0
 62
     0
 10
273.397946
 20
-366.533691
 30
0.0
 11
286.274194
 21
-353.657443
 31
0.0
  0
LINE
  8
0
 62
     0
 10
271.069918
 20
-365.326185
 30
0.0
 11
284.019213
 21
-352.37689
 31
0.0
  0
LINE
  8
0
 62
     0
 10
268.741891
 20
-364.118679
 30
0.0
 11
281.764231
 21
-351.096338
 31
0.0
  0
LINE
  8
0
 62
     0
 10
266.413863
 20
-362.911172
 30
0.0
 11
279.509249
 21
-349.815786
 31
0.0
  0
LINE
  8
0
 62
     0
 10
264.085835
 20
-361.703666
 30
0.0
 11
277.254267
 21
-348.535234
 31
0.0
  0
LINE
  8
0
 62
     0
 10
261.854892
 20
-360.399076
 30
0.0
 11
274.999285
 21
-347.254682
 31
0.0
  0
LINE
  8
0
 62
     0
 10
260.092734
 20
-358.6257
 30
0.0
 11
272.744303
 21
-345.97413
 31
0.0
  0
LINE
  8
0
 62
     0
 10
258.848401
 20
-356.334499
 30
0.0
 11
270.400422
 21
-344.782478
 31
0.0
  0
LINE
  8
0
 62
     0
 10
258.296864
 20
-353.350502
 30
0.0
 11
267.416425
 21
-344.230941
 31
0.0
  0
LINE
  8
0
 62
     0
 10
259.684991
 20
-348.42684
 30
0.0
 11
262.492763
 21
-345.619068
 31
0.0
  0
LINE
  8
0
 62
     0
 10
322.286524
 20
-391.891325
 30
0.0
 11
333.628813
 21
-380.549036
 31
0.0
  0
LINE
  8
0
 62
     0
 10
324.614552
 20
-393.098831
 30
0.0
 11
335.883795
 21
-381.829588
 31
0.0
  0
LINE
  8
0
 62
     0
 10
326.942579
 20
-394.306338
 30
0.0
 11
338.138777
 21
-383.11014
 31
0.0
  0
LINE
  8
0
 62
     0
 10
329.270607
 20
-395.513844
 30
0.0
 11
340.393759
 21
-384.390692
 31
0.0
  0
LINE
  8
0
 62
     0
 10
331.598634
 20
-396.72135
 30
0.0
 11
342.64874
 21
-385.671244
 31
0.0
  0
LINE
  8
0
 62
     0
 10
333.926662
 20
-397.928857
 30
0.0
 11
344.903722
 21
-386.951796
 31
0.0
  0
LINE
  8
0
 62
     0
 10
336.254689
 20
-399.136363
 30
0.0
 11
347.158704
 21
-388.232348
 31
0.0
  0
LINE
  8
0
 62
     0
 10
338.582717
 20
-400.343869
 30
0.0
 11
349.413686
 21
-389.5129
 31
0.0
  0
LINE
  8
0
 62
     0
 10
340.910744
 20
-401.551376
 30
0.0
 11
351.668668
 21
-390.793453
 31
0.0
  0
LINE
  8
0
 62
     0
 10
343.238772
 20
-402.758882
 30
0.0
 11
353.92365
 21
-392.074005
 31
0.0
  0
LINE
  8
0
 62
     0
 10
345.5668
 20
-403.966388
 30
0.0
 11
356.178631
 21
-393.354557
 31
0.0
  0
LINE
  8
0
 62
     0
 10
347.894827
 20
-405.173895
 30
0.0
 11
358.433613
 21
-394.635109
 31
0.0
  0
LINE
  8
0
 62
     0
 10
350.222855
 20
-406.381401
 30
0.0
 11
360.688595
 21
-395.915661
 31
0.0
  0
LINE
  8
0
 62
     0
 10
352.550882
 20
-407.588908
 30
0.0
 11
362.943577
 21
-397.196213
 31
0.0
  0
LINE
  8
0
 62
     0
 10
354.87891
 20
-408.796414
 30
0.0
 11
365.198559
 21
-398.476765
 31
0.0
  0
LINE
  8
0
 62
     0
 10
357.206937
 20
-410.00392
 30
0.0
 11
367.453541
 21
-399.757317
 31
0.0
  0
LINE
  8
0
 62
     0
 10
359.534965
 20
-411.211427
 30
0.0
 11
369.708522
 21
-401.037869
 31
0.0
  0
LINE
  8
0
 62
     0
 10
361.862992
 20
-412.418933
 30
0.0
 11
371.963504
 21
-402.318421
 31
0.0
  0
LINE
  8
0
 62
     0
 10
364.19102
 20
-413.626439
 30
0.0
 11
374.624235
 21
-403.193224
 31
0.0
  0
LINE
  8
0
 62
     0
 10
366.519047
 20
-414.833946
 30
0.0
 11
379.030439
 21
-402.322554
 31
0.0
  0
LINE
  8
0
 62
     0
 10
368.847075
 20
-416.041452
 30
0.0
 11
384.158391
 21
-400.730136
 31
0.0
  0
LINE
  8
0
 62
     0
 10
371.175103
 20
-417.248958
 30
0.0
 11
387.693925
 21
-400.730136
 31
0.0
  0
LINE
  8
0
 62
     0
 10
373.50313
 20
-418.456465
 30
0.0
 11
389.596059
 21
-402.363536
 31
0.0
  0
LINE
  8
0
 62
     0
 10
375.82613
 20
-419.668999
 30
0.0
 11
389.596059
 21
-405.89907
 31
0.0
  0
LINE
  8
0
 62
     0
 10
377.597715
 20
-421.432948
 30
0.0
 11
389.596059
 21
-409.434604
 31
0.0
  0
LINE
  8
0
 62
     0
 10
378.296059
 20
-424.270138
 30
0.0
 11
389.596059
 21
-412.970138
 31
0.0
  0
LINE
  8
0
 62
     0
 10
378.296059
 20
-427.805671
 30
0.0
 11
389.596059
 21
-416.505671
 31
0.0
  0
LINE
  8
0
 62
     0
 10
380.907128
 20
-428.730136
 30
0.0
 11
389.596059
 21
-420.041205
 31
0.0
  0
LINE
  8
0
 62
     0
 10
384.442662
 20
-428.730136
 30
0.0
 11
389.596059
 21
-423.576739
 31
0.0
  0
LINE
  8
0
 62
     0
 10
387.978196
 20
-428.730136
 30
0.0
 11
389.596059
 21
-427.112273
 31
0.0
  0
ENDBLK
  8
0
  0
ENDSEC
  0
SECTION
  2
ENTITIES
  0
LINE
  8
0
 10
391.296059
 20
-251.23123
 30
0.0
 11
398.296059
 21
-251.23123
 31
0.0
  0
LINE
  8
0
 10
390.296059
 20
-250.23123
 30
0.0
 11
391.296059
 21
-251.23123
 31
0.0
  0
LINE
  8
0
 10
391.296059
 20
-271.23123
 30
0.0
 11
398.296059
 21
-271.23123
 31
0.0
  0
LINE
  8
0
 10
390.296059
 20
-272.23123
 30
0.0
 11
391.296059
 21
-271.23123
 31
0.0
  0
LINE
  8
0
 10
388.296059
 20
-400.730136
 30
0.0
 11
389.596059
 21
-402.030136
 31
0.0
  0
LINE
  8
0
 10
389.596059
 20
-402.030136
 30
0.0
 11
398.296059
 21
-402.030136
 31
0.0
  0
LINE
  8
0
 10
389.596059
 20
-427.430136
 30
0.0
 11
398.296059
 21
-427.430136
 31
0.0
  0
LINE
  8
0
 10
388.296059
 20
-428.730136
 30
0.0
 11
389.596059
 21
-427.430136
 31
0.0
  0
ARC
  8
0
 10
577.13938
 20
-354.80514
 30
0.0
 40
8.0
 50
355.95964
 51
39.208352
  0
ARC
  8
0
 10
566.291447
 20
-354.80514
 30
0.0
 40
8.0
 50
140.791648
 51
184.04036
  0
ARC
  8
0
 10
571.715414
 20
-359.230136
 30
0.0
 40
15.0
 50
39.208352
 51
140.791648
  0
LINE
  8
0
 10
580.784782
 20
-416.736883
 30
0.0
 11
585.119498
 21
-355.368813
 31
0.0
  0
LINE
  8
0
 10
562.646046
 20
-416.736883
 30
0.0
 11
558.31133
 21
-355.368813
 31
0.0
  0
ARC
  8
0
 10
588.206811
 20
-402.730136
 30
0.0
 40
2.0
 50
15.945396
 51
90.0
  0
LINE
  8
0
 10
591.715414
 20
-407.730136
 30
0.0
 11
590.129859
 21
-402.180694
 31
0.0
  0
LINE
  8
0
 10
591.715414
 20
-428.730136
 30
0.0
 11
591.715414
 21
-407.730136
 31
0.0
  0
LINE
  8
0
 10
551.715414
 20
-428.730136
 30
0.0
 11
551.715414
 21
-407.730136
 31
0.0
  0
LINE
  8
0
 10
551.715414
 20
-428.730136
 30
0.0
 11
591.715414
 21
-428.730136
 31
0.0
  0
LINE
  8
0
 10
555.224017
 20
-400.730136
 30
0.0
 11
561.515414
 21
-400.730136
 31
0.0
  0
LINE
  8
0
 10
551.715414
 20
-407.730136
 30
0.0
 11
553.300969
 21
-402.180694
 31
0.0
  0
ARC
  8
0
 10
555.224017
 20
-402.730136
 30
0.0
 40
2.0
 50
90.0
 51
164.054604
  0
ARC
  8
0
 10
398.296059
 20
-468.730136
 30
0.0
 40
20.0
 50
38.543096
 51
141.456904
  0
CIRCLE
  8
0
 10
398.296059
 20
-468.730136
 30
0.0
 40
17.695788
  0
ARC
  8
0
 10
418.631691
 20
-484.930817
 30
0.0
 40
6.0
 50
88.180033
 51
141.456904
  0
ARC
  8
0
 10
418.631691
 20
-452.529455
 30
0.0
 40
6.0
 50
218.543096
 51
271.819967
  0
ARC
  8
0
 10
524.733843
 20
-468.730136
 30
0.0
 40
13.562216
 50
268.15019
 51
91.84981
  0
LINE
  8
0
 10
418.822246
 20
-478.933844
 30
0.0
 11
524.296059
 21
-482.285285
 31
0.0
  0
LINE
  8
0
 10
418.822246
 20
-458.526428
 30
0.0
 11
524.296059
 21
-455.174987
 31
0.0
  0
CIRCLE
  8
0
 10
398.296059
 20
-468.730136
 30
0.0
 40
8.7
  0
CIRCLE
  8
0
 10
398.296059
 20
-468.730136
 30
0.0
 40
10.0
  0
LINE
  8
0
 10
389.596059
 20
-427.430136
 30
0.0
 11
389.596059
 21
-402.030136
 31
0.0
  0
LINE
  8
0
 10
388.296059
 20
-428.730136
 30
0.0
 11
388.296059
 21
-400.730136
 31
0.0
  0
ARC
  8
0
 10
398.296059
 20
-468.730136
 30
0.0
 40
20.0
 50
335.369292
 51
24.630708
  0
ARC
  8
0
 10
433.879933
 20
-410.533928
 30
0.0
 40
16.825477
 50
157.87507
 51
211.354213
  0
ARC
  8
0
 10
423.296059
 20
-423.981625
 30
0.0
 40
5.0
 50
117.414964
 51
180.0
  0
ARC
  8
0
 10
421.133288
 20
-395.83228
 30
0.0
 40
7.408107
 50
229.95842
 51
293.492527
  0
LINE
  8
0
 10
420.993901
 20
-419.543149
 30
0.0
 11
533.439944
 21
-361.219393
 31
0.0
  0
LINE
  8
0
 10
424.086378
 20
-402.626344
 30
0.0
 11
524.851779
 21
-345.404002
 31
0.0
  0
ARC
  8
0
 10
529.296059
 20
-353.230136
 30
0.0
 40
9.0
 50
297.414964
 51
119.591242
  0
ARC
  8
0
 10
414.787456
 20
-402.730136
 30
0.0
 40
2.0
 50
37.82031
 51
90.0
  0
LINE
  8
0
 10
381.804662
 20
-400.730136
 30
0.0
 11
414.787456
 21
-400.730136
 31
0.0
  0
LINE
  8
0
 10
378.296059
 20
-428.730136
 30
0.0
 11
418.296059
 21
-428.730136
 31
0.0
  0
LINE
  8
0
 10
418.296059
 20
-428.730136
 30
0.0
 11
418.296059
 21
-423.981625
 31
0.0
  0
LINE
  8
0
  6
CENTER
 10
398.296059
 20
-432.629891
 30
0.0
 11
398.296059
 21
-396.424374
 31
0.0
  0
ARC
  8
0
 10
536.862735
 20
-215.427249
 30
0.0
 40
8.0
 50
355.880389
 51
21.394846
  0
LINE
  8
0
 10
544.842065
 20
-216.00196
 30
0.0
 11
541.65003
 21
-260.320435
 31
0.0
  0
ARC
  8
0
 10
531.890674
 20
-215.427249
 30
0.0
 40
8.0
 50
158.605154
 51
184.119611
  0
LINE
  8
0
 10
523.911343
 20
-216.00196
 30
0.0
 11
527.103378
 21
-260.320435
 31
0.0
  0
ARC
  8
0
 10
534.376704
 20
-216.401256
 30
0.0
 40
10.670026
 50
21.394846
 51
158.605154
  0
ARC
  8
0
 10
546.574806
 20
-252.73123
 30
0.0
 40
2.5
 50
18.434949
 51
90.0
  0
LINE
  8
0
 10
550.376704
 20
-256.23123
 30
0.0
 11
548.946514
 21
-251.940661
 31
0.0
  0
LINE
  8
0
 10
550.376704
 20
-272.23123
 30
0.0
 11
550.376704
 21
-256.23123
 31
0.0
  0
LINE
  8
0
 10
518.376704
 20
-272.23123
 30
0.0
 11
518.376704
 21
-256.23123
 31
0.0
  0
LINE
  8
0
 10
518.376704
 20
-272.23123
 30
0.0
 11
550.376704
 21
-272.23123
 31
0.0
  0
LINE
  8
0
 10
522.178602
 20
-250.23123
 30
0.0
 11
526.376704
 21
-250.23123
 31
0.0
  0
LINE
  8
0
 10
518.376704
 20
-256.23123
 30
0.0
 11
519.806894
 21
-251.940661
 31
0.0
  0
ARC
  8
0
 10
522.178602
 20
-252.73123
 30
0.0
 40
2.5
 50
90.0
 51
161.565051
  0
ARC
  8
0
 10
398.296059
 20
-299.90865
 30
0.0
 40
16.0
 50
40.180925
 51
139.819075
  0
ARC
  8
0
 10
415.104298
 20
-314.103124
 30
0.0
 40
6.0
 50
88.255218
 51
139.819075
  0
ARC
  8
0
 10
415.104298
 20
-285.714176
 30
0.0
 40
6.0
 50
220.180925
 51
271.744782
  0
ARC
  8
0
 10
496.626033
 20
-299.90865
 30
0.0
 40
10.670026
 50
268.227826
 51
91.772174
  0
LINE
  8
0
 10
415.286983
 20
-308.105906
 30
0.0
 11
496.296059
 21
-310.573572
 31
0.0
  0
LINE
  8
0
 10
415.286983
 20
-291.711394
 30
0.0
 11
496.296059
 21
-289.243727
 31
0.0
  0
CIRCLE
  8
0
 10
398.296059
 20
-299.90865
 30
0.0
 40
13.659878
  0
CIRCLE
  8
0
 10
398.296059
 20
-299.90865
 30
0.0
 40
8.0
  0
CIRCLE
  8
0
 10
398.296059
 20
-299.90865
 30
0.0
 40
7.0
  0
ARC
  8
0
 10
398.296059
 20
-299.90865
 30
0.0
 40
16.0
 50
337.163372
 51
22.836628
  0
LINE
  8
0
 10
391.296059
 20
-271.23123
 30
0.0
 11
391.296059
 21
-251.23123
 31
0.0
  0
LINE
  8
0
 10
390.296059
 20
-272.23123
 30
0.0
 11
390.296059
 21
-250.23123
 31
0.0
  0
ARC
  8
0
 10
422.718106
 20
-254.402626
 30
0.0
 40
9.289064
 50
168.454227
 51
229.122624
  0
ARC
  8
0
 10
421.296059
 20
-267.74
 30
0.0
 40
7.0
 50
116.04854
 51
180.0
  0
ARC
  8
0
 10
414.390526
 20
-248.601293
 30
0.0
 40
3.193197
 50
222.945058
 51
291.508099
  0
LINE
  8
0
 10
418.222132
 20
-261.451044
 30
0.0
 11
503.089552
 21
-219.969398
 31
0.0
  0
LINE
  8
0
 10
415.561257
 20
-251.572135
 30
0.0
 11
496.146068
 21
-206.679317
 31
0.0
  0
ARC
  8
0
 10
499.796059
 20
-213.23123
 30
0.0
 40
7.5
 50
296.04854
 51
119.121647
  0
ARC
  8
0
 10
410.494161
 20
-252.73123
 30
0.0
 40
2.5
 50
41.910957
 51
90.0
  0
LINE
  8
0
 10
386.097957
 20
-250.23123
 30
0.0
 11
410.494161
 21
-250.23123
 31
0.0
  0
LINE
  8
0
 10
382.296059
 20
-272.23123
 30
0.0
 11
414.296059
 21
-272.23123
 31
0.0
  0
LINE
  8
0
 10
414.296059
 20
-272.23123
 30
0.0
 11
414.296059
 21
-267.74
 31
0.0
  0
LINE
  8
0
  6
CENTER
 10
398.296059
 20
-275.424779
 30
0.0
 11
398.296059
 21
-247.392521
 31
0.0
  0
LINE
  8
0
 10
392.296059
 20
-117.715591
 30
0.0
 11
393.196059
 21
-118.615591
 31
0.0
  0
LINE
  8
0
 10
393.196059
 20
-118.615591
 30
0.0
 11
398.296059
 21
-118.615591
 31
0.0
  0
LINE
  8
0
 10
393.196059
 20
-134.815591
 30
0.0
 11
398.296059
 21
-134.815591
 31
0.0
  0
LINE
  8
0
 10
392.296059
 20
-135.715591
 30
0.0
 11
393.196059
 21
-134.815591
 31
0.0
  0
LINE
  8
0
  6
CENTER
 10
398.296059
 20
-115.312365
 30
0.0
 11
398.296059
 21
-138.909139
 31
0.0
  0
ARC
  8
0
 10
510.98143
 20
-88.888509
 30
0.0
 40
5.0
 50
357.017709
 51
51.8821
  0
ARC
  8
0
 10
504.191333
 20
-88.888507
 30
0.0
 40
5.0
 50
128.117874
 51
182.982291
  0
LINE
  8
0
 10
514.022582
 20
-126.618068
 30
0.0
 11
515.974658
 21
-89.148645
 31
0.0
  0
LINE
  8
0
 10
501.150182
 20
-126.618068
 30
0.0
 11
499.198105
 21
-89.148644
 31
0.0
  0
ARC
  8
0
 10
507.586381
 20
-93.215591
 30
0.0
 40
10.5
 50
51.8821
 51
128.117874
  0
ARC
  8
0
 10
517.505243
 20
-119.215591
 30
0.0
 40
1.5
 50
18.434949
 51
90.0
  0
LINE
  8
0
 10
520.086382
 20
-122.215591
 30
0.0
 11
518.928268
 21
-118.741249
 31
0.0
  0
LINE
  8
0
 10
520.086382
 20
-122.215591
 30
0.0
 11
520.086382
 21
-135.715591
 31
0.0
  0
LINE
  8
0
 10
495.086382
 20
-122.215591
 30
0.0
 11
495.086382
 21
-135.715591
 31
0.0
  0
LINE
  8
0
 10
495.086382
 20
-135.715591
 30
0.0
 11
520.086382
 21
-135.715591
 31
0.0
  0
LINE
  8
0
 10
497.66752
 20
-117.715591
 30
0.0
 11
500.686382
 21
-117.715591
 31
0.0
  0
LINE
  8
0
 10
495.086382
 20
-122.215591
 30
0.0
 11
496.244496
 21
-118.741249
 31
0.0
  0
ARC
  8
0
 10
497.66752
 20
-119.215591
 30
0.0
 40
1.5
 50
90.0
 51
161.565051
  0
CIRCLE
  8
0
 10
398.296059
 20
-163.39301
 30
0.0
 40
10.795927
  0
ARC
  8
0
 10
398.296059
 20
-163.39301
 30
0.0
 40
12.5
 50
42.069039
 51
137.930961
  0
ARC
  8
0
 10
412.029312
 20
-175.788483
 30
0.0
 40
6.0
 50
88.196093
 51
137.930961
  0
ARC
  8
0
 10
412.029312
 20
-150.997537
 30
0.0
 40
6.0
 50
222.069039
 51
271.803907
  0
ARC
  8
0
 10
477.193639
 20
-163.833862
 30
0.0
 40
8.0
 50
268.196093
 51
333.841781
  0
ARC
  8
0
 10
477.193639
 20
-162.952159
 30
0.0
 40
8.0
 50
26.158219
 51
91.803907
  0
ARC
  8
0
 10
476.296059
 20
-163.39301
 30
0.0
 40
9.0
 50
333.841781
 51
26.158219
  0
LINE
  8
0
 10
412.218186
 20
-169.791457
 30
0.0
 11
476.941808
 21
-171.829897
 31
0.0
  0
LINE
  8
0
 10
412.218186
 20
-156.994564
 30
0.0
 11
476.941808
 21
-154.956124
 31
0.0
  0
CIRCLE
  8
0
 10
398.296059
 20
-163.39301
 30
0.0
 40
5.1
  0
CIRCLE
  8
0
 10
398.296059
 20
-163.39301
 30
0.0
 40
6.0
  0
ARC
  8
0
 10
398.296059
 20
-163.39301
 30
0.0
 40
12.5
 50
340.083814
 51
19.916186
  0
LINE
  8
0
 10
393.196059
 20
-118.615591
 30
0.0
 11
393.196059
 21
-134.815591
 31
0.0
  0
LINE
  8
0
 10
392.296059
 20
-117.715591
 30
0.0
 11
392.296059
 21
-135.715591
 31
0.0
  0
ARC
  8
0
 10
419.661089
 20
-122.976891
 30
0.0
 40
9.632451
 50
163.573118
 51
214.560571
  0
ARC
  8
0
 10
415.796059
 20
-132.549935
 30
0.0
 40
5.0
 50
116.960489
 51
180.0
  0
LINE
  8
0
 10
410.796059
 20
-132.549935
 30
0.0
 11
410.796059
 21
-135.715591
 31
0.0
  0
ARC
  8
0
 10
411.712035
 20
-115.927925
 30
0.0
 40
3.299954
 50
222.976928
 51
292.718165
  0
LINE
  8
0
 10
413.529179
 20
-128.093339
 30
0.0
 11
482.289627
 21
-93.117848
 31
0.0
  0
LINE
  8
0
 10
412.986472
 20
-118.971855
 30
0.0
 11
477.128943
 21
-83.40555
 31
0.0
  0
ARC
  8
0
 10
408.21492
 20
-119.215591
 30
0.0
 40
1.5
 50
42.671062
 51
90.0
  0
ARC
  8
0
 10
479.796059
 20
-88.215591
 30
0.0
 40
5.5
 50
296.960497
 51
119.00789
  0
LINE
  8
0
 10
388.377198
 20
-117.715591
 30
0.0
 11
408.21492
 21
-117.715591
 31
0.0
  0
LINE
  8
0
 10
385.796059
 20
-135.715591
 30
0.0
 11
410.796059
 21
-135.715591
 31
0.0
  0
LINE
  8
0
 10
394.046059
 20
-20.523977
 30
0.0
 11
398.296059
 21
-20.523977
 31
0.0
  0
LINE
  8
0
 10
393.296059
 20
-19.773977
 30
0.0
 11
394.046059
 21
-20.523977
 31
0.0
  0
LINE
  8
0
 10
394.046059
 20
-33.023977
 30
0.0
 11
398.296059
 21
-33.023977
 31
0.0
  0
LINE
  8
0
 10
393.296059
 20
-33.773977
 30
0.0
 11
394.046059
 21
-33.023977
 31
0.0
  0
ARC
  8
0
 10
494.952373
 20
3.542125
 30
0.0
 40
4.0
 50
355.74406
 51
41.432985
  0
ARC
  8
0
 10
489.704261
 20
3.542125
 30
0.0
 40
4.0
 50
138.567015
 51
184.25594
  0
LINE
  8
0
 10
496.731974
 20
-26.443731
 30
0.0
 11
498.941343
 21
3.245278
 31
0.0
  0
LINE
  8
0
 10
487.924661
 20
-26.443731
 30
0.0
 11
485.715291
 21
3.245278
 31
0.0
  0
ARC
  8
0
 10
492.328317
 20
1.226023
 30
0.0
 40
7.5
 50
41.432985
 51
138.567015
  0
ARC
  8
0
 10
500.056889
 20
-21.273977
 30
0.0
 40
1.5
 50
18.924644
 51
90.0
  0
LINE
  8
0
 10
502.328317
 20
-23.273977
 30
0.0
 11
501.475807
 21
-20.787491
 31
0.0
  0
LINE
  8
0
 10
502.328317
 20
-33.773977
 30
0.0
 11
502.328317
 21
-23.273977
 31
0.0
  0
LINE
  8
0
 10
482.328317
 20
-33.773977
 30
0.0
 11
482.328317
 21
-23.273977
 31
0.0
  0
LINE
  8
0
 10
502.328317
 20
-33.773977
 30
0.0
 11
502.328317
 21
-30.791321
 31
0.0
  0
LINE
  8
0
 10
482.328317
 20
-33.773977
 30
0.0
 11
502.328317
 21
-33.773977
 31
0.0
  0
LINE
  8
0
 10
484.599746
 20
-19.773977
 30
0.0
 11
487.428317
 21
-19.773977
 31
0.0
  0
LINE
  8
0
 10
482.328317
 20
-23.273977
 30
0.0
 11
483.180827
 21
-20.787491
 31
0.0
  0
ARC
  8
0
 10
484.599746
 20
-21.273977
 30
0.0
 40
1.5
 50
90.0
 51
161.075356
  0
ARC
  8
0
 10
398.296059
 20
-51.441194
 30
0.0
 40
10.0
 50
41.715239
 51
138.284761
  0
CIRCLE
  8
0
 10
398.296059
 20
-51.441194
 30
0.0
 40
8.600429
  0
ARC
  8
0
 10
409.492977
 20
-61.422628
 30
0.0
 40
5.0
 50
88.17748
 51
138.284761
  0
ARC
  8
0
 10
409.492977
 20
-41.45976
 30
0.0
 40
5.0
 50
221.715239
 51
271.82252
  0
ARC
  8
0
 10
462.147279
 20
-52.092505
 30
0.0
 40
6.0
 50
268.17748
 51
334.265139
  0
ARC
  8
0
 10
462.147279
 20
-50.789883
 30
0.0
 40
6.0
 50
25.734861
 51
91.82252
  0
ARC
  8
0
 10
460.796059
 20
-51.441194
 30
0.0
 40
7.5
 50
334.265139
 51
25.734861
  0
LINE
  8
0
 10
409.651995
 20
-56.425157
 30
0.0
 11
461.956457
 21
-58.08947
 31
0.0
  0
LINE
  8
0
 10
461.956457
 20
-44.792918
 30
0.0
 11
409.651995
 21
-46.457231
 31
0.0
  0
CIRCLE
  8
0
 10
398.296059
 20
-51.441194
 30
0.0
 40
4.25
  0
CIRCLE
  8
0
 10
398.296059
 20
-51.441194
 30
0.0
 40
5.0
  0
ARC
  8
0
 10
398.296059
 20
-51.441194
 30
0.0
 40
10.0
 50
338.129063
 51
21.870937
  0
ARC
  8
0
 10
416.838505
 20
-22.509648
 30
0.0
 40
9.207986
 50
173.665958
 51
214.863067
  0
LINE
  8
0
 10
394.046059
 20
-33.023977
 30
0.0
 11
394.046059
 21
-20.523977
 31
0.0
  0
LINE
  8
0
 10
393.296059
 20
-33.773977
 30
0.0
 11
393.296059
 21
-19.773977
 31
0.0
  0
ARC
  8
0
 10
411.296059
 20
-30.791321
 30
0.0
 40
3.0
 50
116.877651
 51
180.0
  0
ARC
  8
0
 10
408.849053
 20
-16.730901
 30
0.0
 40
3.861396
 50
240.510125
 51
300.169956
  0
LINE
  8
0
 10
410.657747
 20
-20.1425
 30
0.0
 11
461.610958
 21
8.159893
 31
0.0
  0
LINE
  8
0
 10
409.939799
 20
-28.115399
 30
0.0
 11
465.83045
 21
0.21214
 31
0.0
  0
ARC
  8
0
 10
463.796059
 20
4.226023
 30
0.0
 40
4.5
 50
296.877654
 51
119.050353
  0
ARC
  8
0
 10
406.02463
 20
-21.273977
 30
0.0
 40
1.5
 50
51.996034
 51
90.0
  0
LINE
  8
0
 10
390.567488
 20
-19.773977
 30
0.0
 11
406.02463
 21
-19.773977
 31
0.0
  0
LINE
  8
0
 10
388.296059
 20
-33.773977
 30
0.0
 11
408.296059
 21
-33.773977
 31
0.0
  0
LINE
  8
0
 10
408.296059
 20
-33.773977
 30
0.0
 11
408.296059
 21
-30.791321
 31
0.0
  0
LINE
  8
0
  6
CENTER
 10
398.296059
 20
-36.080429
 30
0.0
 11
398.296059
 21
-17.306624
 31
0.0
  0
ARC
  8
0
 10
472.626352
 20
54.585694
 30
0.0
 40
1.0
 50
21.801409
 51
90.0
  0
LINE
  8
0
 10
474.303385
 20
53.085694
 30
0.0
 11
473.554828
 21
54.957085
 31
0.0
  0
LINE
  8
0
 10
474.303385
 20
43.585694
 30
0.0
 11
474.303385
 21
53.085694
 31
0.0
  0
ARC
  8
0
 10
463.572431
 20
73.66227
 30
0.0
 40
3.0
 50
127.364148
 51
185.194429
  0
ARC
  8
0
 10
469.034338
 20
73.66227
 30
0.0
 40
3.0
 50
354.805571
 51
52.635852
  0
LINE
  8
0
 10
469.856856
 20
49.573882
 30
0.0
 11
472.022018
 21
73.390662
 31
0.0
  0
LINE
  8
0
 10
462.749913
 20
49.573882
 30
0.0
 11
460.584751
 21
73.390662
 31
0.0
  0
ARC
  8
0
 10
466.303385
 20
70.085694
 30
0.0
 40
7.5
 50
52.635852
 51
127.364148
  0
LINE
  8
0
 10
458.303385
 20
43.585694
 30
0.0
 11
458.303385
 21
53.085694
 31
0.0
  0
LINE
  8
0
 10
458.303385
 20
43.585694
 30
0.0
 11
474.303385
 21
43.585694
 31
0.0
  0
LINE
  8
0
 10
459.980418
 20
55.585694
 30
0.0
 11
462.203385
 21
55.585694
 31
0.0
  0
LINE
  8
0
 10
458.303385
 20
53.085694
 30
0.0
 11
459.051941
 21
54.957085
 31
0.0
  0
ARC
  8
0
 10
459.980418
 20
54.585694
 30
0.0
 40
1.0
 50
90.0
 51
158.198591
  0
LINE
  8
0
 10
394.896059
 20
54.985694
 30
0.0
 11
398.296059
 21
54.985694
 31
0.0
  0
LINE
  8
0
 10
394.296059
 20
55.585694
 30
0.0
 11
394.896059
 21
54.985694
 31
0.0
  0
LINE
  8
0
 10
394.896059
 20
44.185694
 30
0.0
 11
398.296059
 21
44.185694
 31
0.0
  0
LINE
  8
0
 10
394.296059
 20
43.585694
 30
0.0
 11
394.896059
 21
44.185694
 31
0.0
  0
ARC
  8
0
 10
398.296059
 20
30.338434
 30
0.0
 40
8.0
 50
40.628626
 51
139.371372
  0
ARC
  8
0
 10
413.636822
 20
53.412498
 30
0.0
 40
8.188371
 50
172.885898
 51
215.843267
  0
CIRCLE
  8
0
 10
398.296059
 20
30.338434
 30
0.0
 40
6.883596
  0
LINE
  8
0
 10
394.896059
 20
44.185694
 30
0.0
 11
394.896059
 21
54.985694
 31
0.0
  0
LINE
  8
0
 10
394.296059
 20
43.585694
 30
0.0
 11
394.296059
 21
55.585694
 31
0.0
  0
CIRCLE
  8
0
 10
398.296059
 20
30.338434
 30
0.0
 40
3.4
  0
CIRCLE
  8
0
 10
398.296059
 20
30.338434
 30
0.0
 40
4.0
  0
ARC
  8
0
 10
406.644466
 20
23.175746
 30
0.0
 40
3.0
 50
87.668896
 51
139.371376
  0
ARC
  8
0
 10
406.644466
 20
37.501122
 30
0.0
 40
3.0
 50
220.628624
 51
272.331104
  0
ARC
  8
0
 10
449.133901
 20
29.452716
 30
0.0
 40
5.0
 50
267.668896
 51
339.25023
  0
ARC
  8
0
 10
449.133901
 20
31.224152
 30
0.0
 40
5.0
 50
20.74977
 51
92.331104
  0
ARC
  8
0
 10
446.796059
 20
30.338434
 30
0.0
 40
7.5
 50
339.25023
 51
20.74977
  0
LINE
  8
0
 10
406.766489
 20
26.173263
 30
0.0
 11
448.93053
 21
24.456854
 31
0.0
  0
LINE
  8
0
 10
448.93053
 20
36.220015
 30
0.0
 11
406.766489
 21
34.503605
 31
0.0
  0
ARC
  8
0
 10
398.296059
 20
30.338434
 30
0.0
 40
8.0
 50
338.166227
 51
21.833773
  0
ARC
  8
0
 10
409.296059
 20
45.730771
 30
0.0
 40
3.0
 50
116.912427
 51
180.0
  0
ARC
  8
0
 10
407.034965
 20
59.761885
 30
0.0
 40
4.824658
 50
239.950482
 51
292.879414
  0
LINE
  8
0
 10
407.938175
 20
48.405869
 30
0.0
 11
452.380258
 21
70.964746
 31
0.0
  0
LINE
  8
0
 10
408.910758
 20
55.316806
 30
0.0
 11
449.125433
 21
77.161245
 31
0.0
  0
ARC
  8
0
 10
450.796059
 20
74.085694
 30
0.0
 40
3.5
 50
296.912425
 51
118.510631
  0
LINE
  8
0
 10
391.973092
 20
55.585694
 30
0.0
 11
404.619026
 21
55.585694
 31
0.0
  0
LINE
  8
0
 10
390.296059
 20
43.585694
 30
0.0
 11
406.296059
 21
43.585694
 31
0.0
  0
LINE
  8
0
 10
406.296059
 20
43.585694
 30
0.0
 11
406.296059
 21
45.730771
 31
0.0
  0
LINE
  8
0
  6
CENTER
 10
398.296059
 20
42.945411
 30
0.0
 11
398.296059
 21
56.976867
 31
0.0
  0
LINE
  8
0
 10
390.296059
 20
43.585694
 30
0.0
 11
390.296059
 21
45.730771
 31
0.0
  0
ARC
  8
0
 10
345.796059
 20
74.085694
 30
0.0
 40
3.5
 50
61.489369
 51
243.087575
  0
LINE
  8
0
 10
387.68136
 20
55.316806
 30
0.0
 11
347.466685
 21
77.161245
 31
0.0
  0
LINE
  8
0
 10
388.653943
 20
48.405869
 30
0.0
 11
344.211861
 21
70.964746
 31
0.0
  0
ARC
  8
0
 10
389.557153
 20
59.761885
 30
0.0
 40
4.824658
 50
247.120586
 51
300.049518
  0
ARC
  8
0
 10
387.296059
 20
45.730771
 30
0.0
 40
3.0
 50
360.0
 51
63.087573
  0
ARC
  8
0
 10
398.296059
 20
30.338434
 30
0.0
 40
8.0
 50
158.166227
 51
201.833773
  0
LINE
  8
0
 10
347.661589
 20
36.220015
 30
0.0
 11
389.825629
 21
34.503605
 31
0.0
  0
LINE
  8
0
 10
389.825629
 20
26.173263
 30
0.0
 11
347.661589
 21
24.456854
 31
0.0
  0
ARC
  8
0
 10
349.796059
 20
30.338434
 30
0.0
 40
7.5
 50
159.25023
 51
200.74977
  0
ARC
  8
0
 10
347.458217
 20
31.224152
 30
0.0
 40
5.0
 50
87.668896
 51
159.25023
  0
ARC
  8
0
 10
347.458217
 20
29.452716
 30
0.0
 40
5.0
 50
200.74977
 51
272.331104
  0
ARC
  8
0
 10
389.947652
 20
37.501122
 30
0.0
 40
3.0
 50
267.668896
 51
319.371376
  0
ARC
  8
0
 10
389.947652
 20
23.175746
 30
0.0
 40
3.0
 50
40.628624
 51
92.331104
  0
ARC
  8
0
 10
398.296059
 20
30.338434
 30
0.0
 40
8.0
 50
220.62862
 51
319.371376
  0
LINE
  8
0
 10
465.239646
 20
47.300221
 30
0.0
 11
467.367123
 21
47.300221
 31
0.0
  0
LINE
  8
0
 10
470.403385
 20
55.585694
 30
0.0
 11
472.626352
 21
55.585694
 31
0.0
  0
ARC
  8
0
 10
465.239646
 20
49.800221
 30
0.0
 40
2.5
 50
185.194429
 51
270.0
  0
ARC
  8
0
 10
467.367123
 20
49.800221
 30
0.0
 40
2.5
 50
270.0
 51
354.805571
  0
LINE
  8
0
 10
388.296059
 20
-33.773977
 30
0.0
 11
388.296059
 21
-30.791321
 31
0.0
  0
ARC
  8
0
 10
390.567488
 20
-21.273977
 30
0.0
 40
1.5
 50
90.0
 51
128.003966
  0
ARC
  8
0
 10
332.796059
 20
4.226023
 30
0.0
 40
4.5
 50
60.949647
 51
243.122346
  0
LINE
  8
0
 10
386.65232
 20
-28.115399
 30
0.0
 11
330.761668
 21
0.21214
 31
0.0
  0
LINE
  8
0
 10
385.934372
 20
-20.1425
 30
0.0
 11
334.98116
 21
8.159893
 31
0.0
  0
ARC
  8
0
 10
387.743065
 20
-16.730901
 30
0.0
 40
3.861396
 50
239.830044
 51
299.489875
  0
ARC
  8
0
 10
385.296059
 20
-30.791321
 30
0.0
 40
3.0
 50
0.0
 51
63.122349
  0
ARC
  8
0
 10
398.296059
 20
-51.441194
 30
0.0
 40
10.0
 50
158.129063
 51
201.870937
  0
LINE
  8
0
 10
334.635661
 20
-44.792918
 30
0.0
 11
386.940123
 21
-46.457231
 31
0.0
  0
LINE
  8
0
 10
386.940123
 20
-56.425157
 30
0.0
 11
334.635661
 21
-58.08947
 31
0.0
  0
ARC
  8
0
 10
335.796059
 20
-51.441194
 30
0.0
 40
7.5
 50
154.265139
 51
205.734861
  0
ARC
  8
0
 10
334.44484
 20
-50.789883
 30
0.0
 40
6.0
 50
88.17748
 51
154.265139
  0
ARC
  8
0
 10
334.44484
 20
-52.092505
 30
0.0
 40
6.0
 50
205.734861
 51
271.82252
  0
ARC
  8
0
 10
387.099141
 20
-41.45976
 30
0.0
 40
5.0
 50
268.17748
 51
318.284761
  0
ARC
  8
0
 10
387.099141
 20
-61.422628
 30
0.0
 40
5.0
 50
41.715239
 51
91.82252
  0
ARC
  8
0
 10
398.296059
 20
-51.441194
 30
0.0
 40
10.0
 50
221.715239
 51
318.284761
  0
LINE
  8
0
 10
490.916388
 20
-29.221095
 30
0.0
 11
493.740246
 21
-29.221095
 31
0.0
  0
LINE
  8
0
 10
497.228317
 20
-19.773977
 30
0.0
 11
500.056889
 21
-19.773977
 31
0.0
  0
ARC
  8
0
 10
490.916388
 20
-26.221095
 30
0.0
 40
3.0
 50
184.25594
 51
270.0
  0
ARC
  8
0
 10
493.740246
 20
-26.221095
 30
0.0
 40
3.0
 50
270.0
 51
355.74406
  0
ARC
  8
0
 10
316.796059
 20
-88.215591
 30
0.0
 40
5.5
 50
60.99211
 51
243.039503
  0
ARC
  8
0
 10
388.377198
 20
-119.215591
 30
0.0
 40
1.5
 50
90.0
 51
137.328938
  0
LINE
  8
0
 10
383.605646
 20
-118.971855
 30
0.0
 11
319.463175
 21
-83.40555
 31
0.0
  0
LINE
  8
0
 10
383.062939
 20
-128.093339
 30
0.0
 11
314.302491
 21
-93.117848
 31
0.0
  0
ARC
  8
0
 10
384.880083
 20
-115.927925
 30
0.0
 40
3.299954
 50
247.281835
 51
317.023072
  0
LINE
  8
0
 10
385.796059
 20
-132.549935
 30
0.0
 11
385.796059
 21
-135.715591
 31
0.0
  0
ARC
  8
0
 10
380.796059
 20
-132.549935
 30
0.0
 40
5.0
 50
360.0
 51
63.039511
  0
ARC
  8
0
 10
398.296059
 20
-163.39301
 30
0.0
 40
12.5
 50
160.083814
 51
199.916186
  0
LINE
  8
0
 10
384.373932
 20
-156.994564
 30
0.0
 11
319.65031
 21
-154.956124
 31
0.0
  0
LINE
  8
0
 10
384.373932
 20
-169.791457
 30
0.0
 11
319.65031
 21
-171.829897
 31
0.0
  0
ARC
  8
0
 10
320.296059
 20
-163.39301
 30
0.0
 40
9.0
 50
153.841781
 51
206.158219
  0
ARC
  8
0
 10
319.398479
 20
-162.952159
 30
0.0
 40
8.0
 50
88.196093
 51
153.841781
  0
ARC
  8
0
 10
319.398479
 20
-163.833862
 30
0.0
 40
8.0
 50
206.158219
 51
271.803907
  0
ARC
  8
0
 10
384.562806
 20
-150.997537
 30
0.0
 40
6.0
 50
268.196093
 51
317.930961
  0
ARC
  8
0
 10
384.562806
 20
-175.788483
 30
0.0
 40
6.0
 50
42.069039
 51
91.803907
  0
ARC
  8
0
 10
398.296059
 20
-163.39301
 30
0.0
 40
12.5
 50
222.069039
 51
317.930961
  0
LINE
  8
0
 10
504.645441
 20
-129.935973
 30
0.0
 11
510.527322
 21
-129.935973
 31
0.0
  0
LINE
  8
0
 10
514.486382
 20
-117.715591
 30
0.0
 11
517.505243
 21
-117.715591
 31
0.0
  0
ARC
  8
0
 10
504.645441
 20
-126.435973
 30
0.0
 40
3.5
 50
182.982291
 51
270.0
  0
ARC
  8
0
 10
510.527322
 20
-126.435973
 30
0.0
 40
3.5
 50
270.0
 51
357.017709
  0
LINE
  8
0
 10
382.296059
 20
-272.23123
 30
0.0
 11
382.296059
 21
-267.74
 31
0.0
  0
ARC
  8
0
 10
386.097957
 20
-252.73123
 30
0.0
 40
2.5
 50
90.0
 51
138.089043
  0
ARC
  8
0
 10
296.796059
 20
-213.23123
 30
0.0
 40
7.5
 50
60.878353
 51
243.95146
  0
LINE
  8
0
 10
381.030862
 20
-251.572135
 30
0.0
 11
300.44605
 21
-206.679317
 31
0.0
  0
LINE
  8
0
 10
378.369986
 20
-261.451044
 30
0.0
 11
293.502566
 21
-219.969398
 31
0.0
  0
ARC
  8
0
 10
382.201592
 20
-248.601293
 30
0.0
 40
3.193197
 50
248.491901
 51
317.054942
  0
ARC
  8
0
 10
375.296059
 20
-267.74
 30
0.0
 40
7.0
 50
0.0
 51
63.95146
  0
ARC
  8
0
 10
398.296059
 20
-299.90865
 30
0.0
 40
16.0
 50
157.163372
 51
202.836628
  0
LINE
  8
0
 10
381.305135
 20
-291.711394
 30
0.0
 11
300.296059
 21
-289.243727
 31
0.0
  0
LINE
  8
0
 10
381.305135
 20
-308.105906
 30
0.0
 11
300.296059
 21
-310.573572
 31
0.0
  0
ARC
  8
0
 10
299.966085
 20
-299.90865
 30
0.0
 40
10.670026
 50
88.227826
 51
271.772174
  0
ARC
  8
0
 10
381.48782
 20
-285.714176
 30
0.0
 40
6.0
 50
268.255218
 51
319.819075
  0
ARC
  8
0
 10
381.48782
 20
-314.103124
 30
0.0
 40
6.0
 50
40.180925
 51
91.744782
  0
ARC
  8
0
 10
398.296059
 20
-299.90865
 30
0.0
 40
16.0
 50
220.180922
 51
319.819075
  0
LINE
  8
0
 10
531.093043
 20
-264.03308
 30
0.0
 11
537.660365
 21
-264.03308
 31
0.0
  0
LINE
  8
0
 10
542.376704
 20
-250.23123
 30
0.0
 11
546.574806
 21
-250.23123
 31
0.0
  0
ARC
  8
0
 10
531.093043
 20
-260.03308
 30
0.0
 40
4.0
 50
184.119611
 51
270.0
  0
ARC
  8
0
 10
537.660365
 20
-260.03308
 30
0.0
 40
4.0
 50
270.0
 51
355.880389
  0
LINE
  8
0
 10
378.296059
 20
-428.730136
 30
0.0
 11
378.296059
 21
-423.981625
 31
0.0
  0
ARC
  8
0
 10
381.804662
 20
-402.730136
 30
0.0
 40
2.0
 50
90.0
 51
142.17969
  0
ARC
  8
0
 10
267.296059
 20
-353.230136
 30
0.0
 40
9.0
 50
60.408758
 51
242.585036
  0
LINE
  8
0
 10
372.50574
 20
-402.626344
 30
0.0
 11
271.74034
 21
-345.404002
 31
0.0
  0
LINE
  8
0
 10
375.598217
 20
-419.543149
 30
0.0
 11
263.152174
 21
-361.219393
 31
0.0
  0
ARC
  8
0
 10
375.45883
 20
-395.83228
 30
0.0
 40
7.408107
 50
246.507473
 51
310.04158
  0
ARC
  8
0
 10
373.296059
 20
-423.981625
 30
0.0
 40
5.0
 50
0.0
 51
62.585036
  0
ARC
  8
0
 10
398.296059
 20
-468.730136
 30
0.0
 40
20.0
 50
155.369292
 51
204.630708
  0
LINE
  8
0
 10
377.769872
 20
-458.526428
 30
0.0
 11
272.296059
 21
-455.174987
 31
0.0
  0
LINE
  8
0
 10
377.769872
 20
-478.933844
 30
0.0
 11
272.296059
 21
-482.285285
 31
0.0
  0
ARC
  8
0
 10
271.858275
 20
-468.730136
 30
0.0
 40
13.562216
 50
88.15019
 51
271.84981
  0
ARC
  8
0
 10
377.960427
 20
-452.529455
 30
0.0
 40
6.0
 50
268.180033
 51
321.456904
  0
ARC
  8
0
 10
377.960427
 20
-484.930817
 30
0.0
 40
6.0
 50
38.543096
 51
91.819967
  0
ARC
  8
0
 10
398.296059
 20
-468.730136
 30
0.0
 40
20.0
 50
218.543096
 51
321.456904
  0
LINE
  8
0
 10
567.633619
 20
-421.384587
 30
0.0
 11
575.797209
 21
-421.384587
 31
0.0
  0
LINE
  8
0
 10
581.915414
 20
-400.730136
 30
0.0
 11
588.206811
 21
-400.730136
 31
0.0
  0
ARC
  8
0
 10
567.633619
 20
-416.384587
 30
0.0
 40
5.0
 50
184.04036
 51
270.0
  0
ARC
  8
0
 10
575.797209
 20
-416.384587
 30
0.0
 40
5.0
 50
270.0
 51
355.95964
  0
INSERT
  8
0
  2
*X0
 10
0.0
 20
0.0
 30
0.0
1001
ACAD
1000
HATCH
1002
{
1070
    16
1000
ANSI31
1040
15.0
1040
0.0
1002
}
  0
INSERT
  8
0
  2
*X1
 10
0.0
 20
0.0
 30
0.0
1001
ACAD
1000
HATCH
1002
{
1070
    16
1000
ANSI31
1040
15.0
1040
0.0
1002
}
  0
INSERT
  8
0
  2
*X2
 10
0.0
 20
0.0
 30
0.0
1001
ACAD
1000
HATCH
1002
{
1070
    16
1000
ANSI31
1040
20.0
1040
0.0
1002
}
  0
INSERT
  8
0
  2
*X3
 10
0.0
 20
0.0
 30
0.0
1001
ACAD
1000
HATCH
1002
{
1070
    16
1000
ANSI31
1040
20.0
1040
0.0
1002
}
  0
INSERT
  8
0
  2
*X4
 10
0.0
 20
0.0
 30
0.0
1001
ACAD
1000
HATCH
1002
{
1070
    16
1000
ANSI31
1040
20.0
1040
0.0
1002
}
  0
ENDSEC
  0
EOF
