  0
SECTION
  2
HEADER
  9
$ACADVER
  1
AC1009
  9
$INSBASE
 10
0.0
 20
0.0
 30
0.0
  9
$EXTMIN
 10
-68.284586
 20
-173.358663
 30
0.0
  9
$EXTMAX
 10
313.603769
 20
93.111572
 30
0.0
  9
$LIMMIN
 10
0.0
 20
0.0
  9
$LIMMAX
 10
12.0
 20
9.0
  9
$ORTHOMODE
 70
     0
  9
$REGENMODE
 70
     1
  9
$FILLMODE
 70
     1
  9
$QTEXTMODE
 70
     0
  9
$MIRRTEXT
 70
     1
  9
$DRAGMODE
 70
     2
  9
$LTSCALE
 40
5.0
  9
$OSMODE
 70
     0
  9
$ATTMODE
 70
     1
  9
$TEXTSIZE
 40
0.2
  9
$TRACEWID
 40
0.05
  9
$TEXTSTYLE
  7
STANDARD
  9
$CLAYER
  8
0
  9
$CELTYPE
  6
BYLAYER
  9
$CECOLOR
 62
   256
  9
$DIMSCALE
 40
1.0
  9
$DIMASZ
 40
2.5
  9
$DIMEXO
 40
0.0
  9
$DIMDLI
 40
5.0
  9
$DIMRND
 40
0.0
  9
$DIMDLE
 40
0.0
  9
$DIMEXE
 40
1.0
  9
$DIMTP
 40
0.0
  9
$DIMTM
 40
0.0
  9
$DIMTXT
 40
2.5
  9
$DIMCEN
 40
0.09
  9
$DIMTSZ
 40
0.0
  9
$DIMTOL
 70
     0
  9
$DIMLIM
 70
     0
  9
$DIMTIH
 70
     0
  9
$DIMTOH
 70
     0
  9
$DIMSE1
 70
     0
  9
$DIMSE2
 70
     0
  9
$DIMTAD
 70
     1
  9
$DIMZIN
 70
     0
  9
$DIMBLK
  1

  9
$DIMASO
 70
     0
  9
$DIMSHO
 70
     0
  9
$DIMPOST
  1

  9
$DIMAPOST
  1

  9
$DIMALT
 70
     0
  9
$DIMALTD
 70
     2
  9
$DIMALTF
 40
25.4
  9
$DIMLFAC
 40
1.0
  9
$DIMTOFL
 70
     1
  9
$DIMTVP
 40
0.0
  9
$DIMTIX
 70
     0
  9
$DIMSOXD
 70
     0
  9
$DIMSAH
 70
     0
  9
$DIMBLK1
  1

  9
$DIMBLK2
  1

  9
$DIMSTYLE
  2
*UNNAMED
  9
$DIMCLRD
 70
     0
  9
$DIMCLRE
 70
     0
  9
$DIMCLRT
 70
     0
  9
$DIMTFAC
 40
1.0
  9
$DIMGAP
 40
0.09
  9
$LUNITS
 70
     2
  9
$LUPREC
 70
     4
  9
$SKETCHINC
 40
0.1
  9
$FILLETRAD
 40
5.0
  9
$AUNITS
 70
     0
  9
$AUPREC
 70
     0
  9
$MENU
  1
wiberger
  9
$ELEVATION
 40
0.0
  9
$PELEVATION
 40
0.0
  9
$THICKNESS
 40
0.0
  9
$LIMCHECK
 70
     0
  9
$BLIPMODE
 70
     1
  9
$CHAMFERA
 40
7.0
  9
$CHAMFERB
 40
2.0
  9
$SKPOLY
 70
     0
  9
$TDCREATE
 40
2450191.446746990
  9
$TDUPDATE
 40
2450210.598988542
  9
$TDINDWG
 40
0.0268740741
  9
$TDUSRTIMER
 40
0.0268740741
  9
$USRTIMER
 70
     1
  9
$ANGBASE
 50
0.0
  9
$ANGDIR
 70
     0
  9
$PDMODE
 70
     0
  9
$PDSIZE
 40
0.0
  9
$PLINEWID
 40
0.0
  9
$COORDS
 70
     2
  9
$SPLFRAME
 70
     0
  9
$SPLINETYPE
 70
     6
  9
$SPLINESEGS
 70
     8
  9
$ATTDIA
 70
     0
  9
$ATTREQ
 70
     1
  9
$HANDLING
 70
     0
  9
$HANDSEED
  5
0
  9
$SURFTAB1
 70
     6
  9
$SURFTAB2
 70
     6
  9
$SURFTYPE
 70
     6
  9
$SURFU
 70
     6
  9
$SURFV
 70
     6
  9
$UCSNAME
  2

  9
$UCSORG
 10
0.0
 20
0.0
 30
0.0
  9
$UCSXDIR
 10
1.0
 20
0.0
 30
0.0
  9
$UCSYDIR
 10
0.0
 20
1.0
 30
0.0
  9
$PUCSNAME
  2

  9
$PUCSORG
 10
0.0
 20
0.0
 30
0.0
  9
$PUCSXDIR
 10
1.0
 20
0.0
 30
0.0
  9
$PUCSYDIR
 10
0.0
 20
1.0
 30
0.0
  9
$USERI1
 70
     0
  9
$USERI2
 70
     0
  9
$USERI3
 70
     0
  9
$USERI4
 70
     0
  9
$USERI5
 70
     0
  9
$USERR1
 40
0.0
  9
$USERR2
 40
0.0
  9
$USERR3
 40
0.0
  9
$USERR4
 40
0.0
  9
$USERR5
 40
0.0
  9
$WORLDVIEW
 70
     1
  9
$SHADEDGE
 70
     3
  9
$SHADEDIF
 70
    70
  9
$TILEMODE
 70
     1
  9
$MAXACTVP
 70
    16
  9
$PINSBASE
 10
0.0
 20
0.0
 30
0.0
  9
$PLIMCHECK
 70
     0
  9
$PEXTMIN
 10
1.000000E+20
 20
1.000000E+20
 30
1.000000E+20
  9
$PEXTMAX
 10
-1.000000E+20
 20
-1.000000E+20
 30
-1.000000E+20
  9
$PLIMMIN
 10
0.0
 20
0.0
  9
$PLIMMAX
 10
12.0
 20
9.0
  9
$UNITMODE
 70
     0
  9
$VISRETAIN
 70
     0
  9
$PLINEGEN
 70
     0
  9
$PSLTSCALE
 70
     0
  9
$TREEDEPTH
 70
  3020
  9
$DWGCODEPAGE
  3
undefined
  0
ENDSEC
  0
SECTION
  2
TABLES
  0
TABLE
  2
VPORT
 70
     2
  0
VPORT
  2
*ACTIVE
 70
     0
 10
0.0
 20
0.0
 11
1.0
 21
1.0
 12
180.783485
 22
-35.732232
 13
0.0
 23
0.0
 14
1.0
 24
1.0
 15
0.0
 25
0.0
 16
0.0
 26
0.0
 36
1.0
 17
0.0
 27
0.0
 37
0.0
 40
305.836515
 41
1.767507
 42
50.0
 43
0.0
 44
0.0
 50
0.0
 51
0.0
 71
     0
 72
   100
 73
     1
 74
     0
 75
     0
 76
     0
 77
     0
 78
     0
  0
ENDTAB
  0
TABLE
  2
LTYPE
 70
     2
  0
LTYPE
  2
CONTINUOUS
 70
    64
  3
Solid line
 72
    65
 73
     0
 40
0.0
  0
LTYPE
  2
CENTER
 70
    64
  3
____ _ ____ _ ____ _ ____ _ ____ _ ____ _ ____
 72
    65
 73
     4
 40
2.0
 49
1.25
 49
-0.25
 49
0.25
 49
-0.25
  0
ENDTAB
  0
TABLE
  2
LAYER
 70
     1
  0
LAYER
  2
0
 70
    64
 62
     7
  6
CONTINUOUS
  0
ENDTAB
  0
TABLE
  2
STYLE
 70
     1
  0
STYLE
  2
STANDARD
 70
     0
 40
0.0
 41
1.0
 50
0.0
 71
     0
 42
0.2
  3
txt
  4

  0
ENDTAB
  0
TABLE
  2
VIEW
 70
     0
  0
ENDTAB
  0
TABLE
  2
UCS
 70
     0
  0
ENDTAB
  0
TABLE
  2
APPID
 70
     1
  0
APPID
  2
ACAD
 70
    64
  0
ENDTAB
  0
TABLE
  2
DIMSTYLE
 70
     0
  0
ENDTAB
  0
ENDSEC
  0
SECTION
  2
BLOCKS
  0
BLOCK
  8
0
  2
*X0
 70
    65
 10
0.0
 20
0.0
 30
0.0
  3
*X
  0
LINE
  8
0
 62
     0
 10
-63.784586
 20
45.816965
 30
0.0
 11
-59.184586
 21
50.416965
 31
0.0
  0
LINE
  8
0
 62
     0
 10
-63.784586
 20
47.584732
 30
0.0
 11
-59.184586
 21
52.184732
 31
0.0
  0
LINE
  8
0
 62
     0
 10
-63.784586
 20
49.352499
 30
0.0
 11
-59.184586
 21
53.952499
 31
0.0
  0
LINE
  8
0
 62
     0
 10
-63.784586
 20
51.120266
 30
0.0
 11
-59.551872
 21
55.35298
 31
0.0
  0
LINE
  8
0
 62
     0
 10
-63.784586
 20
52.888033
 30
0.0
 11
-61.086925
 21
55.585694
 31
0.0
  0
LINE
  8
0
 62
     0
 10
-63.784586
 20
44.049198
 30
0.0
 11
-59.184586
 21
48.649198
 31
0.0
  0
LINE
  8
0
 62
     0
 10
-62.480323
 20
43.585694
 30
0.0
 11
-59.184586
 21
46.881431
 31
0.0
  0
LINE
  8
0
 62
     0
 10
-60.712556
 20
43.585694
 30
0.0
 11
-59.184586
 21
45.113664
 31
0.0
  0
ENDBLK
  8
0
  0
BLOCK
  8
0
  2
*X1
 70
    65
 10
0.0
 20
0.0
 30
0.0
  3
*X
  0
LINE
  8
0
 62
     0
 10
-65.784586
 20
-30.429247
 30
0.0
 11
-60.034586
 21
-24.679247
 31
0.0
  0
LINE
  8
0
 62
     0
 10
-65.784586
 20
-28.66148
 30
0.0
 11
-60.034586
 21
-22.91148
 31
0.0
  0
LINE
  8
0
 62
     0
 10
-65.784586
 20
-26.893713
 30
0.0
 11
-60.034586
 21
-21.143713
 31
0.0
  0
LINE
  8
0
 62
     0
 10
-65.784586
 20
-25.125946
 30
0.0
 11
-60.757605
 21
-20.098965
 31
0.0
  0
LINE
  8
0
 62
     0
 10
-65.673036
 20
-23.246629
 30
0.0
 11
-62.498391
 21
-20.071984
 31
0.0
  0
LINE
  8
0
 62
     0
 10
-65.784586
 20
-32.197014
 30
0.0
 11
-60.034586
 21
-26.447014
 31
0.0
  0
LINE
  8
0
 62
     0
 10
-65.784586
 20
-33.964781
 30
0.0
 11
-60.034586
 21
-28.214781
 31
0.0
  0
LINE
  8
0
 62
     0
 10
-64.124022
 20
-34.071984
 30
0.0
 11
-60.034586
 21
-29.982548
 31
0.0
  0
LINE
  8
0
 62
     0
 10
-62.356255
 20
-34.071984
 30
0.0
 11
-60.034586
 21
-31.750315
 31
0.0
  0
ENDBLK
  8
0
  0
BLOCK
  8
0
  2
*X2
 70
    65
 10
0.0
 20
0.0
 30
0.0
  3
*X
  0
LINE
  8
0
 62
     0
 10
-68.284586
 20
-123.969245
 30
0.0
 11
-60.884586
 21
-116.569245
 31
0.0
  0
LINE
  8
0
 62
     0
 10
-68.284586
 20
-121.317595
 30
0.0
 11
-60.884586
 21
-113.917595
 31
0.0
  0
LINE
  8
0
 62
     0
 10
-68.284586
 20
-118.665944
 30
0.0
 11
-62.052768
 21
-112.434126
 31
0.0
  0
LINE
  8
0
 62
     0
 10
-67.82467
 20
-115.554378
 30
0.0
 11
-64.704419
 21
-112.434126
 31
0.0
  0
LINE
  8
0
 62
     0
 10
-68.284586
 20
-126.620896
 30
0.0
 11
-60.884586
 21
-119.220896
 31
0.0
  0
LINE
  8
0
 62
     0
 10
-68.284586
 20
-129.272546
 30
0.0
 11
-60.884586
 21
-121.872546
 31
0.0
  0
LINE
  8
0
 62
     0
 10
-66.794516
 20
-130.434126
 30
0.0
 11
-60.884586
 21
-124.524196
 31
0.0
  0
LINE
  8
0
 62
     0
 10
-64.142866
 20
-130.434126
 30
0.0
 11
-60.884586
 21
-127.175847
 31
0.0
  0
ENDBLK
  8
0
  0
BLOCK
  8
0
  2
*X3
 70
    65
 10
0.0
 20
0.0
 30
0.0
  3
*X
  0
LINE
  8
0
 62
     0
 10
104.184414
 20
35.241503
 30
0.0
 11
113.184414
 21
44.241503
 31
0.0
  0
LINE
  8
0
 62
     0
 10
104.184414
 20
37.893154
 30
0.0
 11
113.184414
 21
46.893154
 31
0.0
  0
LINE
  8
0
 62
     0
 10
104.184414
 20
40.544804
 30
0.0
 11
112.217798
 21
48.578188
 31
0.0
  0
LINE
  8
0
 62
     0
 10
104.476856
 20
43.488896
 30
0.0
 11
109.599531
 21
48.611572
 31
0.0
  0
LINE
  8
0
 62
     0
 10
104.184414
 20
32.589853
 30
0.0
 11
113.184414
 21
41.589853
 31
0.0
  0
LINE
  8
0
 62
     0
 10
104.184414
 20
29.938202
 30
0.0
 11
113.184414
 21
38.938202
 31
0.0
  0
LINE
  8
0
 62
     0
 10
104.184414
 20
27.286552
 30
0.0
 11
113.184414
 21
36.286552
 31
0.0
  0
LINE
  8
0
 62
     0
 10
106.161084
 20
26.611572
 30
0.0
 11
113.184414
 21
33.634901
 31
0.0
  0
LINE
  8
0
 62
     0
 10
108.812735
 20
26.611572
 30
0.0
 11
113.184414
 21
30.983251
 31
0.0
  0
LINE
  8
0
 62
     0
 10
111.464385
 20
26.611572
 30
0.0
 11
113.184414
 21
28.331601
 31
0.0
  0
ENDBLK
  8
0
  0
BLOCK
  8
0
  2
*X4
 70
    65
 10
0.0
 20
0.0
 30
0.0
  3
*X
  0
LINE
  8
0
 62
     0
 10
100.184414
 20
-104.876552
 30
0.0
 11
111.484414
 21
-93.576552
 31
0.0
  0
LINE
  8
0
 62
     0
 10
100.184414
 20
-101.341018
 30
0.0
 11
111.484414
 21
-90.041018
 31
0.0
  0
LINE
  8
0
 62
     0
 10
100.184414
 20
-97.805484
 30
0.0
 11
111.407825
 21
-86.582074
 31
0.0
  0
LINE
  8
0
 62
     0
 10
100.184414
 20
-94.269951
 30
0.0
 11
109.095701
 21
-85.358663
 31
0.0
  0
LINE
  8
0
 62
     0
 10
100.834113
 20
-90.084718
 30
0.0
 11
105.560168
 21
-85.358663
 31
0.0
  0
LINE
  8
0
 62
     0
 10
100.184414
 20
-108.412086
 30
0.0
 11
111.484414
 21
-97.112086
 31
0.0
  0
LINE
  8
0
 62
     0
 10
100.184414
 20
-111.94762
 30
0.0
 11
111.484414
 21
-100.64762
 31
0.0
  0
LINE
  8
0
 62
     0
 10
102.308905
 20
-113.358663
 30
0.0
 11
111.484414
 21
-104.183154
 31
0.0
  0
LINE
  8
0
 62
     0
 10
105.844439
 20
-113.358663
 30
0.0
 11
111.484414
 21
-107.718688
 31
0.0
  0
LINE
  8
0
 62
     0
 10
109.379973
 20
-113.358663
 30
0.0
 11
111.484414
 21
-111.254222
 31
0.0
  0
ENDBLK
  8
0
  0
ENDSEC
  0
SECTION
  2
ENTITIES
  0
LINE
  8
0
  6
CENTER
 10
-55.784586
 20
42.945411
 30
0.0
 11
-55.784586
 21
56.976867
 31
0.0
  0
LINE
  8
0
 10
-63.784586
 20
43.585694
 30
0.0
 11
-63.784586
 21
53.085694
 31
0.0
  0
LINE
  8
0
 10
-47.784586
 20
43.585694
 30
0.0
 11
-47.784586
 21
45.730771
 31
0.0
  0
LINE
  8
0
 10
-63.784586
 20
43.585694
 30
0.0
 11
-47.784586
 21
43.585694
 31
0.0
  0
LINE
  8
0
 10
-62.107553
 20
55.585694
 30
0.0
 11
-49.461619
 21
55.585694
 31
0.0
  0
ARC
  8
0
 10
-3.284586
 20
74.085694
 30
0.0
 40
3.5
 50
296.912425
 51
118.510631
  0
LINE
  8
0
 10
-45.169887
 20
55.316806
 30
0.0
 11
-4.955212
 21
77.161245
 31
0.0
  0
LINE
  8
0
 10
-46.14247
 20
48.405869
 30
0.0
 11
-1.700388
 21
70.964746
 31
0.0
  0
LINE
  8
0
 10
-63.784586
 20
53.085694
 30
0.0
 11
-63.03603
 21
54.957085
 31
0.0
  0
ARC
  8
0
 10
-62.107553
 20
54.585694
 30
0.0
 40
1.0
 50
90.0
 51
158.198591
  0
ARC
  8
0
 10
-47.04568
 20
59.761885
 30
0.0
 40
4.824658
 50
239.950482
 51
292.879414
  0
ARC
  8
0
 10
-44.784586
 20
45.730771
 30
0.0
 40
3.0
 50
116.912427
 51
180.0
  0
ARC
  8
0
 10
-55.784586
 20
30.338434
 30
0.0
 40
8.0
 50
338.166227
 51
21.833773
  0
LINE
  8
0
 10
-5.150116
 20
36.220015
 30
0.0
 11
-47.314156
 21
34.503605
 31
0.0
  0
LINE
  8
0
 10
-47.314156
 20
26.173263
 30
0.0
 11
-5.150116
 21
24.456854
 31
0.0
  0
ARC
  8
0
 10
-7.284586
 20
30.338434
 30
0.0
 40
7.5
 50
339.25023
 51
20.74977
  0
ARC
  8
0
 10
-4.946745
 20
31.224152
 30
0.0
 40
5.0
 50
20.74977
 51
92.331104
  0
ARC
  8
0
 10
-4.946745
 20
29.452716
 30
0.0
 40
5.0
 50
267.668896
 51
339.25023
  0
ARC
  8
0
 10
-47.436179
 20
37.501122
 30
0.0
 40
3.0
 50
220.628624
 51
272.331104
  0
ARC
  8
0
 10
-47.436179
 20
23.175746
 30
0.0
 40
3.0
 50
87.668896
 51
139.371376
  0
CIRCLE
  8
0
 10
-55.784586
 20
30.338434
 30
0.0
 40
4.0
  0
CIRCLE
  8
0
 10
-55.784586
 20
30.338434
 30
0.0
 40
3.4
  0
LINE
  8
0
 10
-59.784586
 20
43.585694
 30
0.0
 11
-59.784586
 21
55.585694
 31
0.0
  0
LINE
  8
0
 10
-59.184586
 20
44.185694
 30
0.0
 11
-59.184586
 21
54.985694
 31
0.0
  0
CIRCLE
  8
0
 10
-55.784586
 20
30.338434
 30
0.0
 40
6.883596
  0
ARC
  8
0
 10
-40.443824
 20
53.412498
 30
0.0
 40
8.188371
 50
172.885898
 51
215.843267
  0
ARC
  8
0
 10
-55.784586
 20
30.338434
 30
0.0
 40
8.0
 50
40.628626
 51
319.371376
  0
LINE
  8
0
 10
-59.784586
 20
43.585694
 30
0.0
 11
-59.184586
 21
44.185694
 31
0.0
  0
LINE
  8
0
 10
-59.184586
 20
44.185694
 30
0.0
 11
-55.784586
 21
44.185694
 31
0.0
  0
LINE
  8
0
 10
-59.784586
 20
55.585694
 30
0.0
 11
-59.184586
 21
54.985694
 31
0.0
  0
LINE
  8
0
 10
-59.184586
 20
54.985694
 30
0.0
 11
-55.784586
 21
54.985694
 31
0.0
  0
ARC
  8
0
 10
5.899772
 20
54.585694
 30
0.0
 40
1.0
 50
90.0
 51
158.198591
  0
LINE
  8
0
 10
4.222739
 20
53.085694
 30
0.0
 11
4.971296
 21
54.957085
 31
0.0
  0
LINE
  8
0
 10
5.899772
 20
55.585694
 30
0.0
 11
18.545706
 21
55.585694
 31
0.0
  0
LINE
  8
0
 10
4.222739
 20
43.585694
 30
0.0
 11
20.222739
 21
43.585694
 31
0.0
  0
LINE
  8
0
 10
4.222739
 20
43.585694
 30
0.0
 11
4.222739
 21
53.085694
 31
0.0
  0
ARC
  8
0
 10
12.222739
 20
70.085694
 30
0.0
 40
7.5
 50
52.635852
 51
127.364148
  0
LINE
  8
0
 10
8.122739
 20
55.585694
 30
0.0
 11
6.504106
 21
73.390662
 31
0.0
  0
LINE
  8
0
 10
16.322739
 20
55.585694
 30
0.0
 11
17.941373
 21
73.390662
 31
0.0
  0
ARC
  8
0
 10
14.953693
 20
73.66227
 30
0.0
 40
3.0
 50
354.805571
 51
52.635852
  0
ARC
  8
0
 10
9.491786
 20
73.66227
 30
0.0
 40
3.0
 50
127.364148
 51
185.194429
  0
LINE
  8
0
 10
20.222739
 20
43.585694
 30
0.0
 11
20.222739
 21
53.085694
 31
0.0
  0
LINE
  8
0
 10
20.222739
 20
53.085694
 30
0.0
 11
19.474183
 21
54.957085
 31
0.0
  0
ARC
  8
0
 10
18.545706
 20
54.585694
 30
0.0
 40
1.0
 50
21.801409
 51
90.0
  0
LINE
  8
0
  6
CENTER
 10
-55.784586
 20
-36.378436
 30
0.0
 11
-55.784586
 21
-17.604631
 31
0.0
  0
LINE
  8
0
 10
-65.784586
 20
-34.071984
 30
0.0
 11
-65.784586
 21
-23.571984
 31
0.0
  0
LINE
  8
0
 10
-45.784586
 20
-34.071984
 30
0.0
 11
-45.784586
 21
-31.089328
 31
0.0
  0
LINE
  8
0
 10
-65.784586
 20
-34.071984
 30
0.0
 11
-45.784586
 21
-34.071984
 31
0.0
  0
LINE
  8
0
 10
-63.513158
 20
-20.071984
 30
0.0
 11
-48.056015
 21
-20.071984
 31
0.0
  0
LINE
  8
0
 10
-65.784586
 20
-23.571984
 30
0.0
 11
-64.932076
 21
-21.085498
 31
0.0
  0
ARC
  8
0
 10
-63.513158
 20
-21.571984
 30
0.0
 40
1.5
 50
90.0
 51
161.075356
  0
ARC
  8
0
 10
-48.056015
 20
-21.571984
 30
0.0
 40
1.5
 50
51.996034
 51
90.0
  0
ARC
  8
0
 10
9.715414
 20
3.928016
 30
0.0
 40
4.5
 50
296.877654
 51
119.050353
  0
LINE
  8
0
 10
-44.140847
 20
-28.413406
 30
0.0
 11
11.749805
 21
-0.085867
 31
0.0
  0
LINE
  8
0
 10
-43.422899
 20
-20.440507
 30
0.0
 11
7.530313
 21
7.861886
 31
0.0
  0
ARC
  8
0
 10
-45.231592
 20
-17.028908
 30
0.0
 40
3.861396
 50
240.510125
 51
300.169956
  0
ARC
  8
0
 10
-42.784586
 20
-31.089328
 30
0.0
 40
3.0
 50
116.877651
 51
180.0
  0
LINE
  8
0
 10
-60.784586
 20
-34.071984
 30
0.0
 11
-60.784586
 21
-20.071984
 31
0.0
  0
LINE
  8
0
 10
-60.034586
 20
-33.321984
 30
0.0
 11
-60.034586
 21
-20.821984
 31
0.0
  0
ARC
  8
0
 10
-37.24214
 20
-22.807655
 30
0.0
 40
9.207986
 50
173.665958
 51
214.863067
  0
ARC
  8
0
 10
-55.784586
 20
-51.739201
 30
0.0
 40
10.0
 50
338.129063
 51
21.870937
  0
CIRCLE
  8
0
 10
-55.784586
 20
-51.739201
 30
0.0
 40
5.0
  0
CIRCLE
  8
0
 10
-55.784586
 20
-51.739201
 30
0.0
 40
4.25
  0
LINE
  8
0
 10
7.875812
 20
-45.090925
 30
0.0
 11
-44.42865
 21
-46.755238
 31
0.0
  0
LINE
  8
0
 10
-44.42865
 20
-56.723164
 30
0.0
 11
7.875812
 21
-58.387477
 31
0.0
  0
ARC
  8
0
 10
6.715414
 20
-51.739201
 30
0.0
 40
7.5
 50
334.265139
 51
25.734861
  0
ARC
  8
0
 10
8.066633
 20
-51.08789
 30
0.0
 40
6.0
 50
25.734861
 51
91.82252
  0
ARC
  8
0
 10
8.066633
 20
-52.390512
 30
0.0
 40
6.0
 50
268.17748
 51
334.265139
  0
ARC
  8
0
 10
-44.587668
 20
-41.757767
 30
0.0
 40
5.0
 50
221.715239
 51
271.82252
  0
ARC
  8
0
 10
-44.587668
 20
-61.720635
 30
0.0
 40
5.0
 50
88.17748
 51
138.284761
  0
CIRCLE
  8
0
 10
-55.784586
 20
-51.739201
 30
0.0
 40
8.600429
  0
ARC
  8
0
 10
-55.784586
 20
-51.739201
 30
0.0
 40
10.0
 50
41.715239
 51
318.284761
  0
ARC
  8
0
 10
24.605228
 20
-22.31072
 30
0.0
 40
1.5
 50
90.0
 51
161.075356
  0
LINE
  8
0
 10
22.333799
 20
-24.31072
 30
0.0
 11
23.186309
 21
-21.824233
 31
0.0
  0
LINE
  8
0
 10
24.605228
 20
-20.81072
 30
0.0
 11
40.062371
 21
-20.81072
 31
0.0
  0
LINE
  8
0
 10
22.333799
 20
-34.81072
 30
0.0
 11
42.333799
 21
-34.81072
 31
0.0
  0
LINE
  8
0
 10
42.333799
 20
-34.81072
 30
0.0
 11
42.333799
 21
-31.828064
 31
0.0
  0
LINE
  8
0
 10
22.333799
 20
-34.81072
 30
0.0
 11
22.333799
 21
-24.31072
 31
0.0
  0
LINE
  8
0
 10
42.333799
 20
-34.81072
 30
0.0
 11
42.333799
 21
-24.31072
 31
0.0
  0
LINE
  8
0
 10
42.333799
 20
-24.31072
 30
0.0
 11
41.481289
 21
-21.824233
 31
0.0
  0
ARC
  8
0
 10
40.062371
 20
-22.31072
 30
0.0
 40
1.5
 50
18.924644
 51
90.0
  0
ARC
  8
0
 10
32.333799
 20
0.18928
 30
0.0
 40
7.5
 50
41.432985
 51
138.567015
  0
LINE
  8
0
 10
27.433799
 20
-20.81072
 30
0.0
 11
25.720773
 21
2.208535
 31
0.0
  0
LINE
  8
0
 10
37.233799
 20
-20.81072
 30
0.0
 11
38.946825
 21
2.208535
 31
0.0
  0
ARC
  8
0
 10
29.709743
 20
2.505383
 30
0.0
 40
4.0
 50
138.567015
 51
184.25594
  0
ARC
  8
0
 10
34.957855
 20
2.505383
 30
0.0
 40
4.0
 50
355.74406
 51
41.432985
  0
LINE
  8
0
 10
-60.784586
 20
-34.071984
 30
0.0
 11
-60.034586
 21
-33.321984
 31
0.0
  0
LINE
  8
0
 10
-60.034586
 20
-33.321984
 30
0.0
 11
-55.784586
 21
-33.321984
 31
0.0
  0
LINE
  8
0
 10
-60.784586
 20
-20.071984
 30
0.0
 11
-60.034586
 21
-20.821984
 31
0.0
  0
LINE
  8
0
 10
-60.034586
 20
-20.821984
 30
0.0
 11
-55.784586
 21
-20.821984
 31
0.0
  0
LINE
  8
0
 10
-68.284586
 20
-116.934126
 30
0.0
 11
-68.284586
 21
-130.434126
 31
0.0
  0
LINE
  8
0
 10
-68.284586
 20
-130.434126
 30
0.0
 11
-43.284586
 21
-130.434126
 31
0.0
  0
LINE
  8
0
 10
-65.703447
 20
-112.434126
 30
0.0
 11
-45.865725
 21
-112.434126
 31
0.0
  0
ARC
  8
0
 10
25.715414
 20
-82.934126
 30
0.0
 40
5.5
 50
296.960497
 51
119.00789
  0
LINE
  8
0
 10
-68.284586
 20
-116.934126
 30
0.0
 11
-67.126472
 21
-113.459785
 31
0.0
  0
ARC
  8
0
 10
-65.703447
 20
-113.934126
 30
0.0
 40
1.5
 50
90.0
 51
161.565051
  0
ARC
  8
0
 10
-45.865725
 20
-113.934126
 30
0.0
 40
1.5
 50
42.671062
 51
90.0
  0
LINE
  8
0
 10
-41.094173
 20
-113.69039
 30
0.0
 11
23.048298
 21
-78.124085
 31
0.0
  0
LINE
  8
0
 10
-40.551466
 20
-122.811874
 30
0.0
 11
28.208982
 21
-87.836383
 31
0.0
  0
ARC
  8
0
 10
-42.36861
 20
-110.646461
 30
0.0
 40
3.299954
 50
222.976928
 51
292.718165
  0
LINE
  8
0
 10
-43.284586
 20
-127.268471
 30
0.0
 11
-43.284586
 21
-130.434126
 31
0.0
  0
ARC
  8
0
 10
-38.284586
 20
-127.268471
 30
0.0
 40
5.0
 50
116.960489
 51
180.0
  0
ARC
  8
0
 10
-34.419556
 20
-117.695426
 30
0.0
 40
9.632451
 50
163.573118
 51
214.560571
  0
LINE
  8
0
 10
-61.784586
 20
-112.434126
 30
0.0
 11
-61.784586
 21
-130.434126
 31
0.0
  0
LINE
  8
0
 10
-60.884586
 20
-113.334126
 30
0.0
 11
-60.884586
 21
-129.534126
 31
0.0
  0
ARC
  8
0
 10
-55.784586
 20
-158.111546
 30
0.0
 40
12.5
 50
340.083814
 51
19.916186
  0
CIRCLE
  8
0
 10
-55.784586
 20
-158.111546
 30
0.0
 40
6.0
  0
CIRCLE
  8
0
 10
-55.784586
 20
-158.111546
 30
0.0
 40
5.1
  0
LINE
  8
0
 10
-41.862459
 20
-151.713099
 30
0.0
 11
22.861163
 21
-149.674659
 31
0.0
  0
LINE
  8
0
 10
-41.862459
 20
-164.509992
 30
0.0
 11
22.861163
 21
-166.548432
 31
0.0
  0
ARC
  8
0
 10
22.215414
 20
-158.111546
 30
0.0
 40
9.0
 50
333.841781
 51
26.158219
  0
ARC
  8
0
 10
23.112994
 20
-157.670694
 30
0.0
 40
8.0
 50
26.158219
 51
91.803907
  0
ARC
  8
0
 10
23.112994
 20
-158.552397
 30
0.0
 40
8.0
 50
268.196093
 51
333.841781
  0
ARC
  8
0
 10
-42.051333
 20
-145.716073
 30
0.0
 40
6.0
 50
222.069039
 51
271.803907
  0
ARC
  8
0
 10
-42.051333
 20
-170.507019
 30
0.0
 40
6.0
 50
88.196093
 51
137.930961
  0
ARC
  8
0
 10
-55.784586
 20
-158.111546
 30
0.0
 40
12.5
 50
42.069039
 51
317.930961
  0
CIRCLE
  8
0
 10
-55.784586
 20
-158.111546
 30
0.0
 40
10.795927
  0
ARC
  8
0
 10
43.586875
 20
-113.934126
 30
0.0
 40
1.5
 50
90.0
 51
161.565051
  0
LINE
  8
0
 10
41.005736
 20
-116.934126
 30
0.0
 11
42.16385
 21
-113.459785
 31
0.0
  0
LINE
  8
0
 10
43.586875
 20
-112.434126
 30
0.0
 11
63.424598
 21
-112.434126
 31
0.0
  0
LINE
  8
0
 10
41.005736
 20
-130.434126
 30
0.0
 11
66.005736
 21
-130.434126
 31
0.0
  0
LINE
  8
0
 10
41.005736
 20
-116.934126
 30
0.0
 11
41.005736
 21
-130.434126
 31
0.0
  0
LINE
  8
0
 10
66.005736
 20
-116.934126
 30
0.0
 11
66.005736
 21
-130.434126
 31
0.0
  0
LINE
  8
0
 10
66.005736
 20
-116.934126
 30
0.0
 11
64.847623
 21
-113.459785
 31
0.0
  0
ARC
  8
0
 10
63.424598
 20
-113.934126
 30
0.0
 40
1.5
 50
18.434949
 51
90.0
  0
ARC
  8
0
 10
53.505735
 20
-87.934126
 30
0.0
 40
10.5
 50
51.8821
 51
128.117874
  0
LINE
  8
0
 10
46.605736
 20
-112.434126
 30
0.0
 11
45.11746
 21
-83.867179
 31
0.0
  0
LINE
  8
0
 10
60.405736
 20
-112.434126
 30
0.0
 11
61.894013
 21
-83.867181
 31
0.0
  0
ARC
  8
0
 10
50.110688
 20
-83.607043
 30
0.0
 40
5.0
 50
128.117874
 51
182.982291
  0
ARC
  8
0
 10
56.900785
 20
-83.607044
 30
0.0
 40
5.0
 50
357.017709
 51
51.8821
  0
LINE
  8
0
  6
CENTER
 10
-55.784586
 20
-110.030901
 30
0.0
 11
-55.784586
 21
-133.627675
 31
0.0
  0
LINE
  8
0
 10
-61.784586
 20
-130.434126
 30
0.0
 11
-60.884586
 21
-129.534126
 31
0.0
  0
LINE
  8
0
 10
-60.884586
 20
-129.534126
 30
0.0
 11
-55.784586
 21
-129.534126
 31
0.0
  0
LINE
  8
0
 10
-60.884586
 20
-113.334126
 30
0.0
 11
-55.784586
 21
-113.334126
 31
0.0
  0
LINE
  8
0
 10
-61.784586
 20
-112.434126
 30
0.0
 11
-60.884586
 21
-113.334126
 31
0.0
  0
LINE
  8
0
  6
CENTER
 10
120.184414
 20
23.418023
 30
0.0
 11
120.184414
 21
51.450281
 31
0.0
  0
LINE
  8
0
 10
104.184414
 20
26.611572
 30
0.0
 11
104.184414
 21
42.611572
 31
0.0
  0
LINE
  8
0
 10
136.184414
 20
26.611572
 30
0.0
 11
136.184414
 21
31.102802
 31
0.0
  0
LINE
  8
0
 10
104.184414
 20
26.611572
 30
0.0
 11
136.184414
 21
26.611572
 31
0.0
  0
LINE
  8
0
 10
107.986312
 20
48.611572
 30
0.0
 11
132.382516
 21
48.611572
 31
0.0
  0
LINE
  8
0
 10
104.184414
 20
42.611572
 30
0.0
 11
105.614604
 21
46.902141
 31
0.0
  0
ARC
  8
0
 10
107.986312
 20
46.111572
 30
0.0
 40
2.5
 50
90.0
 51
161.565051
  0
ARC
  8
0
 10
132.382516
 20
46.111572
 30
0.0
 40
2.5
 50
41.910957
 51
90.0
  0
ARC
  8
0
 10
221.684414
 20
85.611572
 30
0.0
 40
7.5
 50
296.04854
 51
119.121647
  0
LINE
  8
0
 10
137.449612
 20
47.270667
 30
0.0
 11
218.034423
 21
92.163485
 31
0.0
  0
LINE
  8
0
 10
140.110487
 20
37.391758
 30
0.0
 11
224.977908
 21
78.873404
 31
0.0
  0
ARC
  8
0
 10
136.278881
 20
50.241509
 30
0.0
 40
3.193197
 50
222.945058
 51
291.508099
  0
ARC
  8
0
 10
143.184414
 20
31.102802
 30
0.0
 40
7.0
 50
116.04854
 51
180.0
  0
ARC
  8
0
 10
144.606461
 20
44.440176
 30
0.0
 40
9.289064
 50
168.454227
 51
229.122624
  0
LINE
  8
0
 10
112.184414
 20
26.611572
 30
0.0
 11
112.184414
 21
48.611572
 31
0.0
  0
LINE
  8
0
 10
113.184414
 20
27.611572
 30
0.0
 11
113.184414
 21
47.611572
 31
0.0
  0
ARC
  8
0
 10
120.184414
 20
-1.065848
 30
0.0
 40
16.0
 50
337.163372
 51
22.836628
  0
CIRCLE
  8
0
 10
120.184414
 20
-1.065848
 30
0.0
 40
7.0
  0
CIRCLE
  8
0
 10
120.184414
 20
-1.065848
 30
0.0
 40
8.0
  0
CIRCLE
  8
0
 10
120.184414
 20
-1.065848
 30
0.0
 40
13.659878
  0
LINE
  8
0
 10
137.175338
 20
7.131408
 30
0.0
 11
218.184414
 21
9.599075
 31
0.0
  0
LINE
  8
0
 10
137.175338
 20
-9.263104
 30
0.0
 11
218.184414
 21
-11.73077
 31
0.0
  0
ARC
  8
0
 10
218.514388
 20
-1.065848
 30
0.0
 40
10.670026
 50
268.227826
 51
91.772174
  0
ARC
  8
0
 10
136.992654
 20
13.128626
 30
0.0
 40
6.0
 50
220.180925
 51
271.744782
  0
ARC
  8
0
 10
136.992654
 20
-15.260322
 30
0.0
 40
6.0
 50
88.255218
 51
139.819075
  0
ARC
  8
0
 10
120.184414
 20
-1.065848
 30
0.0
 40
16.0
 50
40.180925
 51
319.819075
  0
ARC
  8
0
 10
244.066957
 20
46.111572
 30
0.0
 40
2.5
 50
90.0
 51
161.565051
  0
LINE
  8
0
 10
240.265059
 20
42.611572
 30
0.0
 11
241.695249
 21
46.902141
 31
0.0
  0
LINE
  8
0
 10
244.066957
 20
48.611572
 30
0.0
 11
268.463161
 21
48.611572
 31
0.0
  0
LINE
  8
0
 10
240.265059
 20
26.611572
 30
0.0
 11
272.265059
 21
26.611572
 31
0.0
  0
LINE
  8
0
 10
240.265059
 20
26.611572
 30
0.0
 11
240.265059
 21
42.611572
 31
0.0
  0
LINE
  8
0
 10
272.265059
 20
26.611572
 30
0.0
 11
272.265059
 21
42.611572
 31
0.0
  0
LINE
  8
0
 10
272.265059
 20
42.611572
 30
0.0
 11
270.83487
 21
46.902141
 31
0.0
  0
ARC
  8
0
 10
268.463161
 20
46.111572
 30
0.0
 40
2.5
 50
18.434949
 51
90.0
  0
ARC
  8
0
 10
256.265059
 20
82.441546
 30
0.0
 40
10.670026
 50
21.394846
 51
158.605154
  0
LINE
  8
0
 10
245.799699
 20
82.840842
 30
0.0
 11
248.265059
 21
48.611572
 31
0.0
  0
ARC
  8
0
 10
253.779029
 20
83.415553
 30
0.0
 40
8.0
 50
158.605154
 51
184.119611
  0
LINE
  8
0
 10
266.73042
 20
82.840842
 30
0.0
 11
264.265059
 21
48.611572
 31
0.0
  0
ARC
  8
0
 10
258.75109
 20
83.415553
 30
0.0
 40
8.0
 50
355.880389
 51
21.394846
  0
LINE
  8
0
  6
CENTER
 10
120.184414
 20
-117.258418
 30
0.0
 11
120.184414
 21
-81.052901
 31
0.0
  0
LINE
  8
0
 10
100.184414
 20
-113.358663
 30
0.0
 11
100.184414
 21
-92.358663
 31
0.0
  0
LINE
  8
0
 10
140.184414
 20
-113.358663
 30
0.0
 11
140.184414
 21
-108.610152
 31
0.0
  0
LINE
  8
0
 10
100.184414
 20
-113.358663
 30
0.0
 11
140.184414
 21
-113.358663
 31
0.0
  0
LINE
  8
0
 10
103.693017
 20
-85.358663
 30
0.0
 11
136.675811
 21
-85.358663
 31
0.0
  0
LINE
  8
0
 10
100.184414
 20
-92.358663
 30
0.0
 11
101.769969
 21
-86.809221
 31
0.0
  0
ARC
  8
0
 10
103.693017
 20
-87.358663
 30
0.0
 40
2.0
 50
90.0
 51
164.054604
  0
ARC
  8
0
 10
136.675811
 20
-87.358663
 30
0.0
 40
2.0
 50
37.82031
 51
90.0
  0
ARC
  8
0
 10
251.184414
 20
-37.858663
 30
0.0
 40
9.0
 50
297.414964
 51
119.591242
  0
LINE
  8
0
 10
145.974733
 20
-87.254872
 30
0.0
 11
246.740134
 21
-30.03253
 31
0.0
  0
LINE
  8
0
 10
142.882256
 20
-104.171676
 30
0.0
 11
255.328299
 21
-45.84792
 31
0.0
  0
ARC
  8
0
 10
143.021644
 20
-80.460807
 30
0.0
 40
7.408107
 50
229.95842
 51
293.492527
  0
ARC
  8
0
 10
145.184414
 20
-108.610152
 30
0.0
 40
5.0
 50
117.414964
 51
180.0
  0
ARC
  8
0
 10
155.768289
 20
-95.162456
 30
0.0
 40
16.825477
 50
157.87507
 51
211.354213
  0
ARC
  8
0
 10
120.184414
 20
-153.358663
 30
0.0
 40
20.0
 50
335.369292
 51
24.630708
  0
LINE
  8
0
 10
110.184414
 20
-113.358663
 30
0.0
 11
110.184414
 21
-85.358663
 31
0.0
  0
LINE
  8
0
 10
111.484414
 20
-112.058663
 30
0.0
 11
111.484414
 21
-86.658663
 31
0.0
  0
CIRCLE
  8
0
 10
120.184414
 20
-153.358663
 30
0.0
 40
10.0
  0
CIRCLE
  8
0
 10
120.184414
 20
-153.358663
 30
0.0
 40
8.7
  0
LINE
  8
0
 10
140.710601
 20
-143.154956
 30
0.0
 11
246.184414
 21
-139.803515
 31
0.0
  0
LINE
  8
0
 10
140.710601
 20
-163.562371
 30
0.0
 11
246.184414
 21
-166.913812
 31
0.0
  0
ARC
  8
0
 10
246.622198
 20
-153.358663
 30
0.0
 40
13.562216
 50
268.15019
 51
91.84981
  0
ARC
  8
0
 10
140.520047
 20
-137.157982
 30
0.0
 40
6.0
 50
218.543096
 51
271.819967
  0
ARC
  8
0
 10
140.520047
 20
-169.559344
 30
0.0
 40
6.0
 50
88.180033
 51
141.456904
  0
CIRCLE
  8
0
 10
120.184414
 20
-153.358663
 30
0.0
 40
17.695788
  0
ARC
  8
0
 10
120.184414
 20
-153.358663
 30
0.0
 40
20.0
 50
38.543096
 51
321.456904
  0
ARC
  8
0
 10
277.112372
 20
-87.358663
 30
0.0
 40
2.0
 50
90.0
 51
164.054604
  0
LINE
  8
0
 10
273.603769
 20
-92.358663
 30
0.0
 11
275.189324
 21
-86.809221
 31
0.0
  0
LINE
  8
0
 10
277.112372
 20
-85.358663
 30
0.0
 11
310.095166
 21
-85.358663
 31
0.0
  0
LINE
  8
0
 10
273.603769
 20
-113.358663
 30
0.0
 11
313.603769
 21
-113.358663
 31
0.0
  0
LINE
  8
0
 10
273.603769
 20
-113.358663
 30
0.0
 11
273.603769
 21
-92.358663
 31
0.0
  0
LINE
  8
0
 10
313.603769
 20
-113.358663
 30
0.0
 11
313.603769
 21
-92.358663
 31
0.0
  0
LINE
  8
0
 10
313.603769
 20
-92.358663
 30
0.0
 11
312.018214
 21
-86.809221
 31
0.0
  0
ARC
  8
0
 10
310.095166
 20
-87.358663
 30
0.0
 40
2.0
 50
15.945396
 51
90.0
  0
LINE
  8
0
 10
283.403769
 20
-85.358663
 30
0.0
 11
280.199685
 21
-39.997341
 31
0.0
  0
LINE
  8
0
 10
303.803769
 20
-85.358663
 30
0.0
 11
307.007853
 21
-39.997341
 31
0.0
  0
ARC
  8
0
 10
293.603769
 20
-43.858663
 30
0.0
 40
15.0
 50
39.208352
 51
140.791648
  0
ARC
  8
0
 10
288.179803
 20
-39.433668
 30
0.0
 40
8.0
 50
140.791648
 51
184.04036
  0
ARC
  8
0
 10
299.027736
 20
-39.433668
 30
0.0
 40
8.0
 50
355.95964
 51
39.208352
  0
LINE
  8
0
 10
110.184414
 20
-113.358663
 30
0.0
 11
111.484414
 21
-112.058663
 31
0.0
  0
LINE
  8
0
 10
111.484414
 20
-112.058663
 30
0.0
 11
120.184414
 21
-112.058663
 31
0.0
  0
LINE
  8
0
 10
111.484414
 20
-86.658663
 30
0.0
 11
120.184414
 21
-86.658663
 31
0.0
  0
LINE
  8
0
 10
110.184414
 20
-85.358663
 30
0.0
 11
111.484414
 21
-86.658663
 31
0.0
  0
LINE
  8
0
 10
112.184414
 20
26.611572
 30
0.0
 11
113.184414
 21
27.611572
 31
0.0
  0
LINE
  8
0
 10
113.184414
 20
27.611572
 30
0.0
 11
120.184414
 21
27.611572
 31
0.0
  0
LINE
  8
0
 10
112.184414
 20
48.611572
 30
0.0
 11
113.184414
 21
47.611572
 31
0.0
  0
LINE
  8
0
 10
113.184414
 20
47.611572
 30
0.0
 11
120.184414
 21
47.611572
 31
0.0
  0
INSERT
  8
0
  2
*X0
 10
0.0
 20
0.0
 30
0.0
1001
ACAD
1000
HATCH
1002
{
1070
    16
1000
ANSI31
1040
10.0
1040
0.0
1002
}
  0
INSERT
  8
0
  2
*X1
 10
0.0
 20
0.0
 30
0.0
1001
ACAD
1000
HATCH
1002
{
1070
    16
1000
ANSI31
1040
10.0
1040
0.0
1002
}
  0
INSERT
  8
0
  2
*X2
 10
0.0
 20
0.0
 30
0.0
1001
ACAD
1000
HATCH
1002
{
1070
    16
1000
ANSI31
1040
15.0
1040
0.0
1002
}
  0
INSERT
  8
0
  2
*X3
 10
0.0
 20
0.0
 30
0.0
1001
ACAD
1000
HATCH
1002
{
1070
    16
1000
ANSI31
1040
15.0
1040
0.0
1002
}
  0
INSERT
  8
0
  2
*X4
 10
0.0
 20
0.0
 30
0.0
1001
ACAD
1000
HATCH
1002
{
1070
    16
1000
ANSI31
1040
20.0
1040
0.0
1002
}
  0
ENDSEC
  0
EOF
