  0
SECTION
  2
HEADER
  9
$ACADVER
  1
AC1009
  9
$INSBASE
 10
0.0
 20
0.0
 30
0.0
  9
$EXTMIN
 10
187.239141
 20
-252.75045
 30
0.0
  9
$EXTMAX
 10
588.951575
 20
27.53311
 30
0.0
  9
$LIMMIN
 10
0.0
 20
0.0
  9
$LIMMAX
 10
12.0
 20
9.0
  9
$ORTHOMODE
 70
     0
  9
$REGENMODE
 70
     1
  9
$FILLMODE
 70
     1
  9
$QTEXTMODE
 70
     0
  9
$MIRRTEXT
 70
     1
  9
$DRAGMODE
 70
     2
  9
$LTSCALE
 40
8.0
  9
$OSMODE
 70
     0
  9
$ATTMODE
 70
     1
  9
$TEXTSIZE
 40
7.348114
  9
$TRACEWID
 40
0.05
  9
$TEXTSTYLE
  7
ROMAND
  9
$CLAYER
  8
0
  9
$CELTYPE
  6
BYLAYER
  9
$CECOLOR
 62
   256
  9
$DIMSCALE
 40
1.0
  9
$DIMASZ
 40
2.5
  9
$DIMEXO
 40
0.0
  9
$DIMDLI
 40
5.0
  9
$DIMRND
 40
0.0
  9
$DIMDLE
 40
0.0
  9
$DIMEXE
 40
1.0
  9
$DIMTP
 40
0.0
  9
$DIMTM
 40
0.0
  9
$DIMTXT
 40
2.5
  9
$DIMCEN
 40
0.09
  9
$DIMTSZ
 40
0.0
  9
$DIMTOL
 70
     0
  9
$DIMLIM
 70
     0
  9
$DIMTIH
 70
     0
  9
$DIMTOH
 70
     0
  9
$DIMSE1
 70
     0
  9
$DIMSE2
 70
     0
  9
$DIMTAD
 70
     1
  9
$DIMZIN
 70
     0
  9
$DIMBLK
  1

  9
$DIMASO
 70
     0
  9
$DIMSHO
 70
     0
  9
$DIMPOST
  1

  9
$DIMAPOST
  1

  9
$DIMALT
 70
     0
  9
$DIMALTD
 70
     2
  9
$DIMALTF
 40
25.4
  9
$DIMLFAC
 40
1.0
  9
$DIMTOFL
 70
     1
  9
$DIMTVP
 40
0.0
  9
$DIMTIX
 70
     0
  9
$DIMSOXD
 70
     0
  9
$DIMSAH
 70
     0
  9
$DIMBLK1
  1

  9
$DIMBLK2
  1

  9
$DIMSTYLE
  2
*UNNAMED
  9
$DIMCLRD
 70
     0
  9
$DIMCLRE
 70
     0
  9
$DIMCLRT
 70
     0
  9
$DIMTFAC
 40
1.0
  9
$DIMGAP
 40
0.09
  9
$LUNITS
 70
     2
  9
$LUPREC
 70
     4
  9
$SKETCHINC
 40
0.1
  9
$FILLETRAD
 40
1.0
  9
$AUNITS
 70
     0
  9
$AUPREC
 70
     0
  9
$MENU
  1
wiberger
  9
$ELEVATION
 40
0.0
  9
$PELEVATION
 40
0.0
  9
$THICKNESS
 40
0.0
  9
$LIMCHECK
 70
     0
  9
$BLIPMODE
 70
     1
  9
$CHAMFERA
 40
0.0
  9
$CHAMFERB
 40
0.0
  9
$SKPOLY
 70
     0
  9
$TDCREATE
 40
2450191.422306366
  9
$TDUPDATE
 40
2450218.553873263
  9
$TDINDWG
 40
0.0042243056
  9
$TDUSRTIMER
 40
0.0042243056
  9
$USRTIMER
 70
     1
  9
$ANGBASE
 50
0.0
  9
$ANGDIR
 70
     0
  9
$PDMODE
 70
     3
  9
$PDSIZE
 40
1.0
  9
$PLINEWID
 40
0.0
  9
$COORDS
 70
     0
  9
$SPLFRAME
 70
     0
  9
$SPLINETYPE
 70
     6
  9
$SPLINESEGS
 70
     8
  9
$ATTDIA
 70
     0
  9
$ATTREQ
 70
     1
  9
$HANDLING
 70
     0
  9
$HANDSEED
  5
0
  9
$SURFTAB1
 70
     6
  9
$SURFTAB2
 70
     6
  9
$SURFTYPE
 70
     6
  9
$SURFU
 70
     6
  9
$SURFV
 70
     6
  9
$UCSNAME
  2

  9
$UCSORG
 10
0.0
 20
0.0
 30
0.0
  9
$UCSXDIR
 10
1.0
 20
0.0
 30
0.0
  9
$UCSYDIR
 10
0.0
 20
1.0
 30
0.0
  9
$PUCSNAME
  2

  9
$PUCSORG
 10
0.0
 20
0.0
 30
0.0
  9
$PUCSXDIR
 10
1.0
 20
0.0
 30
0.0
  9
$PUCSYDIR
 10
0.0
 20
1.0
 30
0.0
  9
$USERI1
 70
     0
  9
$USERI2
 70
     0
  9
$USERI3
 70
     0
  9
$USERI4
 70
     0
  9
$USERI5
 70
     0
  9
$USERR1
 40
0.0
  9
$USERR2
 40
0.0
  9
$USERR3
 40
0.0
  9
$USERR4
 40
0.0
  9
$USERR5
 40
0.0
  9
$WORLDVIEW
 70
     1
  9
$SHADEDGE
 70
     3
  9
$SHADEDIF
 70
    70
  9
$TILEMODE
 70
     1
  9
$MAXACTVP
 70
    16
  9
$PINSBASE
 10
0.0
 20
0.0
 30
0.0
  9
$PLIMCHECK
 70
     0
  9
$PEXTMIN
 10
1.000000E+20
 20
1.000000E+20
 30
1.000000E+20
  9
$PEXTMAX
 10
-1.000000E+20
 20
-1.000000E+20
 30
-1.000000E+20
  9
$PLIMMIN
 10
0.0
 20
0.0
  9
$PLIMMAX
 10
12.0
 20
9.0
  9
$UNITMODE
 70
     0
  9
$VISRETAIN
 70
     0
  9
$PLINEGEN
 70
     0
  9
$PSLTSCALE
 70
     0
  9
$TREEDEPTH
 70
  3020
  9
$DWGCODEPAGE
  3
undefined
  0
ENDSEC
  0
SECTION
  2
TABLES
  0
TABLE
  2
VPORT
 70
     2
  0
VPORT
  2
*ACTIVE
 70
     0
 10
0.0
 20
0.0
 11
1.0
 21
1.0
 12
449.236501
 22
-107.979738
 13
0.0
 23
0.0
 14
1.0
 24
1.0
 15
0.0
 25
0.0
 16
0.0
 26
0.0
 36
1.0
 17
0.0
 27
0.0
 37
0.0
 40
321.712692
 41
1.767507
 42
50.0
 43
0.0
 44
0.0
 50
0.0
 51
0.0
 71
     0
 72
   100
 73
     1
 74
     0
 75
     0
 76
     0
 77
     0
 78
     0
  0
ENDTAB
  0
TABLE
  2
LTYPE
 70
     2
  0
LTYPE
  2
CONTINUOUS
 70
    64
  3
Solid line
 72
    65
 73
     0
 40
0.0
  0
LTYPE
  2
CENTER
 70
    64
  3
____ _ ____ _ ____ _ ____ _ ____ _ ____ _ ____
 72
    65
 73
     4
 40
2.0
 49
1.25
 49
-0.25
 49
0.25
 49
-0.25
  0
ENDTAB
  0
TABLE
  2
LAYER
 70
     3
  0
LAYER
  2
0
 70
    64
 62
     7
  6
CONTINUOUS
  0
LAYER
  2
KONTUR2
 70
     0
 62
     6
  6
CONTINUOUS
  0
LAYER
  2
KONTUR
 70
     0
 62
     1
  6
CONTINUOUS
  0
ENDTAB
  0
TABLE
  2
STYLE
 70
     3
  0
STYLE
  2
STANDARD
 70
     0
 40
0.0
 41
1.0
 50
0.0
 71
     0
 42
0.2
  3
txt
  4

  0
STYLE
  2
ROMANS
 70
     0
 40
3.053804
 41
1.0
 50
0.0
 71
     0
 42
3.053804
  3
romans
  4

  0
STYLE
  2
ROMAND
 70
     0
 40
7.348114
 41
2.0
 50
0.0
 71
     0
 42
7.348114
  3
romand
  4

  0
ENDTAB
  0
TABLE
  2
VIEW
 70
     0
  0
ENDTAB
  0
TABLE
  2
UCS
 70
     0
  0
ENDTAB
  0
TABLE
  2
APPID
 70
     1
  0
APPID
  2
ACAD
 70
    64
  0
ENDTAB
  0
TABLE
  2
DIMSTYLE
 70
     0
  0
ENDTAB
  0
ENDSEC
  0
SECTION
  2
BLOCKS
  0
BLOCK
  8
0
  2
*X0
 70
    65
 10
0.0
 20
0.0
 30
0.0
  3
*X
  0
LINE
  8
0
 62
     0
 10
-13.977109
 20
-12.562896
 30
0.0
 11
1.617896
 21
3.03211
 31
0.0
  0
LINE
  8
0
 62
     0
 10
-14.982104
 20
-12.153677
 30
0.0
 11
1.108677
 21
3.937104
 31
0.0
  0
LINE
  8
0
 62
     0
 10
-14.982104
 20
-10.739463
 30
0.0
 11
-0.305536
 21
3.937104
 31
0.0
  0
LINE
  8
0
 62
     0
 10
-14.982104
 20
-9.32525
 30
0.0
 11
-1.71975
 21
3.937104
 31
0.0
  0
LINE
  8
0
 62
     0
 10
-14.982104
 20
-7.911036
 30
0.0
 11
-3.133964
 21
3.937104
 31
0.0
  0
LINE
  8
0
 62
     0
 10
-14.982104
 20
-6.496822
 30
0.0
 11
-4.548177
 21
3.937104
 31
0.0
  0
LINE
  8
0
 62
     0
 10
-14.982104
 20
-5.082609
 30
0.0
 11
-5.962391
 21
3.937104
 31
0.0
  0
LINE
  8
0
 62
     0
 10
-14.982104
 20
-3.668395
 30
0.0
 11
-7.376604
 21
3.937104
 31
0.0
  0
LINE
  8
0
 62
     0
 10
-14.982104
 20
-2.254182
 30
0.0
 11
-8.790818
 21
3.937104
 31
0.0
  0
LINE
  8
0
 62
     0
 10
-14.982104
 20
-0.839968
 30
0.0
 11
-10.205031
 21
3.937104
 31
0.0
  0
LINE
  8
0
 62
     0
 10
-14.982104
 20
0.574245
 30
0.0
 11
-11.619245
 21
3.937104
 31
0.0
  0
LINE
  8
0
 62
     0
 10
-14.982104
 20
1.988459
 30
0.0
 11
-13.033458
 21
3.937104
 31
0.0
  0
LINE
  8
0
 62
     0
 10
-14.982104
 20
3.402672
 30
0.0
 11
-14.447672
 21
3.937104
 31
0.0
  0
LINE
  8
0
 62
     0
 10
-12.562896
 20
-12.562896
 30
0.0
 11
1.617896
 21
1.617896
 31
0.0
  0
LINE
  8
0
 62
     0
 10
-11.148682
 20
-12.562896
 30
0.0
 11
1.617896
 21
0.203683
 31
0.0
  0
LINE
  8
0
 62
     0
 10
-9.734469
 20
-12.562896
 30
0.0
 11
1.617896
 21
-1.210531
 31
0.0
  0
LINE
  8
0
 62
     0
 10
-8.320255
 20
-12.562896
 30
0.0
 11
1.617896
 21
-2.624745
 31
0.0
  0
LINE
  8
0
 62
     0
 10
-6.906041
 20
-12.562896
 30
0.0
 11
1.617896
 21
-4.038958
 31
0.0
  0
LINE
  8
0
 62
     0
 10
-5.491828
 20
-12.562896
 30
0.0
 11
1.617896
 21
-5.453172
 31
0.0
  0
LINE
  8
0
 62
     0
 10
-4.077614
 20
-12.562896
 30
0.0
 11
1.617896
 21
-6.867385
 31
0.0
  0
LINE
  8
0
 62
     0
 10
-2.663401
 20
-12.562896
 30
0.0
 11
1.617896
 21
-8.281599
 31
0.0
  0
LINE
  8
0
 62
     0
 10
-1.249187
 20
-12.562896
 30
0.0
 11
1.617896
 21
-9.695812
 31
0.0
  0
LINE
  8
0
 62
     0
 10
0.165026
 20
-12.562896
 30
0.0
 11
1.617896
 21
-11.110026
 31
0.0
  0
LINE
  8
0
 62
     0
 10
1.57924
 20
-12.562896
 30
0.0
 11
1.617896
 21
-12.524239
 31
0.0
  0
LINE
  8
0
 62
     0
 10
1.617896
 20
-11.517391
 30
0.0
 11
-13.836599
 21
3.937104
 31
0.0
  0
LINE
  8
0
 62
     0
 10
1.249187
 20
-12.562896
 30
0.0
 11
-14.982104
 21
3.668395
 31
0.0
  0
LINE
  8
0
 62
     0
 10
-0.165026
 20
-12.562896
 30
0.0
 11
-14.982104
 21
2.254182
 31
0.0
  0
LINE
  8
0
 62
     0
 10
-1.57924
 20
-12.562896
 30
0.0
 11
-14.982104
 21
0.839968
 31
0.0
  0
LINE
  8
0
 62
     0
 10
-2.993453
 20
-12.562896
 30
0.0
 11
-14.982104
 21
-0.574245
 31
0.0
  0
LINE
  8
0
 62
     0
 10
-4.407667
 20
-12.562896
 30
0.0
 11
-14.982104
 21
-1.988459
 31
0.0
  0
LINE
  8
0
 62
     0
 10
-5.821881
 20
-12.562896
 30
0.0
 11
-14.982104
 21
-3.402672
 31
0.0
  0
LINE
  8
0
 62
     0
 10
-7.236094
 20
-12.562896
 30
0.0
 11
-14.982104
 21
-4.816886
 31
0.0
  0
LINE
  8
0
 62
     0
 10
-8.650308
 20
-12.562896
 30
0.0
 11
-14.982104
 21
-6.2311
 31
0.0
  0
LINE
  8
0
 62
     0
 10
-10.064521
 20
-12.562896
 30
0.0
 11
-14.982104
 21
-7.645313
 31
0.0
  0
LINE
  8
0
 62
     0
 10
-11.478735
 20
-12.562896
 30
0.0
 11
-14.982104
 21
-9.059527
 31
0.0
  0
LINE
  8
0
 62
     0
 10
-12.892948
 20
-12.562896
 30
0.0
 11
-14.982104
 21
-10.47374
 31
0.0
  0
LINE
  8
0
 62
     0
 10
-14.307162
 20
-12.562896
 30
0.0
 11
-14.982104
 21
-11.887954
 31
0.0
  0
LINE
  8
0
 62
     0
 10
1.617896
 20
-10.103178
 30
0.0
 11
-12.422386
 21
3.937104
 31
0.0
  0
LINE
  8
0
 62
     0
 10
1.617896
 20
-8.688964
 30
0.0
 11
-11.008172
 21
3.937104
 31
0.0
  0
LINE
  8
0
 62
     0
 10
1.617896
 20
-7.27475
 30
0.0
 11
-9.593959
 21
3.937104
 31
0.0
  0
LINE
  8
0
 62
     0
 10
1.617896
 20
-5.860537
 30
0.0
 11
-8.179745
 21
3.937104
 31
0.0
  0
LINE
  8
0
 62
     0
 10
1.617896
 20
-4.446323
 30
0.0
 11
-6.765531
 21
3.937104
 31
0.0
  0
LINE
  8
0
 62
     0
 10
1.617896
 20
-3.03211
 30
0.0
 11
-5.351318
 21
3.937104
 31
0.0
  0
LINE
  8
0
 62
     0
 10
1.617896
 20
-1.617896
 30
0.0
 11
-3.937104
 21
3.937104
 31
0.0
  0
LINE
  8
0
 62
     0
 10
1.617896
 20
-0.203683
 30
0.0
 11
-2.522891
 21
3.937104
 31
0.0
  0
LINE
  8
0
 62
     0
 10
1.617896
 20
1.210531
 30
0.0
 11
-1.108677
 21
3.937104
 31
0.0
  0
LINE
  8
0
 62
     0
 10
1.617896
 20
2.624745
 30
0.0
 11
0.305536
 21
3.937104
 31
0.0
  0
ENDBLK
  8
0
  0
BLOCK
  8
0
  2
*X1
 70
    65
 10
0.0
 20
0.0
 30
0.0
  3
*X
  0
LINE
  8
0
 62
     0
 10
-6.425544
 20
-12.789505
 30
0.0
 11
-1.375544
 21
-7.739505
 31
0.0
  0
LINE
  8
0
 62
     0
 10
-6.425544
 20
-10.668185
 30
0.0
 11
-1.375544
 21
-5.618185
 31
0.0
  0
LINE
  8
0
 62
     0
 10
-6.425544
 20
-8.546864
 30
0.0
 11
-1.375544
 21
-3.496864
 31
0.0
  0
LINE
  8
0
 62
     0
 10
-6.425544
 20
-6.425544
 30
0.0
 11
-1.375544
 21
-1.375544
 31
0.0
  0
LINE
  8
0
 62
     0
 10
-6.425544
 20
-4.304224
 30
0.0
 11
-1.375544
 21
0.745776
 31
0.0
  0
LINE
  8
0
 62
     0
 10
-6.425544
 20
-2.182903
 30
0.0
 11
-1.375544
 21
2.867097
 31
0.0
  0
LINE
  8
0
 62
     0
 10
-6.425544
 20
-0.061583
 30
0.0
 11
-2.061337
 21
4.302624
 31
0.0
  0
LINE
  8
0
 62
     0
 10
-6.425544
 20
2.059738
 30
0.0
 11
-4.182657
 21
4.302624
 31
0.0
  0
LINE
  8
0
 62
     0
 10
-6.325544
 20
-14.810825
 30
0.0
 11
-1.375544
 21
-9.860825
 31
0.0
  0
LINE
  8
0
 62
     0
 10
-6.325544
 20
-16.932146
 30
0.0
 11
-1.375544
 21
-11.982146
 31
0.0
  0
LINE
  8
0
 62
     0
 10
-6.325544
 20
-19.053466
 30
0.0
 11
-1.319454
 21
-14.047376
 31
0.0
  0
LINE
  8
0
 62
     0
 10
-6.325544
 20
-21.174786
 30
0.0
 11
-0.425544
 21
-15.274786
 31
0.0
  0
LINE
  8
0
 62
     0
 10
-7.836299
 20
-24.806862
 30
0.0
 11
-0.425544
 21
-17.396107
 31
0.0
  0
LINE
  8
0
 62
     0
 10
-10.753114
 20
-29.844997
 30
0.0
 11
-0.425544
 21
-19.517427
 31
0.0
  0
LINE
  8
0
 62
     0
 10
-11.484172
 20
-32.697376
 30
0.0
 11
-1.375544
 21
-22.588747
 31
0.0
  0
LINE
  8
0
 62
     0
 10
-9.362852
 20
-32.697376
 30
0.0
 11
-1.375544
 21
-24.710068
 31
0.0
  0
LINE
  8
0
 62
     0
 10
-7.241532
 20
-32.697376
 30
0.0
 11
-1.375544
 21
-26.831388
 31
0.0
  0
LINE
  8
0
 62
     0
 10
-5.120211
 20
-32.697376
 30
0.0
 11
-1.375544
 21
-28.952708
 31
0.0
  0
LINE
  8
0
 62
     0
 10
-2.998891
 20
-32.697376
 30
0.0
 11
-1.375544
 21
-31.074029
 31
0.0
  0
ENDBLK
  8
0
  0
BLOCK
  8
0
  2
*X2
 70
    65
 10
0.0
 20
0.0
 30
0.0
  3
*X
  0
LINE
  8
0
 62
     0
 10
-69.679384
 20
-3.859721
 30
0.0
 11
-79.67621
 21
6.137104
 31
0.0
  0
LINE
  8
0
 62
     0
 10
-70.404637
 20
-5.962896
 30
0.0
 11
-81.129384
 21
4.761852
 31
0.0
  0
LINE
  8
0
 62
     0
 10
-73.233064
 20
-5.962896
 30
0.0
 11
-77.179384
 21
-2.016576
 31
0.0
  0
LINE
  8
0
 62
     0
 10
-79.233064
 20
0.037104
 30
0.0
 11
-81.129384
 21
1.933424
 31
0.0
  0
LINE
  8
0
 62
     0
 10
-76.061491
 20
-5.962896
 30
0.0
 11
-77.179384
 21
-4.845003
 31
0.0
  0
LINE
  8
0
 62
     0
 10
-69.679384
 20
-1.031294
 30
0.0
 11
-71.162844
 21
0.452166
 31
0.0
  0
LINE
  8
0
 62
     0
 10
-72.679384
 20
1.968706
 30
0.0
 11
-76.847782
 21
6.137104
 31
0.0
  0
LINE
  8
0
 62
     0
 10
-72.679384
 20
4.797133
 30
0.0
 11
-74.019355
 21
6.137104
 31
0.0
  0
ENDBLK
  8
0
  0
BLOCK
  8
0
  2
*X3
 70
    65
 10
0.0
 20
0.0
 30
0.0
  3
*X
  0
LINE
  8
0
 62
     0
 10
-68.319624
 20
-33.503753
 30
0.0
 11
-71.027498
 21
-30.795878
 31
0.0
  0
LINE
  8
0
 62
     0
 10
-68.319624
 20
-35.625073
 30
0.0
 11
-71.831801
 21
-32.112896
 31
0.0
  0
LINE
  8
0
 62
     0
 10
-70.353121
 20
-35.712896
 30
0.0
 11
-73.953121
 21
-32.112896
 31
0.0
  0
LINE
  8
0
 62
     0
 10
-71.299624
 20
-36.887714
 30
0.0
 11
-76.074442
 21
-32.112896
 31
0.0
  0
LINE
  8
0
 62
     0
 10
-72.195762
 20
-38.112896
 30
0.0
 11
-78.195762
 21
-32.112896
 31
0.0
  0
LINE
  8
0
 62
     0
 10
-74.317082
 20
-38.112896
 30
0.0
 11
-80.317082
 21
-32.112896
 31
0.0
  0
LINE
  8
0
 62
     0
 10
-76.438403
 20
-38.112896
 30
0.0
 11
-81.799624
 21
-32.751675
 31
0.0
  0
LINE
  8
0
 62
     0
 10
-78.559723
 20
-38.112896
 30
0.0
 11
-81.799624
 21
-34.872995
 31
0.0
  0
LINE
  8
0
 62
     0
 10
-80.681044
 20
-38.112896
 30
0.0
 11
-81.799624
 21
-36.994315
 31
0.0
  0
LINE
  8
0
 62
     0
 10
-68.319624
 20
-31.382432
 30
0.0
 11
-71.299624
 21
-28.402432
 31
0.0
  0
LINE
  8
0
 62
     0
 10
-68.319624
 20
-29.261112
 30
0.0
 11
-71.299624
 21
-26.281112
 31
0.0
  0
LINE
  8
0
 62
     0
 10
-68.319624
 20
-27.139792
 30
0.0
 11
-70.771162
 21
-24.688254
 31
0.0
  0
LINE
  8
0
 62
     0
 10
-68.319624
 20
-25.018471
 30
0.0
 11
-70.299624
 21
-23.038471
 31
0.0
  0
LINE
  8
0
 62
     0
 10
-68.319624
 20
-22.897151
 30
0.0
 11
-70.299624
 21
-20.917151
 31
0.0
  0
LINE
  8
0
 62
     0
 10
-68.319624
 20
-20.775831
 30
0.0
 11
-70.299624
 21
-18.795831
 31
0.0
  0
LINE
  8
0
 62
     0
 10
-68.319624
 20
-18.65451
 30
0.0
 11
-69.861238
 21
-17.112896
 31
0.0
  0
ENDBLK
  8
0
  0
BLOCK
  8
0
  2
*X4
 70
    65
 10
0.0
 20
0.0
 30
0.0
  3
*X
  0
LINE
  8
0
 62
     0
 10
-223.297654
 20
-19.650901
 30
0.0
 11
-221.607654
 21
-17.960901
 31
0.0
  0
LINE
  8
0
 62
     0
 10
-222.836876
 20
-17.068802
 30
0.0
 11
-221.607654
 21
-15.83958
 31
0.0
  0
LINE
  8
0
 62
     0
 10
-224.819441
 20
-16.930048
 30
0.0
 11
-221.607654
 21
-13.71826
 31
0.0
  0
LINE
  8
0
 62
     0
 10
-225.307654
 20
-15.29694
 30
0.0
 11
-221.607654
 21
-11.59694
 31
0.0
  0
LINE
  8
0
 62
     0
 10
-224.457654
 20
-12.325619
 30
0.0
 11
-221.607654
 21
-9.475619
 31
0.0
  0
LINE
  8
0
 62
     0
 10
-224.457654
 20
-10.204299
 30
0.0
 11
-222.807654
 21
-8.554299
 31
0.0
  0
LINE
  8
0
 62
     0
 10
-224.457654
 20
-8.082978
 30
0.0
 11
-222.807654
 21
-6.432978
 31
0.0
  0
LINE
  8
0
 62
     0
 10
-224.457654
 20
-5.961658
 30
0.0
 11
-222.807654
 21
-4.311658
 31
0.0
  0
LINE
  8
0
 62
     0
 10
-224.457654
 20
-3.840338
 30
0.0
 11
-222.807654
 21
-2.190338
 31
0.0
  0
LINE
  8
0
 62
     0
 10
-224.457654
 20
-1.719017
 30
0.0
 11
-222.807654
 21
-0.069017
 31
0.0
  0
LINE
  8
0
 62
     0
 10
-223.297654
 20
-21.772221
 30
0.0
 11
-221.607654
 21
-20.082221
 31
0.0
  0
LINE
  8
0
 62
     0
 10
-223.297654
 20
-23.893541
 30
0.0
 11
-221.607654
 21
-22.203541
 31
0.0
  0
LINE
  8
0
 62
     0
 10
-223.297654
 20
-26.014862
 30
0.0
 11
-221.607654
 21
-24.324862
 31
0.0
  0
LINE
  8
0
 62
     0
 10
-223.297654
 20
-28.136182
 30
0.0
 11
-221.607654
 21
-26.446182
 31
0.0
  0
LINE
  8
0
 62
     0
 10
-223.297654
 20
-30.257502
 30
0.0
 11
-221.607654
 21
-28.567502
 31
0.0
  0
LINE
  8
0
 62
     0
 10
-223.297654
 20
-32.378823
 30
0.0
 11
-221.607654
 21
-30.688823
 31
0.0
  0
LINE
  8
0
 62
     0
 10
-223.297654
 20
-34.500143
 30
0.0
 11
-221.607654
 21
-32.810143
 31
0.0
  0
LINE
  8
0
 62
     0
 10
-222.907654
 20
-36.231463
 30
0.0
 11
-221.607654
 21
-34.931463
 31
0.0
  0
LINE
  8
0
 62
     0
 10
-222.484918
 20
-37.930048
 30
0.0
 11
-221.607654
 21
-37.052784
 31
0.0
  0
ENDBLK
  8
0
  0
BLOCK
  8
0
  2
*X5
 70
    65
 10
0.0
 20
0.0
 30
0.0
  3
*X
  0
LINE
  8
0
 62
     0
 10
-126.613998
 20
-111.057649
 30
0.0
 11
-109.313998
 21
-93.757649
 31
0.0
  0
LINE
  8
0
 62
     0
 10
-128.028212
 20
-111.057649
 30
0.0
 11
-110.728212
 21
-93.757649
 31
0.0
  0
LINE
  8
0
 62
     0
 10
-128.548892
 20
-110.164116
 30
0.0
 11
-112.142426
 21
-93.757649
 31
0.0
  0
LINE
  8
0
 62
     0
 10
-128.548892
 20
-108.749903
 30
0.0
 11
-113.556639
 21
-93.757649
 31
0.0
  0
LINE
  8
0
 62
     0
 10
-128.548892
 20
-107.335689
 30
0.0
 11
-114.970853
 21
-93.757649
 31
0.0
  0
LINE
  8
0
 62
     0
 10
-128.548892
 20
-105.921475
 30
0.0
 11
-116.385066
 21
-93.757649
 31
0.0
  0
LINE
  8
0
 62
     0
 10
-128.548892
 20
-104.507262
 30
0.0
 11
-117.79928
 21
-93.757649
 31
0.0
  0
LINE
  8
0
 62
     0
 10
-128.548892
 20
-103.093048
 30
0.0
 11
-119.213493
 21
-93.757649
 31
0.0
  0
LINE
  8
0
 62
     0
 10
-128.548892
 20
-101.678835
 30
0.0
 11
-120.627707
 21
-93.757649
 31
0.0
  0
LINE
  8
0
 62
     0
 10
-128.548892
 20
-100.264621
 30
0.0
 11
-122.04192
 21
-93.757649
 31
0.0
  0
LINE
  8
0
 62
     0
 10
-128.548892
 20
-98.850408
 30
0.0
 11
-123.456134
 21
-93.757649
 31
0.0
  0
LINE
  8
0
 62
     0
 10
-128.548892
 20
-97.436194
 30
0.0
 11
-124.870348
 21
-93.757649
 31
0.0
  0
LINE
  8
0
 62
     0
 10
-128.548892
 20
-96.02198
 30
0.0
 11
-126.284561
 21
-93.757649
 31
0.0
  0
LINE
  8
0
 62
     0
 10
-128.548892
 20
-94.607767
 30
0.0
 11
-127.698775
 21
-93.757649
 31
0.0
  0
LINE
  8
0
 62
     0
 10
-125.199785
 20
-111.057649
 30
0.0
 11
-108.349339
 21
-94.207203
 31
0.0
  0
LINE
  8
0
 62
     0
 10
-123.785571
 20
-111.057649
 30
0.0
 11
-107.642232
 21
-94.91431
 31
0.0
  0
LINE
  8
0
 62
     0
 10
-122.371358
 20
-111.057649
 30
0.0
 11
-107.498892
 21
-96.185184
 31
0.0
  0
LINE
  8
0
 62
     0
 10
-120.957144
 20
-111.057649
 30
0.0
 11
-107.498892
 21
-97.599397
 31
0.0
  0
LINE
  8
0
 62
     0
 10
-119.542931
 20
-111.057649
 30
0.0
 11
-107.498892
 21
-99.013611
 31
0.0
  0
LINE
  8
0
 62
     0
 10
-118.128717
 20
-111.057649
 30
0.0
 11
-107.498892
 21
-100.427825
 31
0.0
  0
LINE
  8
0
 62
     0
 10
-116.714503
 20
-111.057649
 30
0.0
 11
-107.498892
 21
-101.842038
 31
0.0
  0
LINE
  8
0
 62
     0
 10
-115.30029
 20
-111.057649
 30
0.0
 11
-107.498892
 21
-103.256252
 31
0.0
  0
LINE
  8
0
 62
     0
 10
-113.886076
 20
-111.057649
 30
0.0
 11
-107.498892
 21
-104.670465
 31
0.0
  0
LINE
  8
0
 62
     0
 10
-112.471863
 20
-111.057649
 30
0.0
 11
-107.498892
 21
-106.084679
 31
0.0
  0
LINE
  8
0
 62
     0
 10
-111.057649
 20
-111.057649
 30
0.0
 11
-107.498892
 21
-107.498892
 31
0.0
  0
LINE
  8
0
 62
     0
 10
-109.643436
 20
-111.057649
 30
0.0
 11
-107.498892
 21
-108.913106
 31
0.0
  0
LINE
  8
0
 62
     0
 10
-108.229222
 20
-111.057649
 30
0.0
 11
-107.498892
 21
-110.32732
 31
0.0
  0
LINE
  8
0
 62
     0
 10
-108.145453
 20
-111.057649
 30
0.0
 11
-125.445453
 21
-93.757649
 31
0.0
  0
LINE
  8
0
 62
     0
 10
-109.559666
 20
-111.057649
 30
0.0
 11
-126.859666
 21
-93.757649
 31
0.0
  0
LINE
  8
0
 62
     0
 10
-110.97388
 20
-111.057649
 30
0.0
 11
-128.27388
 21
-93.757649
 31
0.0
  0
LINE
  8
0
 62
     0
 10
-112.388094
 20
-111.057649
 30
0.0
 11
-128.548892
 21
-94.89685
 31
0.0
  0
LINE
  8
0
 62
     0
 10
-113.802307
 20
-111.057649
 30
0.0
 11
-128.548892
 21
-96.311064
 31
0.0
  0
LINE
  8
0
 62
     0
 10
-115.216521
 20
-111.057649
 30
0.0
 11
-128.548892
 21
-97.725278
 31
0.0
  0
LINE
  8
0
 62
     0
 10
-116.630734
 20
-111.057649
 30
0.0
 11
-128.548892
 21
-99.139491
 31
0.0
  0
LINE
  8
0
 62
     0
 10
-118.044948
 20
-111.057649
 30
0.0
 11
-128.548892
 21
-100.553705
 31
0.0
  0
LINE
  8
0
 62
     0
 10
-119.459161
 20
-111.057649
 30
0.0
 11
-128.548892
 21
-101.967918
 31
0.0
  0
LINE
  8
0
 62
     0
 10
-120.873375
 20
-111.057649
 30
0.0
 11
-128.548892
 21
-103.382132
 31
0.0
  0
LINE
  8
0
 62
     0
 10
-122.287589
 20
-111.057649
 30
0.0
 11
-128.548892
 21
-104.796345
 31
0.0
  0
LINE
  8
0
 62
     0
 10
-123.701802
 20
-111.057649
 30
0.0
 11
-128.548892
 21
-106.210559
 31
0.0
  0
LINE
  8
0
 62
     0
 10
-125.116016
 20
-111.057649
 30
0.0
 11
-128.548892
 21
-107.624772
 31
0.0
  0
LINE
  8
0
 62
     0
 10
-126.530229
 20
-111.057649
 30
0.0
 11
-128.548892
 21
-109.038986
 31
0.0
  0
LINE
  8
0
 62
     0
 10
-127.944443
 20
-111.057649
 30
0.0
 11
-128.548892
 21
-110.4532
 31
0.0
  0
LINE
  8
0
 62
     0
 10
-107.498892
 20
-110.289996
 30
0.0
 11
-124.031239
 21
-93.757649
 31
0.0
  0
LINE
  8
0
 62
     0
 10
-107.498892
 20
-108.875783
 30
0.0
 11
-122.617026
 21
-93.757649
 31
0.0
  0
LINE
  8
0
 62
     0
 10
-107.498892
 20
-107.461569
 30
0.0
 11
-121.202812
 21
-93.757649
 31
0.0
  0
LINE
  8
0
 62
     0
 10
-107.498892
 20
-106.047356
 30
0.0
 11
-119.788599
 21
-93.757649
 31
0.0
  0
LINE
  8
0
 62
     0
 10
-107.498892
 20
-104.633142
 30
0.0
 11
-118.374385
 21
-93.757649
 31
0.0
  0
LINE
  8
0
 62
     0
 10
-107.498892
 20
-103.218928
 30
0.0
 11
-116.960172
 21
-93.757649
 31
0.0
  0
LINE
  8
0
 62
     0
 10
-107.498892
 20
-101.804715
 30
0.0
 11
-115.545958
 21
-93.757649
 31
0.0
  0
LINE
  8
0
 62
     0
 10
-107.498892
 20
-100.390501
 30
0.0
 11
-114.131744
 21
-93.757649
 31
0.0
  0
LINE
  8
0
 62
     0
 10
-107.498892
 20
-98.976288
 30
0.0
 11
-112.717531
 21
-93.757649
 31
0.0
  0
LINE
  8
0
 62
     0
 10
-107.498892
 20
-97.562074
 30
0.0
 11
-111.303317
 21
-93.757649
 31
0.0
  0
LINE
  8
0
 62
     0
 10
-107.498892
 20
-96.147861
 30
0.0
 11
-109.889104
 21
-93.757649
 31
0.0
  0
ENDBLK
  8
0
  0
BLOCK
  8
0
  2
*X6
 70
    65
 10
0.0
 20
0.0
 30
0.0
  3
*X
  0
LINE
  8
0
 62
     0
 10
-155.92258
 20
-141.073337
 30
0.0
 11
-152.73258
 21
-137.883337
 31
0.0
  0
LINE
  8
0
 62
     0
 10
-155.82258
 20
-138.852017
 30
0.0
 11
-152.73258
 21
-135.762017
 31
0.0
  0
LINE
  8
0
 62
     0
 10
-156.072627
 20
-136.980744
 30
0.0
 11
-152.73258
 21
-133.640697
 31
0.0
  0
LINE
  8
0
 62
     0
 10
-157.93258
 20
-136.719376
 30
0.0
 11
-152.73258
 21
-131.519376
 31
0.0
  0
LINE
  8
0
 62
     0
 10
-157.93258
 20
-134.598056
 30
0.0
 11
-156.715268
 21
-133.380744
 31
0.0
  0
LINE
  8
0
 62
     0
 10
-156.63258
 20
-133.298056
 30
0.0
 11
-152.73258
 21
-129.398056
 31
0.0
  0
LINE
  8
0
 62
     0
 10
-156.63258
 20
-131.176736
 30
0.0
 11
-153.836588
 21
-128.380744
 31
0.0
  0
LINE
  8
0
 62
     0
 10
-156.63258
 20
-129.055415
 30
0.0
 11
-154.43258
 21
-126.855415
 31
0.0
  0
LINE
  8
0
 62
     0
 10
-156.63258
 20
-126.934095
 30
0.0
 11
-154.43258
 21
-124.734095
 31
0.0
  0
LINE
  8
0
 62
     0
 10
-156.63258
 20
-124.812775
 30
0.0
 11
-154.43258
 21
-122.612775
 31
0.0
  0
LINE
  8
0
 62
     0
 10
-156.63258
 20
-122.691454
 30
0.0
 11
-154.43258
 21
-120.491454
 31
0.0
  0
LINE
  8
0
 62
     0
 10
-156.63258
 20
-120.570134
 30
0.0
 11
-155.64319
 21
-119.580744
 31
0.0
  0
LINE
  8
0
 62
     0
 10
-155.92258
 20
-143.194658
 30
0.0
 11
-152.73258
 21
-140.004658
 31
0.0
  0
LINE
  8
0
 62
     0
 10
-155.92258
 20
-145.315978
 30
0.0
 11
-152.73258
 21
-142.125978
 31
0.0
  0
LINE
  8
0
 62
     0
 10
-155.92258
 20
-147.437298
 30
0.0
 11
-152.73258
 21
-144.247298
 31
0.0
  0
LINE
  8
0
 62
     0
 10
-155.92258
 20
-149.558619
 30
0.0
 11
-152.73258
 21
-146.368619
 31
0.0
  0
LINE
  8
0
 62
     0
 10
-155.92258
 20
-151.679939
 30
0.0
 11
-152.73258
 21
-148.489939
 31
0.0
  0
LINE
  8
0
 62
     0
 10
-155.92258
 20
-153.801259
 30
0.0
 11
-152.73258
 21
-150.611259
 31
0.0
  0
LINE
  8
0
 62
     0
 10
-155.32258
 20
-155.32258
 30
0.0
 11
-152.73258
 21
-152.73258
 31
0.0
  0
LINE
  8
0
 62
     0
 10
-155.759424
 20
-157.880744
 30
0.0
 11
-152.73258
 21
-154.8539
 31
0.0
  0
LINE
  8
0
 62
     0
 10
-153.638103
 20
-157.880744
 30
0.0
 11
-152.73258
 21
-156.97522
 31
0.0
  0
ENDBLK
  8
0
  0
BLOCK
  8
0
  2
*X7
 70
    65
 10
0.0
 20
0.0
 30
0.0
  3
*X
  0
LINE
  8
0
 62
     0
 10
-147.107564
 20
-124.42144
 30
0.0
 11
-158.499508
 21
-113.029496
 31
0.0
  0
LINE
  8
0
 62
     0
 10
-149.327935
 20
-125.029496
 30
0.0
 11
-161.327935
 21
-113.029496
 31
0.0
  0
LINE
  8
0
 62
     0
 10
-152.156362
 20
-125.029496
 30
0.0
 11
-157.607564
 21
-119.578294
 31
0.0
  0
LINE
  8
0
 62
     0
 10
-158.156362
 20
-119.029496
 30
0.0
 11
-162.807564
 21
-114.378294
 31
0.0
  0
LINE
  8
0
 62
     0
 10
-154.984789
 20
-125.029496
 30
0.0
 11
-157.607564
 21
-122.406721
 31
0.0
  0
LINE
  8
0
 62
     0
 10
-160.984789
 20
-119.029496
 30
0.0
 11
-162.807564
 21
-117.206721
 31
0.0
  0
LINE
  8
0
 62
     0
 10
-147.107564
 20
-121.593013
 30
0.0
 11
-155.671081
 21
-113.029496
 31
0.0
  0
LINE
  8
0
 62
     0
 10
-150.107564
 20
-115.764585
 30
0.0
 11
-152.842653
 21
-113.029496
 31
0.0
  0
ENDBLK
  8
0
  0
BLOCK
  8
0
  2
*X8
 70
    65
 10
0.0
 20
0.0
 30
0.0
  3
*X
  0
LINE
  8
0
 62
     0
 10
-164.140705
 20
-134.44222
 30
0.0
 11
-159.140705
 21
-129.44222
 31
0.0
  0
LINE
  8
0
 62
     0
 10
-164.140705
 20
-132.3209
 30
0.0
 11
-159.140705
 21
-127.3209
 31
0.0
  0
LINE
  8
0
 62
     0
 10
-164.390705
 20
-130.44958
 30
0.0
 11
-159.140705
 21
-125.19958
 31
0.0
  0
LINE
  8
0
 62
     0
 10
-164.390705
 20
-128.328259
 30
0.0
 11
-159.140705
 21
-123.078259
 31
0.0
  0
LINE
  8
0
 62
     0
 10
-164.390705
 20
-126.206939
 30
0.0
 11
-159.140705
 21
-120.956939
 31
0.0
  0
LINE
  8
0
 62
     0
 10
-164.390705
 20
-124.085619
 30
0.0
 11
-159.140705
 21
-118.835619
 31
0.0
  0
LINE
  8
0
 62
     0
 10
-164.390705
 20
-121.964298
 30
0.0
 11
-159.140705
 21
-116.714298
 31
0.0
  0
LINE
  8
0
 62
     0
 10
-164.390705
 20
-119.842978
 30
0.0
 11
-159.140705
 21
-114.592978
 31
0.0
  0
LINE
  8
0
 62
     0
 10
-164.390705
 20
-117.721658
 30
0.0
 11
-161.125415
 21
-114.456368
 31
0.0
  0
LINE
  8
0
 62
     0
 10
-164.140705
 20
-136.563541
 30
0.0
 11
-159.140705
 21
-131.563541
 31
0.0
  0
LINE
  8
0
 62
     0
 10
-164.140705
 20
-138.684861
 30
0.0
 11
-159.012212
 21
-133.556368
 31
0.0
  0
LINE
  8
0
 62
     0
 10
-164.140705
 20
-140.806181
 30
0.0
 11
-157.940705
 21
-134.606181
 31
0.0
  0
LINE
  8
0
 62
     0
 10
-164.821232
 20
-143.608028
 30
0.0
 11
-157.940705
 21
-136.727502
 31
0.0
  0
LINE
  8
0
 62
     0
 10
-167.885361
 20
-148.793478
 30
0.0
 11
-157.940705
 21
-138.848822
 31
0.0
  0
LINE
  8
0
 62
     0
 10
-169.226931
 20
-152.256368
 30
0.0
 11
-159.140705
 21
-142.170142
 31
0.0
  0
LINE
  8
0
 62
     0
 10
-167.10561
 20
-152.256368
 30
0.0
 11
-159.140705
 21
-144.291463
 31
0.0
  0
LINE
  8
0
 62
     0
 10
-164.98429
 20
-152.256368
 30
0.0
 11
-159.140705
 21
-146.412783
 31
0.0
  0
LINE
  8
0
 62
     0
 10
-162.86297
 20
-152.256368
 30
0.0
 11
-159.140705
 21
-148.534103
 31
0.0
  0
LINE
  8
0
 62
     0
 10
-160.741649
 20
-152.256368
 30
0.0
 11
-159.140705
 21
-150.655424
 31
0.0
  0
ENDBLK
  8
0
  0
BLOCK
  8
0
  2
*X9
 70
    65
 10
0.0
 20
0.0
 30
0.0
  3
*X
  0
LINE
  8
0
 62
     0
 10
-148.602611
 20
-133.532995
 30
0.0
 11
-151.832611
 21
-130.302995
 31
0.0
  0
LINE
  8
0
 62
     0
 10
-148.602611
 20
-135.654315
 30
0.0
 11
-151.719201
 21
-132.537725
 31
0.0
  0
LINE
  8
0
 62
     0
 10
-150.607907
 20
-135.77034
 30
0.0
 11
-153.807907
 21
-132.57034
 31
0.0
  0
LINE
  8
0
 62
     0
 10
-152.582611
 20
-135.916956
 30
0.0
 11
-155.929227
 21
-132.57034
 31
0.0
  0
LINE
  8
0
 62
     0
 10
-152.582611
 20
-138.038276
 30
0.0
 11
-158.050547
 21
-132.57034
 31
0.0
  0
LINE
  8
0
 62
     0
 10
-154.171868
 20
-138.57034
 30
0.0
 11
-160.171868
 21
-132.57034
 31
0.0
  0
LINE
  8
0
 62
     0
 10
-156.293188
 20
-138.57034
 30
0.0
 11
-162.082611
 21
-132.780917
 31
0.0
  0
LINE
  8
0
 62
     0
 10
-158.414508
 20
-138.57034
 30
0.0
 11
-162.082611
 21
-134.902237
 31
0.0
  0
LINE
  8
0
 62
     0
 10
-160.535829
 20
-138.57034
 30
0.0
 11
-162.082611
 21
-137.023558
 31
0.0
  0
LINE
  8
0
 62
     0
 10
-148.602611
 20
-131.411675
 30
0.0
 11
-151.832611
 21
-128.181675
 31
0.0
  0
LINE
  8
0
 62
     0
 10
-148.602611
 20
-129.290354
 30
0.0
 11
-151.830181
 21
-126.062784
 31
0.0
  0
LINE
  8
0
 62
     0
 10
-148.602611
 20
-127.169034
 30
0.0
 11
-151.314056
 21
-124.457588
 31
0.0
  0
LINE
  8
0
 62
     0
 10
-148.602611
 20
-125.047714
 30
0.0
 11
-150.797932
 21
-122.852393
 31
0.0
  0
LINE
  8
0
 62
     0
 10
-148.602611
 20
-122.926393
 30
0.0
 11
-150.582611
 21
-120.946393
 31
0.0
  0
LINE
  8
0
 62
     0
 10
-148.602611
 20
-120.805073
 30
0.0
 11
-150.582611
 21
-118.825073
 31
0.0
  0
LINE
  8
0
 62
     0
 10
-148.602611
 20
-118.683753
 30
0.0
 11
-149.716023
 21
-117.57034
 31
0.0
  0
ENDBLK
  8
0
  0
ENDSEC
  0
SECTION
  2
ENTITIES
  0
LINE
  8
0
 10
322.830049
 20
-139.314179
 30
0.0
 11
322.462169
 21
-140.425159
 31
0.0
  0
LINE
  8
0
 10
296.830049
 20
-139.314179
 30
0.0
 11
297.197929
 21
-140.425159
 31
0.0
  0
ARC
  8
0
 10
309.830049
 20
-147.149346
 30
0.0
 40
9.50571
 50
45.022465
 51
134.977535
  0
ARC
  8
0
 10
309.830049
 20
-146.943756
 30
0.0
 40
10.60687
 50
37.920221
 51
142.079779
  0
ARC
  8
0
 10
309.830049
 20
-139.764956
 30
0.0
 40
13.007813
 50
1.985946
 51
178.014054
  0
ARC
  8
0
 10
309.830049
 20
-127.658962
 30
0.0
 40
13.003705
 50
1.367664
 51
178.632336
  0
LINE
  8
0
 10
322.830049
 20
-139.314179
 30
0.0
 11
322.830049
 21
-127.34859
 31
0.0
  0
LINE
  8
0
 10
296.830049
 20
-139.314179
 30
0.0
 11
296.830049
 21
-127.34859
 31
0.0
  0
LINE
  8
0
 10
325.530049
 20
-141.025159
 30
0.0
 11
324.930049
 21
-140.425159
 31
0.0
  0
LINE
  8
0
 10
294.130049
 20
-141.025159
 30
0.0
 11
294.730049
 21
-140.425159
 31
0.0
  0
LINE
  8
0
 10
294.730049
 20
-140.425159
 30
0.0
 11
324.930049
 21
-140.425159
 31
0.0
  0
LINE
  8
0
 10
335.830049
 20
-178.825159
 30
0.0
 11
335.830049
 21
-177.825159
 31
0.0
  0
LINE
  8
0
 10
335.830049
 20
-178.825159
 30
0.0
 11
283.830049
 21
-178.825159
 31
0.0
  0
LINE
  8
0
 10
335.830049
 20
-177.825159
 30
0.0
 11
283.830049
 21
-177.825159
 31
0.0
  0
LINE
  8
0
 10
283.830049
 20
-178.825159
 30
0.0
 11
283.830049
 21
-156.825159
 31
0.0
  0
LINE
  8
0
 10
283.830049
 20
-178.875159
 30
0.0
 11
335.830049
 21
-178.875159
 31
0.0
  0
LINE
  8
0
 10
283.830049
 20
-184.875159
 30
0.0
 11
335.830049
 21
-184.875159
 31
0.0
  0
LINE
  8
0
 10
335.830049
 20
-178.875159
 30
0.0
 11
335.830049
 21
-184.875159
 31
0.0
  0
LINE
  8
0
 10
283.830049
 20
-178.875159
 30
0.0
 11
283.830049
 21
-184.875159
 31
0.0
  0
LINE
  8
0
 10
283.830049
 20
-156.825159
 30
0.0
 11
287.804827
 21
-141.991085
 31
0.0
  0
LINE
  8
0
 10
287.804827
 20
-141.991085
 30
0.0
 11
289.063646
 21
-141.025159
 31
0.0
  0
LINE
  8
0
 10
331.855271
 20
-141.991085
 30
0.0
 11
330.596452
 21
-141.025159
 31
0.0
  0
LINE
  8
0
 10
335.830049
 20
-156.825159
 30
0.0
 11
331.855271
 21
-141.991085
 31
0.0
  0
LINE
  8
0
 10
335.830049
 20
-156.825159
 30
0.0
 11
283.830049
 21
-156.825159
 31
0.0
  0
LINE
  8
0
 10
335.830049
 20
-178.825159
 30
0.0
 11
335.830049
 21
-156.825159
 31
0.0
  0
LINE
  8
0
 10
330.596452
 20
-141.025159
 30
0.0
 11
289.063646
 21
-141.025159
 31
0.0
  0
LINE
  8
0
 10
331.855271
 20
-141.991085
 30
0.0
 11
287.804827
 21
-141.991085
 31
0.0
  0
ARC
  8
0
 10
432.981362
 20
-73.859322
 30
0.0
 40
38.869004
 50
169.624877
 51
190.375123
  0
ARC
  8
0
 10
511.400561
 20
-226.75045
 30
0.0
 40
26.796395
 50
150.99597
 51
209.00403
  0
ARC
  8
0
 10
484.726535
 20
-73.859322
 30
0.0
 40
23.704504
 50
150.978363
 51
209.021637
  0
ARC
  8
0
 10
434.153046
 20
-226.75045
 30
0.0
 40
32.252786
 50
167.465026
 51
192.534974
  0
ARC
  8
0
 10
487.795251
 20
-237.75045
 30
0.0
 40
2.0
 50
270.0
 51
333.665375
  0
ARC
  8
0
 10
487.795251
 20
-215.75045
 30
0.0
 40
2.0
 50
26.334625
 51
90.0
  0
LINE
  8
0
 10
402.669047
 20
-233.75045
 30
0.0
 11
412.206368
 21
-233.75045
 31
0.0
  0
LINE
  8
0
 10
402.669047
 20
-219.75045
 30
0.0
 11
412.206368
 21
-219.75045
 31
0.0
  0
ARC
  8
0
 10
465.572262
 20
-226.75045
 30
0.0
 40
26.796395
 50
333.665375
 51
26.334625
  0
ARC
  8
0
 10
509.471034
 20
-226.75045
 30
0.0
 40
26.796395
 50
150.978363
 51
209.021637
  0
LINE
  8
0
 10
482.674639
 20
-114.791554
 30
0.0
 11
489.403934
 21
-139.905626
 31
0.0
  0
LINE
  8
0
 10
414.333608
 20
-237.336338
 30
0.0
 11
441.3831
 21
-239.75045
 31
0.0
  0
LINE
  8
0
 10
414.333608
 20
-216.164561
 30
0.0
 11
441.3831
 21
-213.75045
 31
0.0
  0
ARC
  8
0
 10
464.814848
 20
-226.75045
 30
0.0
 40
26.796395
 50
150.978363
 51
209.021637
  0
LINE
  8
0
 10
413.371251
 20
-217.25045
 30
0.0
 11
414.333608
 21
-216.164561
 31
0.0
  0
LINE
  8
0
 10
413.371251
 20
-236.25045
 30
0.0
 11
414.333608
 21
-237.336338
 31
0.0
  0
ARC
  8
0
 10
433.414059
 20
-226.75045
 30
0.0
 40
21.820281
 50
150.978363
 51
209.021637
  0
ARC
  8
0
 10
430.494452
 20
-226.75045
 30
0.0
 40
19.581981
 50
150.978363
 51
209.021637
  0
LINE
  8
0
 10
441.3831
 20
-239.75045
 30
0.0
 11
487.795251
 21
-239.75045
 31
0.0
  0
LINE
  8
0
 10
441.3831
 20
-213.75045
 30
0.0
 11
487.795251
 21
-213.75045
 31
0.0
  0
CIRCLE
  8
0
 10
379.699382
 20
-226.75045
 30
0.0
 40
22.025222
  0
CIRCLE
  8
0
 10
379.699382
 20
-226.75045
 30
0.0
 40
20.766403
  0
LINE
  8
0
 10
411.593778
 20
-136.336886
 30
0.0
 11
417.073437
 21
-156.787252
 31
0.0
  0
LINE
  8
0
 10
415.830032
 20
-155.996227
 30
0.0
 11
417.073437
 21
-156.787252
 31
0.0
  0
LINE
  8
0
 10
410.91247
 20
-137.643636
 30
0.0
 11
411.593778
 21
-136.336886
 31
0.0
  0
ARC
  8
0
 10
488.368658
 20
-136.041923
 30
0.0
 40
4.0
 50
285.0
 51
5.23865
  0
ARC
  8
0
 10
483.709915
 20
-118.655258
 30
0.0
 40
4.0
 50
24.76135
 51
105.0
  0
LINE
  8
0
 10
417.073437
 20
-156.787252
 30
0.0
 11
444.747748
 21
-151.871215
 31
0.0
  0
LINE
  8
0
 10
411.593778
 20
-136.336886
 30
0.0
 11
438.018453
 21
-126.757143
 31
0.0
  0
LINE
  8
0
 10
444.747748
 20
-151.871215
 30
0.0
 11
438.018453
 21
-126.757143
 31
0.0
  0
ARC
  8
0
 10
435.507052
 20
-140.888662
 30
0.0
 40
57.083333
 50
5.23865
 51
24.76135
  0
LINE
  8
0
 10
415.830032
 20
-155.996227
 30
0.0
 11
410.91247
 21
-137.643636
 31
0.0
  0
LINE
  8
0
 10
444.747748
 20
-151.871215
 30
0.0
 11
489.403934
 21
-139.905626
 31
0.0
  0
LINE
  8
0
 10
438.018453
 20
-126.757143
 30
0.0
 11
482.674639
 21
-114.791554
 31
0.0
  0
LINE
  8
0
 10
401.90026
 20
-142.646641
 30
0.0
 11
401.724604
 21
-141.991085
 31
0.0
  0
ARC
  8
0
 10
425.10805
 20
-143.675066
 30
0.0
 40
23.230565
 50
177.462668
 51
212.537332
  0
LINE
  8
0
 10
405.523726
 20
-156.169603
 30
0.0
 11
415.182985
 21
-153.581412
 31
0.0
  0
LINE
  8
0
 10
401.90026
 20
-142.646641
 30
0.0
 11
411.559518
 21
-140.058451
 31
0.0
  0
LINE
  8
0
 10
401.724604
 20
-141.991085
 30
0.0
 11
379.699382
 21
-141.991085
 31
0.0
  0
LINE
  8
0
 10
400.465785
 20
-141.025159
 30
0.0
 11
379.699382
 21
-141.025159
 31
0.0
  0
LINE
  8
0
 10
405.699382
 20
-178.825159
 30
0.0
 11
405.699382
 21
-156.825159
 31
0.0
  0
LINE
  8
0
 10
405.699382
 20
-156.825159
 30
0.0
 11
379.699382
 21
-156.825159
 31
0.0
  0
LINE
  8
0
 10
405.699382
 20
-156.825159
 30
0.0
 11
405.523726
 21
-156.169603
 31
0.0
  0
LINE
  8
0
 10
401.724604
 20
-141.991085
 30
0.0
 11
400.465785
 21
-141.025159
 31
0.0
  0
LINE
  8
0
 10
357.67416
 20
-141.991085
 30
0.0
 11
358.932979
 21
-141.025159
 31
0.0
  0
LINE
  8
0
 10
353.699382
 20
-156.825159
 30
0.0
 11
357.67416
 21
-141.991085
 31
0.0
  0
LINE
  8
0
 10
353.699382
 20
-178.875159
 30
0.0
 11
353.699382
 21
-184.875159
 31
0.0
  0
LINE
  8
0
 10
405.699382
 20
-178.875159
 30
0.0
 11
405.699382
 21
-184.875159
 31
0.0
  0
LINE
  8
0
 10
353.699382
 20
-184.875159
 30
0.0
 11
405.699382
 21
-184.875159
 31
0.0
  0
LINE
  8
0
 10
353.699382
 20
-178.875159
 30
0.0
 11
363.949382
 21
-178.875159
 31
0.0
  0
LINE
  8
0
 10
363.949382
 20
-170.375159
 30
0.0
 11
363.949382
 21
-177.375159
 31
0.0
  0
LINE
  8
0
 10
363.199382
 20
-182.075159
 30
0.0
 11
363.199382
 21
-184.875159
 31
0.0
  0
LINE
  8
0
 10
363.199382
 20
-182.075159
 30
0.0
 11
367.809382
 21
-182.075159
 31
0.0
  0
LINE
  8
0
 10
367.179382
 20
-163.875159
 30
0.0
 11
367.179382
 21
-182.075159
 31
0.0
  0
LINE
  8
0
 10
379.699382
 20
-178.875159
 30
0.0
 11
405.699382
 21
-178.875159
 31
0.0
  0
LINE
  8
0
 10
365.099382
 20
-163.875159
 30
0.0
 11
367.309382
 21
-163.875159
 31
0.0
  0
LINE
  8
0
 10
364.349382
 20
-167.225159
 30
0.0
 11
364.349382
 21
-169.131122
 31
0.0
  0
LINE
  8
0
 10
363.949382
 20
-170.375159
 30
0.0
 11
364.349382
 21
-169.131122
 31
0.0
  0
LINE
  8
0
 10
363.949382
 20
-172.375159
 30
0.0
 11
365.199382
 21
-168.487544
 31
0.0
  0
LINE
  8
0
 10
365.199382
 20
-163.875159
 30
0.0
 11
365.199382
 21
-168.487544
 31
0.0
  0
ARC
  8
0
 10
363.795089
 20
-178.125159
 30
0.0
 40
0.765706
 50
281.624951
 51
78.375049
  0
LINE
  8
0
 10
353.699382
 20
-178.825159
 30
0.0
 11
353.699382
 21
-156.825159
 31
0.0
  0
LINE
  8
0
 10
353.699382
 20
-178.825159
 30
0.0
 11
364.105422
 21
-178.825159
 31
0.0
  0
LINE
  8
0
 10
358.932979
 20
-141.025159
 30
0.0
 11
363.999382
 21
-141.025159
 31
0.0
  0
LINE
  8
0
 10
363.899382
 20
-167.225159
 30
0.0
 11
365.099382
 21
-167.225159
 31
0.0
  0
LINE
  8
0
 10
363.899382
 20
-160.125159
 30
0.0
 11
366.499382
 21
-160.125159
 31
0.0
  0
LINE
  8
0
 10
365.099382
 20
-160.125159
 30
0.0
 11
365.099382
 21
-167.225159
 31
0.0
  0
LINE
  8
0
 10
363.899382
 20
-167.225159
 30
0.0
 11
363.899382
 21
-178.325159
 31
0.0
  0
LINE
  8
0
 10
363.399382
 20
-178.825159
 30
0.0
 11
363.899382
 21
-178.325159
 31
0.0
  0
LINE
  8
0
 10
363.899382
 20
-160.125159
 30
0.0
 11
363.899382
 21
-141.025159
 31
0.0
  0
LINE
  8
0
 10
405.699382
 20
-177.825159
 30
0.0
 11
379.699382
 21
-177.825159
 31
0.0
  0
LINE
  8
0
 10
405.699382
 20
-178.825159
 30
0.0
 11
379.699382
 21
-178.825159
 31
0.0
  0
LINE
  8
0
 10
405.699382
 20
-178.825159
 30
0.0
 11
405.699382
 21
-177.825159
 31
0.0
  0
LINE
  8
0
 10
367.209382
 20
-165.825159
 30
0.0
 11
367.209382
 21
-181.925159
 31
0.0
  0
LINE
  8
0
 10
365.199382
 20
-163.825159
 30
0.0
 11
365.199382
 21
-160.225159
 31
0.0
  0
LINE
  8
0
 10
365.099382
 20
-163.825159
 30
0.0
 11
367.309382
 21
-163.825159
 31
0.0
  0
LINE
  8
0
 10
367.309382
 20
-163.825159
 30
0.0
 11
367.309382
 21
-165.825159
 31
0.0
  0
LINE
  8
0
 10
367.209382
 20
-165.825159
 30
0.0
 11
367.309382
 21
-165.825159
 31
0.0
  0
LINE
  8
0
 10
365.099382
 20
-160.225159
 30
0.0
 11
366.499382
 21
-160.225159
 31
0.0
  0
LINE
  8
0
 10
366.499382
 20
-146.425159
 30
0.0
 11
366.499382
 21
-160.225159
 31
0.0
  0
LINE
  8
0
 10
367.209382
 20
-184.725159
 30
0.0
 11
379.699382
 21
-184.725159
 31
0.0
  0
LINE
  8
0
 10
363.999382
 20
-146.425159
 30
0.0
 11
369.199382
 21
-146.425159
 31
0.0
  0
LINE
  8
0
 10
372.699382
 20
-155.225159
 30
0.0
 11
372.699382
 21
-184.725159
 31
0.0
  0
LINE
  8
0
 10
370.399382
 20
-155.225159
 30
0.0
 11
370.399382
 21
-184.725159
 31
0.0
  0
LINE
  8
0
  6
CENTER
 10
379.699382
 20
-188.492842
 30
0.0
 11
379.699382
 21
-138.061418
 31
0.0
  0
LINE
  8
0
 10
368.699382
 20
-155.225159
 30
0.0
 11
379.699382
 21
-155.225159
 31
0.0
  0
LINE
  8
0
 10
368.699382
 20
-152.425159
 30
0.0
 11
379.699382
 21
-152.425159
 31
0.0
  0
LINE
  8
0
 10
368.699382
 20
-146.425159
 30
0.0
 11
368.699382
 21
-155.225159
 31
0.0
  0
LINE
  8
0
 10
369.199382
 20
-146.425159
 30
0.0
 11
369.199382
 21
-152.425159
 31
0.0
  0
LINE
  8
0
 10
363.999382
 20
-146.425159
 30
0.0
 11
363.999382
 21
-141.025159
 31
0.0
  0
LINE
  8
0
 10
364.599382
 20
-140.425159
 30
0.0
 11
394.799382
 21
-140.425159
 31
0.0
  0
LINE
  8
0
 10
363.999382
 20
-141.025159
 30
0.0
 11
364.599382
 21
-140.425159
 31
0.0
  0
LINE
  8
0
 10
395.399382
 20
-141.025159
 30
0.0
 11
394.799382
 21
-140.425159
 31
0.0
  0
LINE
  8
0
 10
376.699382
 20
-140.425159
 30
0.0
 11
376.699382
 21
-145.78801
 31
0.0
  0
LINE
  8
0
 10
379.699382
 20
-146.425159
 30
0.0
 11
376.699382
 21
-145.78801
 31
0.0
  0
LINE
  8
0
 10
367.209382
 20
-183.325159
 30
0.0
 11
367.809382
 21
-183.325159
 31
0.0
  0
LINE
  8
0
 10
367.209382
 20
-181.925159
 30
0.0
 11
367.809382
 21
-181.925159
 31
0.0
  0
LINE
  8
0
 10
367.809382
 20
-181.925159
 30
0.0
 11
367.809382
 21
-183.325159
 31
0.0
  0
LINE
  8
0
 10
367.209382
 20
-183.325159
 30
0.0
 11
367.209382
 21
-184.725159
 31
0.0
  0
LINE
  8
0
 10
367.809382
 20
-183.235731
 30
0.0
 11
364.209382
 21
-183.235731
 31
0.0
  0
LINE
  8
0
 10
367.809382
 20
-182.135731
 30
0.0
 11
364.209382
 21
-182.135731
 31
0.0
  0
LINE
  8
0
 10
364.209382
 20
-182.135731
 30
0.0
 11
364.209382
 21
-183.235731
 31
0.0
  0
LINE
  8
0
 10
363.899382
 20
-178.325159
 30
0.0
 11
364.534214
 21
-178.325159
 31
0.0
  0
INSERT
  8
0
  2
*X6
 10
523.131962
 20
-26.844415
 30
0.0
  0
INSERT
  8
0
  2
*X7
 10
526.806946
 20
-27.395663
 30
0.0
  0
CIRCLE
  8
0
 10
365.599382
 20
-159.225159
 30
0.0
 40
0.9
  0
CIRCLE
  8
0
 10
365.599382
 20
-157.425159
 30
0.0
 40
0.9
  0
CIRCLE
  8
0
 10
365.599382
 20
-147.325159
 30
0.0
 40
0.9
  0
CIRCLE
  8
0
 10
365.599382
 20
-150.691826
 30
0.0
 40
0.9
  0
CIRCLE
  8
0
 10
365.599382
 20
-154.058492
 30
0.0
 40
0.9
  0
INSERT
  8
0
  2
*X9
 10
515.781993
 20
-46.304819
 30
0.0
  0
ARC
  8
0
 10
379.699382
 20
-226.75045
 30
0.0
 40
26.0
 50
15.618498
 51
344.381502
  0
CIRCLE
  8
0
 10
379.699382
 20
-226.75045
 30
0.0
 40
15.8
  0
CIRCLE
  8
0
 10
379.699382
 20
-226.75045
 30
0.0
 40
15.7
  0
CIRCLE
  8
0
 10
379.699382
 20
-226.75045
 30
0.0
 40
15.1
  0
POLYLINE
  8
0
 66
     1
 10
0.0
 20
0.0
 30
0.0
 70
     1
  0
VERTEX
  8
0
 10
376.699382
 20
-228.4825
 30
0.0
  0
VERTEX
  8
0
 10
379.699382
 20
-230.214551
 30
0.0
  0
VERTEX
  8
0
 10
382.699382
 20
-228.4825
 30
0.0
  0
VERTEX
  8
0
 10
382.699382
 20
-225.018399
 30
0.0
  0
VERTEX
  8
0
 10
379.699382
 20
-223.286348
 30
0.0
  0
VERTEX
  8
0
 10
376.699382
 20
-225.018399
 30
0.0
  0
SEQEND
  8
0
  0
POLYLINE
  8
0
 66
     1
 10
0.0
 20
0.0
 30
0.0
 70
     1
  0
VERTEX
  8
0
 10
210.239141
 20
-207.604121
 30
0.0
  0
VERTEX
  8
0
 10
213.239141
 20
-209.336172
 30
0.0
  0
VERTEX
  8
0
 10
216.239141
 20
-207.604121
 30
0.0
  0
VERTEX
  8
0
 10
216.239141
 20
-204.140019
 30
0.0
  0
VERTEX
  8
0
 10
213.239141
 20
-202.407968
 30
0.0
  0
VERTEX
  8
0
 10
210.239141
 20
-204.140019
 30
0.0
  0
SEQEND
  8
0
  0
CIRCLE
  8
0
 10
213.239141
 20
-205.87207
 30
0.0
 40
15.1
  0
CIRCLE
  8
0
 10
213.239141
 20
-205.87207
 30
0.0
 40
15.7
  0
CIRCLE
  8
0
 10
213.239141
 20
-205.87207
 30
0.0
 40
15.8
  0
CIRCLE
  8
0
 10
213.239141
 20
-205.87207
 30
0.0
 40
21.05
  0
CIRCLE
  8
0
 10
213.239141
 20
-205.87207
 30
0.0
 40
20.8
  0
CIRCLE
  8
0
 10
213.239141
 20
-205.87207
 30
0.0
 40
26.0
  0
INSERT
  8
0
  2
*X9
 10
349.321752
 20
-24.583818
 30
0.0
  0
CIRCLE
  8
0
 10
199.139141
 20
-132.337491
 30
0.0
 40
0.9
  0
CIRCLE
  8
0
 10
199.139141
 20
-128.970824
 30
0.0
 40
0.9
  0
CIRCLE
  8
0
 10
199.139141
 20
-125.604158
 30
0.0
 40
0.9
  0
CIRCLE
  8
0
 10
199.139141
 20
-135.704158
 30
0.0
 40
0.9
  0
CIRCLE
  8
0
 10
199.139141
 20
-137.504158
 30
0.0
 40
0.9
  0
INSERT
  8
0
  2
*X8
 10
356.579846
 20
-4.84779
 30
0.0
  0
INSERT
  8
0
  2
*X7
 10
360.346706
 20
-5.674661
 30
0.0
  0
INSERT
  8
0
  2
*X6
 10
356.671721
 20
-5.123414
 30
0.0
  0
LINE
  8
0
 10
197.439141
 20
-156.604158
 30
0.0
 11
198.073973
 21
-156.604158
 31
0.0
  0
LINE
  8
0
 10
197.749141
 20
-160.41473
 30
0.0
 11
197.749141
 21
-161.51473
 31
0.0
  0
LINE
  8
0
 10
201.349141
 20
-160.41473
 30
0.0
 11
197.749141
 21
-160.41473
 31
0.0
  0
LINE
  8
0
 10
201.349141
 20
-161.51473
 30
0.0
 11
197.749141
 21
-161.51473
 31
0.0
  0
LINE
  8
0
 10
200.749141
 20
-161.604158
 30
0.0
 11
200.749141
 21
-163.004158
 31
0.0
  0
LINE
  8
0
 10
201.349141
 20
-160.204158
 30
0.0
 11
201.349141
 21
-161.604158
 31
0.0
  0
LINE
  8
0
 10
200.749141
 20
-160.204158
 30
0.0
 11
201.349141
 21
-160.204158
 31
0.0
  0
LINE
  8
0
 10
200.749141
 20
-161.604158
 30
0.0
 11
201.349141
 21
-161.604158
 31
0.0
  0
LINE
  8
0
 10
213.239141
 20
-124.704158
 30
0.0
 11
210.239141
 21
-124.067009
 31
0.0
  0
LINE
  8
0
 10
210.239141
 20
-118.704158
 30
0.0
 11
210.239141
 21
-124.067009
 31
0.0
  0
LINE
  8
0
 10
228.939141
 20
-119.304158
 30
0.0
 11
228.339141
 21
-118.704158
 31
0.0
  0
LINE
  8
0
 10
197.539141
 20
-119.304158
 30
0.0
 11
198.139141
 21
-118.704158
 31
0.0
  0
LINE
  8
0
 10
213.239141
 20
-119.304158
 30
0.0
 11
232.989141
 21
-119.304158
 31
0.0
  0
LINE
  8
0
 10
198.139141
 20
-118.704158
 30
0.0
 11
228.339141
 21
-118.704158
 31
0.0
  0
LINE
  8
0
 10
197.539141
 20
-124.704158
 30
0.0
 11
197.539141
 21
-119.304158
 31
0.0
  0
LINE
  8
0
 10
202.739141
 20
-124.704158
 30
0.0
 11
202.739141
 21
-130.704158
 31
0.0
  0
LINE
  8
0
 10
202.239141
 20
-124.704158
 30
0.0
 11
202.239141
 21
-133.504158
 31
0.0
  0
LINE
  8
0
 10
202.239141
 20
-130.704158
 30
0.0
 11
213.239141
 21
-130.704158
 31
0.0
  0
LINE
  8
0
 10
202.239141
 20
-133.504158
 30
0.0
 11
213.239141
 21
-133.504158
 31
0.0
  0
LINE
  8
0
  6
CENTER
 10
213.239141
 20
-166.771841
 30
0.0
 11
213.239141
 21
-116.340417
 31
0.0
  0
INSERT
  8
0
  2
*X5
 10
341.788034
 20
-25.546508
 30
0.0
  0
LINE
  8
0
 10
203.939141
 20
-133.504158
 30
0.0
 11
203.939141
 21
-163.004158
 31
0.0
  0
LINE
  8
0
 10
206.239141
 20
-133.504158
 30
0.0
 11
206.239141
 21
-163.004158
 31
0.0
  0
LINE
  8
0
 10
197.539141
 20
-124.704158
 30
0.0
 11
202.739141
 21
-124.704158
 31
0.0
  0
LINE
  8
0
 10
200.749141
 20
-163.004158
 30
0.0
 11
213.239141
 21
-163.004158
 31
0.0
  0
LINE
  8
0
 10
200.039141
 20
-124.704158
 30
0.0
 11
200.039141
 21
-138.504158
 31
0.0
  0
LINE
  8
0
 10
198.639141
 20
-138.504158
 30
0.0
 11
200.039141
 21
-138.504158
 31
0.0
  0
LINE
  8
0
 10
200.749141
 20
-144.104158
 30
0.0
 11
200.849141
 21
-144.104158
 31
0.0
  0
LINE
  8
0
 10
200.849141
 20
-142.104158
 30
0.0
 11
200.849141
 21
-144.104158
 31
0.0
  0
LINE
  8
0
 10
198.639141
 20
-142.104158
 30
0.0
 11
200.849141
 21
-142.104158
 31
0.0
  0
LINE
  8
0
 10
198.739141
 20
-142.104158
 30
0.0
 11
198.739141
 21
-138.504158
 31
0.0
  0
LINE
  8
0
 10
200.749141
 20
-144.104158
 30
0.0
 11
200.749141
 21
-160.204158
 31
0.0
  0
LINE
  8
0
 10
239.239141
 20
-157.104158
 30
0.0
 11
239.239141
 21
-156.104158
 31
0.0
  0
LINE
  8
0
 10
239.239141
 20
-157.104158
 30
0.0
 11
213.239141
 21
-157.104158
 31
0.0
  0
LINE
  8
0
 10
239.239141
 20
-156.104158
 30
0.0
 11
213.239141
 21
-156.104158
 31
0.0
  0
LINE
  8
0
 10
234.039141
 20
-147.304158
 30
0.0
 11
239.239141
 21
-156.104158
 31
0.0
  0
LINE
  8
0
 10
213.239141
 20
-136.604158
 30
0.0
 11
234.289141
 21
-136.604158
 31
0.0
  0
LINE
  8
0
 10
234.039141
 20
-147.304158
 30
0.0
 11
213.239141
 21
-147.304158
 31
0.0
  0
LINE
  8
0
 10
234.039141
 20
-147.304158
 30
0.0
 11
234.039141
 21
-136.604158
 31
0.0
  0
LINE
  8
0
 10
234.289141
 20
-136.604158
 30
0.0
 11
234.289141
 21
-120.604158
 31
0.0
  0
LINE
  8
0
 10
234.289141
 20
-120.604158
 30
0.0
 11
232.989141
 21
-119.304158
 31
0.0
  0
LINE
  8
0
 10
192.189141
 20
-120.604158
 30
0.0
 11
193.489141
 21
-119.304158
 31
0.0
  0
LINE
  8
0
 10
192.189141
 20
-136.604158
 30
0.0
 11
192.439141
 21
-136.604158
 31
0.0
  0
LINE
  8
0
 10
192.189141
 20
-136.604158
 30
0.0
 11
192.189141
 21
-120.604158
 31
0.0
  0
LINE
  8
0
 10
197.439141
 20
-138.404158
 30
0.0
 11
197.439141
 21
-119.304158
 31
0.0
  0
LINE
  8
0
 10
196.939141
 20
-157.104158
 30
0.0
 11
197.439141
 21
-156.604158
 31
0.0
  0
LINE
  8
0
 10
197.439141
 20
-145.504158
 30
0.0
 11
197.439141
 21
-156.604158
 31
0.0
  0
LINE
  8
0
 10
198.639141
 20
-138.404158
 30
0.0
 11
198.639141
 21
-145.504158
 31
0.0
  0
LINE
  8
0
 10
197.439141
 20
-138.404158
 30
0.0
 11
200.039141
 21
-138.404158
 31
0.0
  0
LINE
  8
0
 10
197.439141
 20
-145.504158
 30
0.0
 11
198.639141
 21
-145.504158
 31
0.0
  0
LINE
  8
0
 10
192.439141
 20
-147.304158
 30
0.0
 11
187.239141
 21
-156.104158
 31
0.0
  0
LINE
  8
0
 10
192.439141
 20
-147.304158
 30
0.0
 11
192.439141
 21
-136.604158
 31
0.0
  0
LINE
  8
0
 10
193.489141
 20
-119.304158
 30
0.0
 11
197.539141
 21
-119.304158
 31
0.0
  0
LINE
  8
0
 10
187.239141
 20
-157.104158
 30
0.0
 11
197.645181
 21
-157.104158
 31
0.0
  0
LINE
  8
0
 10
187.239141
 20
-157.104158
 30
0.0
 11
187.239141
 21
-156.104158
 31
0.0
  0
ARC
  8
0
 10
197.334848
 20
-156.404158
 30
0.0
 40
0.765706
 50
281.624951
 51
78.375049
  0
LINE
  8
0
 10
198.739141
 20
-142.154158
 30
0.0
 11
198.739141
 21
-146.766542
 31
0.0
  0
LINE
  8
0
 10
197.489141
 20
-150.654158
 30
0.0
 11
198.739141
 21
-146.766542
 31
0.0
  0
LINE
  8
0
 10
197.489141
 20
-148.654158
 30
0.0
 11
197.889141
 21
-147.410121
 31
0.0
  0
LINE
  8
0
 10
197.889141
 20
-145.504158
 30
0.0
 11
197.889141
 21
-147.410121
 31
0.0
  0
LINE
  8
0
 10
198.639141
 20
-142.154158
 30
0.0
 11
200.849141
 21
-142.154158
 31
0.0
  0
LINE
  8
0
 10
213.239141
 20
-157.154158
 30
0.0
 11
239.239141
 21
-157.154158
 31
0.0
  0
LINE
  8
0
 10
200.719141
 20
-142.154158
 30
0.0
 11
200.719141
 21
-160.354158
 31
0.0
  0
LINE
  8
0
 10
196.739141
 20
-160.354158
 30
0.0
 11
201.349141
 21
-160.354158
 31
0.0
  0
LINE
  8
0
 10
196.739141
 20
-160.354158
 30
0.0
 11
196.739141
 21
-163.154158
 31
0.0
  0
LINE
  8
0
 10
197.489141
 20
-148.654158
 30
0.0
 11
197.489141
 21
-155.654158
 31
0.0
  0
LINE
  8
0
 10
187.239141
 20
-157.154158
 30
0.0
 11
197.489141
 21
-157.154158
 31
0.0
  0
LINE
  8
0
 10
187.239141
 20
-163.154158
 30
0.0
 11
239.239141
 21
-163.154158
 31
0.0
  0
LINE
  8
0
 10
239.239141
 20
-157.154158
 30
0.0
 11
239.239141
 21
-163.154158
 31
0.0
  0
LINE
  8
0
 10
187.239141
 20
-157.154158
 30
0.0
 11
187.239141
 21
-163.154158
 31
0.0
  0
LINE
  8
0
 10
370.81998
 20
-37.08523
 30
0.0
 11
370.81998
 21
-7.88523
 31
0.0
  0
INSERT
  8
0
  2
*X4
 10
590.627634
 20
0.844817
 30
0.0
  0
LINE
  8
0
 10
369.01998
 20
-37.08523
 30
0.0
 11
369.01998
 21
-7.88523
 31
0.0
  0
INSERT
  8
0
  2
*X4
 10
428.046795
 20
-0.132848
 30
0.0
  0
LINE
  8
0
 10
206.439141
 20
-38.062896
 30
0.0
 11
206.439141
 21
-8.862896
 31
0.0
  0
LINE
  8
0
 10
191.239141
 20
-38.112896
 30
0.0
 11
191.239141
 21
-32.112896
 31
0.0
  0
LINE
  8
0
 10
235.239141
 20
-38.112896
 30
0.0
 11
235.239141
 21
-32.112896
 31
0.0
  0
LINE
  8
0
 10
191.239141
 20
-38.112896
 30
0.0
 11
235.239141
 21
-38.112896
 31
0.0
  0
LINE
  8
0
 10
191.239141
 20
-32.112896
 30
0.0
 11
201.739141
 21
-32.112896
 31
0.0
  0
LINE
  8
0
 10
204.719141
 20
-35.712896
 30
0.0
 11
204.719141
 21
-17.112896
 31
0.0
  0
LINE
  8
0
 10
201.739141
 20
-30.112896
 30
0.0
 11
201.739141
 21
-23.512896
 31
0.0
  0
LINE
  8
0
 10
213.239141
 20
-32.112896
 30
0.0
 11
235.239141
 21
-32.112896
 31
0.0
  0
ARC
  8
0
 10
200.222475
 20
-31.112896
 30
0.0
 40
1.816667
 50
326.601512
 51
33.398488
  0
LINE
  8
0
 10
202.639141
 20
-17.112896
 30
0.0
 11
205.121165
 21
-17.112896
 31
0.0
  0
LINE
  8
0
 10
202.739141
 20
-23.640141
 30
0.0
 11
202.739141
 21
-17.112896
 31
0.0
  0
LINE
  8
0
 10
201.739141
 20
-38.112896
 30
0.0
 11
201.739141
 21
-35.712896
 31
0.0
  0
LINE
  8
0
 10
201.739141
 20
-35.712896
 30
0.0
 11
205.139141
 21
-35.712896
 31
0.0
  0
LINE
  8
0
 10
201.939141
 20
-23.068345
 30
0.0
 11
201.939141
 21
-20.362896
 31
0.0
  0
LINE
  8
0
 10
201.739141
 20
-23.512896
 30
0.0
 11
201.939141
 21
-23.068345
 31
0.0
  0
LINE
  8
0
 10
201.739141
 20
-25.862896
 30
0.0
 11
202.739141
 21
-23.640141
 31
0.0
  0
LINE
  8
0
 10
204.749141
 20
-37.562896
 30
0.0
 11
204.749141
 21
-37.062896
 31
0.0
  0
LINE
  8
0
 10
202.739141
 20
-17.062896
 30
0.0
 11
202.739141
 21
-13.462896
 31
0.0
  0
LINE
  8
0
 10
202.639141
 20
-17.062896
 30
0.0
 11
205.071165
 21
-17.062896
 31
0.0
  0
LINE
  8
0
 10
202.639141
 20
-13.462896
 30
0.0
 11
203.589141
 21
-13.462896
 31
0.0
  0
LINE
  8
0
 10
204.749141
 20
-19.262896
 30
0.0
 11
205.539141
 21
-18.472896
 31
0.0
  0
LINE
  8
0
 10
205.539141
 20
-18.472896
 30
0.0
 11
205.539141
 21
-17.530873
 31
0.0
  0
LINE
  8
0
 10
205.539141
 20
-17.530873
 30
0.0
 11
205.071165
 21
-17.062896
 31
0.0
  0
LINE
  8
0
 10
203.589141
 20
-13.462896
 30
0.0
 11
203.589141
 21
0.037104
 31
0.0
  0
LINE
  8
0
 10
201.789141
 20
0.037104
 30
0.0
 11
205.739141
 21
0.037104
 31
0.0
  0
LINE
  8
0
 10
208.239141
 20
-38.062896
 30
0.0
 11
208.239141
 21
-8.862896
 31
0.0
  0
LINE
  8
0
 10
205.239141
 20
-8.862896
 30
0.0
 11
205.239141
 21
0.037104
 31
0.0
  0
LINE
  8
0
 10
205.239141
 20
-8.862896
 30
0.0
 11
213.239141
 21
-8.862896
 31
0.0
  0
LINE
  8
0
 10
205.739141
 20
-5.962896
 30
0.0
 11
205.739141
 21
0.037104
 31
0.0
  0
LINE
  8
0
 10
205.239141
 20
-5.962896
 30
0.0
 11
213.239141
 21
-5.962896
 31
0.0
  0
LINE
  8
0
 10
205.249141
 20
-38.062896
 30
0.0
 11
213.239141
 21
-38.062896
 31
0.0
  0
LINE
  8
0
 10
204.749141
 20
-37.062896
 30
0.0
 11
205.139141
 21
-37.062896
 31
0.0
  0
LINE
  8
0
 10
204.749141
 20
-35.662896
 30
0.0
 11
205.139141
 21
-35.662896
 31
0.0
  0
LINE
  8
0
 10
205.139141
 20
-37.062896
 30
0.0
 11
205.139141
 21
-35.662896
 31
0.0
  0
LINE
  8
0
 10
204.749141
 20
-35.662896
 30
0.0
 11
204.749141
 21
-19.262896
 31
0.0
  0
LINE
  8
0
 10
191.239141
 20
-32.062896
 30
0.0
 11
201.770951
 21
-32.062896
 31
0.0
  0
LINE
  8
0
 10
191.239141
 20
-32.062896
 30
0.0
 11
191.239141
 21
-31.062896
 31
0.0
  0
LINE
  8
0
 10
201.689141
 20
-20.362896
 30
0.0
 11
202.639141
 21
-20.362896
 31
0.0
  0
LINE
  8
0
 10
196.739141
 20
-12.562896
 30
0.0
 11
196.739141
 21
-21.562896
 31
0.0
  0
LINE
  8
0
 10
191.239141
 20
-31.062896
 30
0.0
 11
196.739141
 21
-21.562896
 31
0.0
  0
LINE
  8
0
 10
197.639141
 20
4.937104
 30
0.0
 11
201.789141
 21
4.937104
 31
0.0
  0
LINE
  8
0
 10
201.689141
 20
-13.412896
 30
0.0
 11
203.589141
 21
-13.412896
 31
0.0
  0
LINE
  8
0
 10
201.689141
 20
-31.562896
 30
0.0
 11
201.189141
 21
-32.062896
 31
0.0
  0
LINE
  8
0
 10
201.689141
 20
4.937104
 30
0.0
 11
201.689141
 21
-13.412896
 31
0.0
  0
LINE
  8
0
 10
201.689141
 20
-20.362896
 30
0.0
 11
201.689141
 21
-31.562896
 31
0.0
  0
LINE
  8
0
 10
202.639141
 20
-13.412896
 30
0.0
 11
202.639141
 21
-20.362896
 31
0.0
  0
LINE
  8
0
 10
202.789141
 20
6.137104
 30
0.0
 11
223.689141
 21
6.137104
 31
0.0
  0
LINE
  8
0
 10
201.789141
 20
5.137104
 30
0.0
 11
201.789141
 21
0.037104
 31
0.0
  0
LINE
  8
0
 10
201.789141
 20
5.137104
 30
0.0
 11
202.789141
 21
6.137104
 31
0.0
  0
LINE
  8
0
 10
210.239141
 20
6.137104
 30
0.0
 11
210.239141
 21
0.774253
 31
0.0
  0
LINE
  8
0
 10
213.239141
 20
0.137104
 30
0.0
 11
210.239141
 21
0.774253
 31
0.0
  0
LINE
  8
0
 10
196.639141
 20
3.937104
 30
0.0
 11
196.639141
 21
-12.562896
 31
0.0
  0
LINE
  8
0
 10
196.639141
 20
3.937104
 30
0.0
 11
197.639141
 21
4.937104
 31
0.0
  0
LINE
  8
0
 10
196.639141
 20
-12.562896
 30
0.0
 11
196.739141
 21
-12.562896
 31
0.0
  0
LINE
  8
0
  6
CENTER
 10
213.239141
 20
8.119312
 30
0.0
 11
213.239141
 21
-41.823328
 31
0.0
  0
LINE
  8
0
 10
229.839141
 20
3.937104
 30
0.0
 11
228.839141
 21
4.937104
 31
0.0
  0
LINE
  8
0
 10
229.839141
 20
3.937104
 30
0.0
 11
229.839141
 21
-12.562896
 31
0.0
  0
LINE
  8
0
 10
229.839141
 20
-12.562896
 30
0.0
 11
213.239141
 21
-12.562896
 31
0.0
  0
LINE
  8
0
 10
229.739141
 20
-12.562896
 30
0.0
 11
229.739141
 21
-21.562896
 31
0.0
  0
LINE
  8
0
 10
235.239141
 20
-31.062896
 30
0.0
 11
229.739141
 21
-21.562896
 31
0.0
  0
LINE
  8
0
 10
235.239141
 20
-32.062896
 30
0.0
 11
235.239141
 21
-31.062896
 31
0.0
  0
LINE
  8
0
 10
235.239141
 20
-32.062896
 30
0.0
 11
213.239141
 21
-32.062896
 31
0.0
  0
LINE
  8
0
 10
229.839141
 20
3.937104
 30
0.0
 11
213.239141
 21
3.937104
 31
0.0
  0
INSERT
  8
0
  2
*X0
 10
228.221245
 20
0.0
 30
0.0
  0
INSERT
  8
0
  2
*X1
 10
203.064685
 20
0.63448
 30
0.0
  0
LINE
  8
0
 10
224.689141
 20
5.137104
 30
0.0
 11
223.689141
 21
6.137104
 31
0.0
  0
LINE
  8
0
 10
224.689141
 20
5.137104
 30
0.0
 11
224.689141
 21
4.937104
 31
0.0
  0
LINE
  8
0
 10
213.239141
 20
4.937104
 30
0.0
 11
228.839141
 21
4.937104
 31
0.0
  0
LINE
  8
0
 10
202.739141
 20
-36.846297
 30
0.0
 11
202.739141
 21
-35.846297
 31
0.0
  0
LINE
  8
0
 10
202.739141
 20
-36.846297
 30
0.0
 11
205.139141
 21
-36.846297
 31
0.0
  0
LINE
  8
0
 10
202.739141
 20
-35.846297
 30
0.0
 11
205.139141
 21
-35.846297
 31
0.0
  0
LINE
  8
0
 10
204.749141
 20
-37.562896
 30
0.0
 11
205.249141
 21
-38.062896
 31
0.0
  0
LINE
  8
0
 10
201.689141
 20
-31.562896
 30
0.0
 11
201.982525
 21
-31.562896
 31
0.0
  0
CIRCLE
  8
0
 10
202.839141
 20
-0.712896
 30
0.0
 40
0.75
  0
CIRCLE
  8
0
 10
202.839141
 20
-12.662896
 30
0.0
 40
0.75
  0
CIRCLE
  8
0
 10
202.839141
 20
-11.162896
 30
0.0
 40
0.75
  0
CIRCLE
  8
0
 10
202.839141
 20
-5.937896
 30
0.0
 40
0.75
  0
CIRCLE
  8
0
 10
202.839141
 20
-8.550396
 30
0.0
 40
0.75
  0
CIRCLE
  8
0
 10
202.839141
 20
-3.325396
 30
0.0
 40
0.75
  0
INSERT
  8
0
  2
*X2
 10
282.918525
 20
0.0
 30
0.0
  0
INSERT
  8
0
  2
*X3
 10
273.038765
 20
0.0
 30
0.0
  0
LINE
  8
0
 10
229.739141
 20
-21.562896
 30
0.0
 11
213.239141
 21
-21.562896
 31
0.0
  0
LINE
  8
0
 10
235.239141
 20
-31.062896
 30
0.0
 11
213.239141
 21
-31.062896
 31
0.0
  0
POLYLINE
  8
0
 66
     1
 10
0.0
 20
0.0
 30
0.0
 70
     1
  0
VERTEX
  8
0
 10
210.239141
 20
-76.757594
 30
0.0
  0
VERTEX
  8
0
 10
213.239141
 20
-78.489645
 30
0.0
  0
VERTEX
  8
0
 10
216.239141
 20
-76.757594
 30
0.0
  0
VERTEX
  8
0
 10
216.239141
 20
-73.293492
 30
0.0
  0
VERTEX
  8
0
 10
213.239141
 20
-71.561442
 30
0.0
  0
VERTEX
  8
0
 10
210.239141
 20
-73.293492
 30
0.0
  0
SEQEND
  8
0
  0
CIRCLE
  8
0
 10
213.239141
 20
-75.025543
 30
0.0
 40
10.45
  0
CIRCLE
  8
0
 10
213.239141
 20
-75.025543
 30
0.0
 40
11.55
  0
CIRCLE
  8
0
 10
213.239141
 20
-75.025543
 30
0.0
 40
11.45
  0
CIRCLE
  8
0
 10
213.239141
 20
-75.025543
 30
0.0
 40
22.0
  0
CIRCLE
  8
0
 10
213.239141
 20
-75.025543
 30
0.0
 40
16.6
  0
CIRCLE
  8
0
 10
213.239141
 20
-75.025543
 30
0.0
 40
15.6
  0
CIRCLE
  8
0
 10
213.239141
 20
-75.025543
 30
0.0
 40
16.5
  0
LINE
  8
0
 10
321.123437
 20
6.271381
 30
0.0
 11
321.330049
 21
6.96663
 31
0.0
  0
LINE
  8
0
 10
298.536661
 20
6.271381
 30
0.0
 11
298.330049
 21
6.96663
 31
0.0
  0
ARC
  8
0
 10
309.830049
 20
-0.019166
 30
0.0
 40
9.503443
 50
48.648317
 51
131.351683
  0
ARC
  8
0
 10
309.830049
 20
15.328219
 30
0.0
 40
11.502904
 50
1.287495
 51
178.712505
  0
ARC
  8
0
 10
309.830049
 20
6.567865
 30
0.0
 40
11.506912
 50
1.985946
 51
178.014054
  0
LINE
  8
0
 10
321.330049
 20
6.96663
 30
0.0
 11
321.330049
 21
15.58668
 31
0.0
  0
LINE
  8
0
 10
298.330049
 20
6.96663
 30
0.0
 11
298.330049
 21
15.58668
 31
0.0
  0
LINE
  8
0
 10
293.510056
 20
5.91477
 30
0.0
 11
326.150041
 21
5.91477
 31
0.0
  0
LINE
  8
0
 10
321.280049
 20
6.11477
 30
0.0
 11
321.280049
 21
5.91477
 31
0.0
  0
LINE
  8
0
 10
321.280049
 20
6.11477
 30
0.0
 11
320.280049
 21
7.11477
 31
0.0
  0
LINE
  8
0
 10
331.830049
 20
-31.08523
 30
0.0
 11
287.830049
 21
-31.08523
 31
0.0
  0
LINE
  8
0
 10
331.830049
 20
-31.08523
 30
0.0
 11
331.830049
 21
-30.08523
 31
0.0
  0
LINE
  8
0
 10
298.380049
 20
6.11477
 30
0.0
 11
299.380049
 21
7.11477
 31
0.0
  0
LINE
  8
0
 10
298.380049
 20
6.11477
 30
0.0
 11
298.380049
 21
5.91477
 31
0.0
  0
LINE
  8
0
 10
299.380049
 20
7.11477
 30
0.0
 11
320.280049
 21
7.11477
 31
0.0
  0
LINE
  8
0
 10
287.830049
 20
-31.08523
 30
0.0
 11
287.830049
 21
-9.68523
 31
0.0
  0
LINE
  8
0
 10
287.830049
 20
-31.13523
 30
0.0
 11
331.830049
 21
-31.13523
 31
0.0
  0
LINE
  8
0
 10
287.830049
 20
-37.13523
 30
0.0
 11
331.830049
 21
-37.13523
 31
0.0
  0
LINE
  8
0
 10
331.830049
 20
-37.13523
 30
0.0
 11
331.830049
 21
-31.13523
 31
0.0
  0
LINE
  8
0
 10
287.830049
 20
-37.13523
 30
0.0
 11
287.830049
 21
-31.13523
 31
0.0
  0
LINE
  8
0
 10
331.830049
 20
-9.68523
 30
0.0
 11
287.830049
 21
-9.68523
 31
0.0
  0
LINE
  8
0
 10
331.830049
 20
-31.08523
 30
0.0
 11
331.830049
 21
-9.68523
 31
0.0
  0
LINE
  8
0
 10
326.150041
 20
5.91477
 30
0.0
 11
328.03827
 21
4.465881
 31
0.0
  0
LINE
  8
0
 10
328.03827
 20
4.465881
 30
0.0
 11
291.621828
 21
4.465881
 31
0.0
  0
LINE
  8
0
 10
287.830049
 20
-9.68523
 30
0.0
 11
291.621828
 21
4.465881
 31
0.0
  0
LINE
  8
0
 10
293.510056
 20
5.91477
 30
0.0
 11
291.621828
 21
4.465881
 31
0.0
  0
LINE
  8
0
 10
331.830049
 20
-9.68523
 30
0.0
 11
328.03827
 21
4.465881
 31
0.0
  0
LINE
  8
0
 10
405.583349
 20
-82.359322
 30
0.0
 11
406.546636
 21
-83.359322
 31
0.0
  0
LINE
  8
0
 10
405.583349
 20
-65.359322
 30
0.0
 11
406.546636
 21
-64.359322
 31
0.0
  0
ARC
  8
0
 10
420.904107
 20
-73.859322
 30
0.0
 40
17.52072
 50
150.978363
 51
209.021637
  0
LINE
  8
0
 10
406.546636
 20
-83.359322
 30
0.0
 11
431.663346
 21
-85.359322
 31
0.0
  0
LINE
  8
0
 10
406.546636
 20
-64.359322
 30
0.0
 11
431.663346
 21
-62.359322
 31
0.0
  0
ARC
  8
0
 10
423.518668
 20
-73.859322
 30
0.0
 40
19.449933
 50
150.762324
 51
209.237676
  0
ARC
  8
0
 10
465.585456
 20
-83.359322
 30
0.0
 40
2.0
 50
270.0
 51
334.042956
  0
ARC
  8
0
 10
465.585456
 20
-64.359322
 30
0.0
 40
2.0
 50
25.957044
 51
90.0
  0
ARC
  8
0
 10
446.07045
 20
-73.859322
 30
0.0
 40
23.704504
 50
334.042956
 51
25.957044
  0
ARC
  8
0
 10
485.980392
 20
-73.859322
 30
0.0
 40
23.704504
 50
150.978363
 51
209.021637
  0
ARC
  8
0
 10
452.391431
 20
-73.859322
 30
0.0
 40
23.704504
 50
150.978363
 51
209.021637
  0
LINE
  8
0
 10
431.663346
 20
-62.359322
 30
0.0
 11
465.585456
 21
-62.359322
 31
0.0
  0
LINE
  8
0
 10
431.663346
 20
-85.359322
 30
0.0
 11
465.585456
 21
-85.359322
 31
0.0
  0
LINE
  8
0
 10
394.747875
 20
-80.859322
 30
0.0
 11
404.842487
 21
-80.859322
 31
0.0
  0
LINE
  8
0
 10
394.747875
 20
-66.859322
 30
0.0
 11
404.842487
 21
-66.859322
 31
0.0
  0
POLYLINE
  8
0
 66
     1
 10
0.0
 20
0.0
 30
0.0
 70
     1
  0
VERTEX
  8
0
 10
372.81998
 20
-75.591373
 30
0.0
  0
VERTEX
  8
0
 10
375.81998
 20
-77.323423
 30
0.0
  0
VERTEX
  8
0
 10
378.81998
 20
-75.591373
 30
0.0
  0
VERTEX
  8
0
 10
378.81998
 20
-72.127271
 30
0.0
  0
VERTEX
  8
0
 10
375.81998
 20
-70.39522
 30
0.0
  0
VERTEX
  8
0
 10
372.81998
 20
-72.127271
 30
0.0
  0
SEQEND
  8
0
  0
CIRCLE
  8
0
 10
375.81998
 20
-73.859322
 30
0.0
 40
10.45
  0
CIRCLE
  8
0
 10
375.81998
 20
-73.859322
 30
0.0
 40
18.208221
  0
CIRCLE
  8
0
 10
375.81998
 20
-73.859322
 30
0.0
 40
16.319993
  0
CIRCLE
  8
0
 10
375.81998
 20
-73.859322
 30
0.0
 40
11.55
  0
CIRCLE
  8
0
 10
375.81998
 20
-73.859322
 30
0.0
 40
11.45
  0
ARC
  8
0
 10
375.81998
 20
-73.859322
 30
0.0
 40
22.0
 50
18.553005
 51
341.446995
  0
LINE
  8
0
 10
394.112357
 20
4.151806
 30
0.0
 11
394.028201
 21
4.465881
 31
0.0
  0
ARC
  8
0
 10
414.770185
 20
2.440121
 30
0.0
 40
20.72862
 50
175.263354
 51
214.736646
  0
LINE
  8
0
 10
460.857391
 20
26.694827
 30
0.0
 11
466.810229
 21
4.478533
 31
0.0
  0
LINE
  8
0
 10
404.068735
 20
9.484277
 30
0.0
 11
409.024536
 21
-9.011022
 31
0.0
  0
LINE
  8
0
 10
407.783311
 20
-8.231854
 30
0.0
 11
409.024536
 21
-9.011022
 31
0.0
  0
LINE
  8
0
 10
403.383387
 20
8.188885
 30
0.0
 11
404.068735
 21
9.484277
 31
0.0
  0
ARC
  8
0
 10
465.774953
 20
8.342236
 30
0.0
 40
4.0
 50
285.0
 51
4.416197
  0
ARC
  8
0
 10
461.892668
 20
22.831123
 30
0.0
 40
4.0
 50
25.583803
 51
105.0
  0
ARC
  8
0
 10
425.062853
 20
5.198033
 30
0.0
 40
44.833333
 50
4.416197
 51
25.583803
  0
LINE
  8
0
 10
409.024536
 20
-9.011022
 30
0.0
 11
434.639765
 21
-4.141517
 31
0.0
  0
LINE
  8
0
 10
404.068735
 20
9.484277
 30
0.0
 11
428.686927
 21
18.074777
 31
0.0
  0
LINE
  8
0
 10
428.686927
 20
18.074777
 30
0.0
 11
434.639765
 21
-4.141517
 31
0.0
  0
LINE
  8
0
 10
403.383387
 20
8.188885
 30
0.0
 11
407.783311
 21
-8.231854
 31
0.0
  0
LINE
  8
0
 10
434.639765
 20
-4.141517
 30
0.0
 11
466.810229
 21
4.478533
 31
0.0
  0
LINE
  8
0
 10
428.686927
 20
18.074777
 30
0.0
 11
460.857391
 21
26.694827
 31
0.0
  0
LINE
  8
0
 10
397.735824
 20
-9.371156
 30
0.0
 11
407.395082
 21
-6.782965
 31
0.0
  0
LINE
  8
0
 10
394.112357
 20
4.151806
 30
0.0
 11
403.771616
 21
6.739996
 31
0.0
  0
LINE
  8
0
 10
359.499987
 20
5.91477
 30
0.0
 11
357.611759
 21
4.465881
 31
0.0
  0
LINE
  8
0
 10
353.81998
 20
-9.68523
 30
0.0
 11
357.611759
 21
4.465881
 31
0.0
  0
LINE
  8
0
 10
394.028201
 20
4.465881
 30
0.0
 11
375.81998
 21
4.465881
 31
0.0
  0
LINE
  8
0
 10
392.139973
 20
5.91477
 30
0.0
 11
394.028201
 21
4.465881
 31
0.0
  0
LINE
  8
0
 10
397.81998
 20
-9.68523
 30
0.0
 11
397.735824
 21
-9.371156
 31
0.0
  0
LINE
  8
0
 10
397.81998
 20
-31.08523
 30
0.0
 11
397.81998
 21
-9.68523
 31
0.0
  0
LINE
  8
0
 10
397.81998
 20
-9.68523
 30
0.0
 11
375.81998
 21
-9.68523
 31
0.0
  0
LINE
  8
0
 10
353.81998
 20
-37.13523
 30
0.0
 11
353.81998
 21
-31.13523
 31
0.0
  0
LINE
  8
0
 10
397.81998
 20
-37.13523
 30
0.0
 11
397.81998
 21
-31.13523
 31
0.0
  0
LINE
  8
0
 10
353.81998
 20
-37.13523
 30
0.0
 11
397.81998
 21
-37.13523
 31
0.0
  0
LINE
  8
0
 10
353.81998
 20
-31.13523
 30
0.0
 11
364.31998
 21
-31.13523
 31
0.0
  0
LINE
  8
0
 10
367.29998
 20
-34.73523
 30
0.0
 11
367.29998
 21
-16.13523
 31
0.0
  0
LINE
  8
0
 10
364.31998
 20
-29.13523
 30
0.0
 11
364.31998
 21
-22.53523
 31
0.0
  0
LINE
  8
0
 10
375.81998
 20
-31.13523
 30
0.0
 11
397.81998
 21
-31.13523
 31
0.0
  0
ARC
  8
0
 10
362.803313
 20
-30.13523
 30
0.0
 40
1.816667
 50
326.601512
 51
33.398488
  0
LINE
  8
0
 10
365.21998
 20
-16.13523
 30
0.0
 11
367.702003
 21
-16.13523
 31
0.0
  0
LINE
  8
0
 10
365.31998
 20
-22.662476
 30
0.0
 11
365.31998
 21
-16.13523
 31
0.0
  0
LINE
  8
0
 10
364.31998
 20
-37.13523
 30
0.0
 11
364.31998
 21
-34.73523
 31
0.0
  0
LINE
  8
0
 10
364.31998
 20
-34.73523
 30
0.0
 11
367.71998
 21
-34.73523
 31
0.0
  0
LINE
  8
0
 10
364.51998
 20
-22.090679
 30
0.0
 11
364.51998
 21
-19.38523
 31
0.0
  0
LINE
  8
0
 10
364.31998
 20
-22.53523
 30
0.0
 11
364.51998
 21
-22.090679
 31
0.0
  0
LINE
  8
0
 10
364.31998
 20
-24.88523
 30
0.0
 11
365.31998
 21
-22.662476
 31
0.0
  0
LINE
  8
0
 10
367.32998
 20
-36.58523
 30
0.0
 11
367.32998
 21
-36.08523
 31
0.0
  0
LINE
  8
0
 10
365.31998
 20
-16.08523
 30
0.0
 11
365.31998
 21
-12.48523
 31
0.0
  0
LINE
  8
0
 10
365.21998
 20
-16.08523
 30
0.0
 11
367.652003
 21
-16.08523
 31
0.0
  0
LINE
  8
0
 10
365.21998
 20
-12.48523
 30
0.0
 11
366.16998
 21
-12.48523
 31
0.0
  0
LINE
  8
0
 10
367.32998
 20
-18.28523
 30
0.0
 11
368.11998
 21
-17.49523
 31
0.0
  0
LINE
  8
0
 10
368.11998
 20
-17.49523
 30
0.0
 11
368.11998
 21
-16.553207
 31
0.0
  0
LINE
  8
0
 10
368.11998
 20
-16.553207
 30
0.0
 11
367.652003
 21
-16.08523
 31
0.0
  0
LINE
  8
0
 10
366.16998
 20
-12.48523
 30
0.0
 11
366.16998
 21
1.01477
 31
0.0
  0
LINE
  8
0
 10
364.36998
 20
1.01477
 30
0.0
 11
368.31998
 21
1.01477
 31
0.0
  0
LINE
  8
0
 10
367.81998
 20
-7.88523
 30
0.0
 11
367.81998
 21
1.01477
 31
0.0
  0
LINE
  8
0
 10
367.81998
 20
-7.88523
 30
0.0
 11
375.81998
 21
-7.88523
 31
0.0
  0
LINE
  8
0
 10
368.31998
 20
-4.98523
 30
0.0
 11
368.31998
 21
1.01477
 31
0.0
  0
LINE
  8
0
 10
367.81998
 20
-4.98523
 30
0.0
 11
375.81998
 21
-4.98523
 31
0.0
  0
LINE
  8
0
 10
367.82998
 20
-37.08523
 30
0.0
 11
375.81998
 21
-37.08523
 31
0.0
  0
LINE
  8
0
 10
367.32998
 20
-36.08523
 30
0.0
 11
367.71998
 21
-36.08523
 31
0.0
  0
LINE
  8
0
 10
367.32998
 20
-34.68523
 30
0.0
 11
367.71998
 21
-34.68523
 31
0.0
  0
LINE
  8
0
 10
367.71998
 20
-36.08523
 30
0.0
 11
367.71998
 21
-34.68523
 31
0.0
  0
LINE
  8
0
 10
367.32998
 20
-34.68523
 30
0.0
 11
367.32998
 21
-18.28523
 31
0.0
  0
LINE
  8
0
 10
353.81998
 20
-31.08523
 30
0.0
 11
364.351789
 21
-31.08523
 31
0.0
  0
LINE
  8
0
 10
353.81998
 20
-31.08523
 30
0.0
 11
353.81998
 21
-9.68523
 31
0.0
  0
LINE
  8
0
 10
364.26998
 20
-19.38523
 30
0.0
 11
365.21998
 21
-19.38523
 31
0.0
  0
LINE
  8
0
 10
359.499987
 20
5.91477
 30
0.0
 11
364.36998
 21
5.91477
 31
0.0
  0
LINE
  8
0
 10
364.26998
 20
-12.43523
 30
0.0
 11
366.16998
 21
-12.43523
 31
0.0
  0
LINE
  8
0
 10
364.26998
 20
-30.58523
 30
0.0
 11
363.76998
 21
-31.08523
 31
0.0
  0
LINE
  8
0
 10
364.26998
 20
5.91477
 30
0.0
 11
364.26998
 21
-12.43523
 31
0.0
  0
LINE
  8
0
 10
364.26998
 20
-19.38523
 30
0.0
 11
364.26998
 21
-30.58523
 31
0.0
  0
LINE
  8
0
 10
365.21998
 20
-12.43523
 30
0.0
 11
365.21998
 21
-19.38523
 31
0.0
  0
LINE
  8
0
 10
365.36998
 20
7.11477
 30
0.0
 11
386.26998
 21
7.11477
 31
0.0
  0
LINE
  8
0
 10
364.36998
 20
6.11477
 30
0.0
 11
364.36998
 21
1.01477
 31
0.0
  0
LINE
  8
0
 10
364.36998
 20
6.11477
 30
0.0
 11
365.36998
 21
7.11477
 31
0.0
  0
LINE
  8
0
 10
372.81998
 20
7.11477
 30
0.0
 11
372.81998
 21
1.751919
 31
0.0
  0
LINE
  8
0
 10
375.81998
 20
1.11477
 30
0.0
 11
372.81998
 21
1.751919
 31
0.0
  0
LINE
  8
0
  6
CENTER
 10
375.81998
 20
9.096977
 30
0.0
 11
375.81998
 21
-40.845663
 31
0.0
  0
LINE
  8
0
 10
397.81998
 20
-31.08523
 30
0.0
 11
397.81998
 21
-30.08523
 31
0.0
  0
LINE
  8
0
 10
397.81998
 20
-31.08523
 30
0.0
 11
375.81998
 21
-31.08523
 31
0.0
  0
LINE
  8
0
 10
387.26998
 20
6.11477
 30
0.0
 11
386.26998
 21
7.11477
 31
0.0
  0
LINE
  8
0
 10
387.26998
 20
6.11477
 30
0.0
 11
387.26998
 21
5.91477
 31
0.0
  0
LINE
  8
0
 10
375.81998
 20
5.91477
 30
0.0
 11
392.139973
 21
5.91477
 31
0.0
  0
LINE
  8
0
 10
365.31998
 20
-35.868632
 30
0.0
 11
365.31998
 21
-34.868632
 31
0.0
  0
LINE
  8
0
 10
365.31998
 20
-35.868632
 30
0.0
 11
367.71998
 21
-35.868632
 31
0.0
  0
LINE
  8
0
 10
365.31998
 20
-34.868632
 30
0.0
 11
367.71998
 21
-34.868632
 31
0.0
  0
LINE
  8
0
 10
367.32998
 20
-36.58523
 30
0.0
 11
367.82998
 21
-37.08523
 31
0.0
  0
LINE
  8
0
 10
364.26998
 20
-30.58523
 30
0.0
 11
364.563364
 21
-30.58523
 31
0.0
  0
CIRCLE
  8
0
 10
365.41998
 20
0.26477
 30
0.0
 40
0.75
  0
CIRCLE
  8
0
 10
365.41998
 20
-11.68523
 30
0.0
 40
0.75
  0
CIRCLE
  8
0
 10
365.41998
 20
-10.18523
 30
0.0
 40
0.75
  0
CIRCLE
  8
0
 10
365.41998
 20
-4.96023
 30
0.0
 40
0.75
  0
CIRCLE
  8
0
 10
365.41998
 20
-7.57273
 30
0.0
 40
0.75
  0
CIRCLE
  8
0
 10
365.41998
 20
-2.34773
 30
0.0
 40
0.75
  0
INSERT
  8
0
  2
*X2
 10
445.499364
 20
0.977665
 30
0.0
  0
INSERT
  8
0
  2
*X3
 10
435.619604
 20
0.977665
 30
0.0
  0
LINE
  8
0
 10
504.166033
 20
-9.116654
 30
0.0
 11
504.166033
 21
-3.116654
 31
0.0
  0
LINE
  8
0
 10
548.166033
 20
-9.116654
 30
0.0
 11
548.166033
 21
-3.116654
 31
0.0
  0
LINE
  8
0
 10
504.166033
 20
-9.116654
 30
0.0
 11
548.166033
 21
-9.116654
 31
0.0
  0
LINE
  8
0
 10
504.166033
 20
-3.116654
 30
0.0
 11
514.666033
 21
-3.116654
 31
0.0
  0
LINE
  8
0
 10
517.646033
 20
-6.716654
 30
0.0
 11
517.646033
 21
11.883346
 31
0.0
  0
LINE
  8
0
 10
514.666033
 20
-1.116654
 30
0.0
 11
514.666033
 21
5.483346
 31
0.0
  0
LINE
  8
0
 10
526.166033
 20
-3.116654
 30
0.0
 11
548.166033
 21
-3.116654
 31
0.0
  0
ARC
  8
0
 10
513.149366
 20
-2.116654
 30
0.0
 40
1.816667
 50
326.601512
 51
33.398488
  0
LINE
  8
0
 10
514.866033
 20
11.883346
 30
0.0
 11
537.466033
 21
11.883346
 31
0.0
  0
LINE
  8
0
 10
515.666033
 20
5.356101
 30
0.0
 11
515.666033
 21
11.883346
 31
0.0
  0
LINE
  8
0
 10
514.666033
 20
-9.116654
 30
0.0
 11
514.666033
 21
-6.716654
 31
0.0
  0
LINE
  8
0
 10
514.666033
 20
-6.716654
 30
0.0
 11
526.166033
 21
-6.716654
 31
0.0
  0
LINE
  8
0
 10
514.866033
 20
5.927897
 30
0.0
 11
514.866033
 21
11.883346
 31
0.0
  0
LINE
  8
0
 10
514.666033
 20
5.483346
 30
0.0
 11
514.866033
 21
5.927897
 31
0.0
  0
LINE
  8
0
 10
514.666033
 20
3.133346
 30
0.0
 11
515.666033
 21
5.356101
 31
0.0
  0
INSERT
  8
0
  2
*X3
 10
585.965656
 20
28.996242
 30
0.0
  0
INSERT
  8
0
  2
*X9
 10
699.034185
 20
-16.783446
 30
0.0
  0
ARC
  8
0
 10
547.047281
 20
-148.603786
 30
0.0
 40
0.765706
 50
281.624951
 51
78.375049
  0
LINE
  8
0
 10
548.451575
 20
-134.353786
 30
0.0
 11
548.451575
 21
-138.966171
 31
0.0
  0
LINE
  8
0
 10
547.201575
 20
-142.853786
 30
0.0
 11
548.451575
 21
-138.966171
 31
0.0
  0
LINE
  8
0
 10
547.201575
 20
-140.853786
 30
0.0
 11
547.601575
 21
-139.609749
 31
0.0
  0
LINE
  8
0
 10
547.601575
 20
-134.353786
 30
0.0
 11
547.601575
 21
-139.609749
 31
0.0
  0
LINE
  8
0
 10
547.601575
 20
-134.353786
 30
0.0
 11
578.301575
 21
-134.353786
 31
0.0
  0
LINE
  8
0
 10
562.951575
 20
-149.353786
 30
0.0
 11
588.951575
 21
-149.353786
 31
0.0
  0
LINE
  8
0
 10
550.431575
 20
-134.353786
 30
0.0
 11
550.431575
 21
-152.553786
 31
0.0
  0
LINE
  8
0
 10
546.451575
 20
-152.553786
 30
0.0
 11
562.951575
 21
-152.553786
 31
0.0
  0
LINE
  8
0
 10
546.451575
 20
-152.553786
 30
0.0
 11
546.451575
 21
-155.353786
 31
0.0
  0
LINE
  8
0
 10
547.201575
 20
-140.853786
 30
0.0
 11
547.201575
 21
-147.853786
 31
0.0
  0
LINE
  8
0
 10
536.951575
 20
-149.353786
 30
0.0
 11
547.201575
 21
-149.353786
 31
0.0
  0
LINE
  8
0
 10
536.951575
 20
-155.353786
 30
0.0
 11
588.951575
 21
-155.353786
 31
0.0
  0
LINE
  8
0
 10
588.951575
 20
-149.353786
 30
0.0
 11
588.951575
 21
-155.353786
 31
0.0
  0
LINE
  8
0
 10
536.951575
 20
-149.353786
 30
0.0
 11
536.951575
 21
-155.353786
 31
0.0
  0
LINE
  8
0
 10
537.466033
 20
5.927897
 30
0.0
 11
537.466033
 21
11.883346
 31
0.0
  0
LINE
  8
0
 10
537.666033
 20
5.483346
 30
0.0
 11
537.466033
 21
5.927897
 31
0.0
  0
LINE
  8
0
 10
537.666033
 20
-1.116654
 30
0.0
 11
537.666033
 21
5.483346
 31
0.0
  0
ARC
  8
0
 10
539.182699
 20
-2.116654
 30
0.0
 40
1.816667
 50
146.601512
 51
213.398488
  0
LINE
  8
0
  6
CENTER
 10
526.166033
 20
-13.048594
 30
0.0
 11
526.166033
 21
16.957934
 31
0.0
  0
LINE
  8
0
 10
537.666033
 20
-1.116654
 30
0.0
 11
526.166033
 21
-1.116654
 31
0.0
  0
LINE
  8
0
 10
525.574636
 20
-27.551414
 30
0.0
 11
525.068484
 21
-28.393448
 31
0.0
  0
LINE
  8
0
 10
525.574636
 20
-27.551414
 30
0.0
 11
526.166033
 21
-28.335927
 31
0.0
  0
LINE
  8
0
 10
524.398323
 20
-27.675049
 30
0.0
 11
525.068484
 21
-28.393448
 31
0.0
  0
LINE
  8
0
 10
524.398323
 20
-27.675049
 30
0.0
 11
523.98296
 21
-28.565378
 31
0.0
  0
LINE
  8
0
 10
523.241377
 20
-27.920966
 30
0.0
 11
523.98296
 21
-28.565378
 31
0.0
  0
LINE
  8
0
 10
523.241377
 20
-27.920966
 30
0.0
 11
522.921354
 21
-28.849834
 31
0.0
  0
LINE
  8
0
 10
522.116475
 20
-28.286469
 30
0.0
 11
522.921354
 21
-28.849834
 31
0.0
  0
LINE
  8
0
 10
522.116475
 20
-28.286469
 30
0.0
 11
521.895298
 21
-29.2437
 31
0.0
  0
LINE
  8
0
 10
521.03594
 20
-28.767554
 30
0.0
 11
521.895298
 21
-29.2437
 31
0.0
  0
LINE
  8
0
 10
521.03594
 20
-28.767554
 30
0.0
 11
520.916033
 21
-29.742661
 31
0.0
  0
LINE
  8
0
 10
520.011612
 20
-29.35895
 30
0.0
 11
520.916033
 21
-29.742661
 31
0.0
  0
LINE
  8
0
 10
520.011612
 20
-29.35895
 30
0.0
 11
519.994287
 21
-30.341249
 31
0.0
  0
LINE
  8
0
 10
519.054712
 20
-30.054178
 30
0.0
 11
519.994287
 21
-30.341249
 31
0.0
  0
LINE
  8
0
 10
519.054712
 20
-30.054178
 30
0.0
 11
519.140161
 21
-31.032907
 31
0.0
  0
LINE
  8
0
 10
518.175726
 20
-30.845621
 30
0.0
 11
519.140161
 21
-31.032907
 31
0.0
  0
LINE
  8
0
 10
518.175726
 20
-30.845621
 30
0.0
 11
518.363012
 21
-31.810056
 31
0.0
  0
LINE
  8
0
 10
517.384283
 20
-31.724607
 30
0.0
 11
518.363012
 21
-31.810056
 31
0.0
  0
LINE
  8
0
 10
517.384283
 20
-31.724607
 30
0.0
 11
517.671354
 21
-32.664182
 31
0.0
  0
LINE
  8
0
 10
516.689055
 20
-32.681506
 30
0.0
 11
517.671354
 21
-32.664182
 31
0.0
  0
LINE
  8
0
 10
516.689055
 20
-32.681506
 30
0.0
 11
517.072766
 21
-33.585927
 31
0.0
  0
LINE
  8
0
 10
516.097659
 20
-33.705835
 30
0.0
 11
517.072766
 21
-33.585927
 31
0.0
  0
LINE
  8
0
 10
516.097659
 20
-33.705835
 30
0.0
 11
516.573805
 21
-34.565193
 31
0.0
  0
LINE
  8
0
 10
515.616574
 20
-34.78637
 30
0.0
 11
516.573805
 21
-34.565193
 31
0.0
  0
LINE
  8
0
 10
515.616574
 20
-34.78637
 30
0.0
 11
516.179939
 21
-35.591249
 31
0.0
  0
LINE
  8
0
 10
515.251071
 20
-35.911272
 30
0.0
 11
516.179939
 21
-35.591249
 31
0.0
  0
LINE
  8
0
 10
515.251071
 20
-35.911272
 30
0.0
 11
515.895483
 21
-36.652855
 31
0.0
  0
LINE
  8
0
 10
515.005154
 20
-37.068218
 30
0.0
 11
515.895483
 21
-36.652855
 31
0.0
  0
LINE
  8
0
 10
515.005154
 20
-37.068218
 30
0.0
 11
515.723553
 21
-37.738379
 31
0.0
  0
LINE
  8
0
 10
514.881519
 20
-38.244531
 30
0.0
 11
515.723553
 21
-37.738379
 31
0.0
  0
LINE
  8
0
 10
514.881519
 20
-38.244531
 30
0.0
 11
515.666033
 21
-38.835927
 31
0.0
  0
LINE
  8
0
 10
514.881519
 20
-39.427324
 30
0.0
 11
515.666033
 21
-38.835927
 31
0.0
  0
LINE
  8
0
 10
514.881519
 20
-39.427324
 30
0.0
 11
515.723553
 21
-39.933476
 31
0.0
  0
LINE
  8
0
 10
515.005154
 20
-40.603637
 30
0.0
 11
515.723553
 21
-39.933476
 31
0.0
  0
LINE
  8
0
 10
515.005154
 20
-40.603637
 30
0.0
 11
515.895483
 21
-41.019
 31
0.0
  0
LINE
  8
0
 10
515.251071
 20
-41.760583
 30
0.0
 11
515.895483
 21
-41.019
 31
0.0
  0
LINE
  8
0
 10
515.251071
 20
-41.760583
 30
0.0
 11
516.179939
 21
-42.080606
 31
0.0
  0
LINE
  8
0
 10
515.616574
 20
-42.885485
 30
0.0
 11
516.179939
 21
-42.080606
 31
0.0
  0
LINE
  8
0
 10
515.616574
 20
-42.885485
 30
0.0
 11
516.573805
 21
-43.106662
 31
0.0
  0
LINE
  8
0
 10
516.097659
 20
-43.96602
 30
0.0
 11
516.573805
 21
-43.106662
 31
0.0
  0
LINE
  8
0
 10
516.097659
 20
-43.96602
 30
0.0
 11
517.072766
 21
-44.085927
 31
0.0
  0
LINE
  8
0
 10
516.689055
 20
-44.990349
 30
0.0
 11
517.072766
 21
-44.085927
 31
0.0
  0
LINE
  8
0
 10
516.689055
 20
-44.990349
 30
0.0
 11
517.671354
 21
-45.007673
 31
0.0
  0
LINE
  8
0
 10
517.384283
 20
-45.947248
 30
0.0
 11
517.671354
 21
-45.007673
 31
0.0
  0
LINE
  8
0
 10
517.384283
 20
-45.947248
 30
0.0
 11
518.363012
 21
-45.861799
 31
0.0
  0
LINE
  8
0
 10
518.175726
 20
-46.826234
 30
0.0
 11
518.363012
 21
-45.861799
 31
0.0
  0
LINE
  8
0
 10
518.175726
 20
-46.826234
 30
0.0
 11
519.140161
 21
-46.638948
 31
0.0
  0
LINE
  8
0
 10
519.054712
 20
-47.617677
 30
0.0
 11
519.140161
 21
-46.638948
 31
0.0
  0
LINE
  8
0
 10
519.054712
 20
-47.617677
 30
0.0
 11
519.994287
 21
-47.330606
 31
0.0
  0
LINE
  8
0
 10
520.011612
 20
-48.312905
 30
0.0
 11
519.994287
 21
-47.330606
 31
0.0
  0
LINE
  8
0
 10
520.011612
 20
-48.312905
 30
0.0
 11
520.916033
 21
-47.929194
 31
0.0
  0
LINE
  8
0
 10
521.03594
 20
-48.904301
 30
0.0
 11
520.916033
 21
-47.929194
 31
0.0
  0
LINE
  8
0
 10
521.03594
 20
-48.904301
 30
0.0
 11
521.895298
 21
-48.428155
 31
0.0
  0
LINE
  8
0
 10
522.116475
 20
-49.385386
 30
0.0
 11
521.895298
 21
-48.428155
 31
0.0
  0
LINE
  8
0
 10
522.116475
 20
-49.385386
 30
0.0
 11
522.921354
 21
-48.822021
 31
0.0
  0
LINE
  8
0
 10
523.241377
 20
-49.750889
 30
0.0
 11
522.921354
 21
-48.822021
 31
0.0
  0
LINE
  8
0
 10
523.241377
 20
-49.750889
 30
0.0
 11
523.98296
 21
-49.106477
 31
0.0
  0
LINE
  8
0
 10
524.398323
 20
-49.996806
 30
0.0
 11
523.98296
 21
-49.106477
 31
0.0
  0
LINE
  8
0
 10
524.398323
 20
-49.996806
 30
0.0
 11
525.068484
 21
-49.278407
 31
0.0
  0
LINE
  8
0
 10
525.574636
 20
-50.120441
 30
0.0
 11
525.068484
 21
-49.278407
 31
0.0
  0
LINE
  8
0
 10
525.574636
 20
-50.120441
 30
0.0
 11
526.166033
 21
-49.335927
 31
0.0
  0
LINE
  8
0
 10
526.757429
 20
-50.120441
 30
0.0
 11
526.166033
 21
-49.335927
 31
0.0
  0
LINE
  8
0
 10
526.757429
 20
-50.120441
 30
0.0
 11
527.263581
 21
-49.278407
 31
0.0
  0
LINE
  8
0
 10
527.933742
 20
-49.996806
 30
0.0
 11
527.263581
 21
-49.278407
 31
0.0
  0
LINE
  8
0
 10
527.933742
 20
-49.996806
 30
0.0
 11
528.349105
 21
-49.106477
 31
0.0
  0
LINE
  8
0
 10
529.090688
 20
-49.750889
 30
0.0
 11
528.349105
 21
-49.106477
 31
0.0
  0
LINE
  8
0
 10
529.090688
 20
-49.750889
 30
0.0
 11
529.410711
 21
-48.822021
 31
0.0
  0
LINE
  8
0
 10
530.21559
 20
-49.385386
 30
0.0
 11
529.410711
 21
-48.822021
 31
0.0
  0
LINE
  8
0
 10
530.21559
 20
-49.385386
 30
0.0
 11
530.436767
 21
-48.428155
 31
0.0
  0
LINE
  8
0
 10
531.296125
 20
-48.904301
 30
0.0
 11
530.436767
 21
-48.428155
 31
0.0
  0
LINE
  8
0
 10
531.296125
 20
-48.904301
 30
0.0
 11
531.416033
 21
-47.929194
 31
0.0
  0
LINE
  8
0
 10
532.320454
 20
-48.312905
 30
0.0
 11
531.416033
 21
-47.929194
 31
0.0
  0
LINE
  8
0
 10
532.320454
 20
-48.312905
 30
0.0
 11
532.337778
 21
-47.330606
 31
0.0
  0
LINE
  8
0
 10
533.277353
 20
-47.617677
 30
0.0
 11
532.337778
 21
-47.330606
 31
0.0
  0
LINE
  8
0
 10
533.277353
 20
-47.617677
 30
0.0
 11
533.191904
 21
-46.638948
 31
0.0
  0
LINE
  8
0
 10
534.156339
 20
-46.826234
 30
0.0
 11
533.191904
 21
-46.638948
 31
0.0
  0
LINE
  8
0
 10
534.156339
 20
-46.826234
 30
0.0
 11
533.969053
 21
-45.861799
 31
0.0
  0
LINE
  8
0
 10
534.947782
 20
-45.947248
 30
0.0
 11
533.969053
 21
-45.861799
 31
0.0
  0
LINE
  8
0
 10
534.947782
 20
-45.947248
 30
0.0
 11
534.660711
 21
-45.007673
 31
0.0
  0
LINE
  8
0
 10
535.64301
 20
-44.990349
 30
0.0
 11
534.660711
 21
-45.007673
 31
0.0
  0
LINE
  8
0
 10
535.64301
 20
-44.990349
 30
0.0
 11
535.259299
 21
-44.085927
 31
0.0
  0
LINE
  8
0
 10
536.234406
 20
-43.96602
 30
0.0
 11
535.259299
 21
-44.085927
 31
0.0
  0
LINE
  8
0
 10
536.234406
 20
-43.96602
 30
0.0
 11
535.75826
 21
-43.106662
 31
0.0
  0
LINE
  8
0
 10
536.715491
 20
-42.885485
 30
0.0
 11
535.75826
 21
-43.106662
 31
0.0
  0
LINE
  8
0
 10
536.715491
 20
-42.885485
 30
0.0
 11
536.152126
 21
-42.080606
 31
0.0
  0
LINE
  8
0
 10
537.080994
 20
-41.760583
 30
0.0
 11
536.152126
 21
-42.080606
 31
0.0
  0
LINE
  8
0
 10
537.080994
 20
-41.760583
 30
0.0
 11
536.436582
 21
-41.019
 31
0.0
  0
LINE
  8
0
 10
537.326911
 20
-40.603637
 30
0.0
 11
536.436582
 21
-41.019
 31
0.0
  0
LINE
  8
0
 10
537.326911
 20
-40.603637
 30
0.0
 11
536.608513
 21
-39.933476
 31
0.0
  0
LINE
  8
0
 10
537.450546
 20
-39.427324
 30
0.0
 11
536.608513
 21
-39.933476
 31
0.0
  0
LINE
  8
0
 10
537.450546
 20
-39.427324
 30
0.0
 11
536.666033
 21
-38.835927
 31
0.0
  0
LINE
  8
0
 10
537.450546
 20
-38.244531
 30
0.0
 11
536.666033
 21
-38.835927
 31
0.0
  0
LINE
  8
0
 10
537.450546
 20
-38.244531
 30
0.0
 11
536.608513
 21
-37.738379
 31
0.0
  0
LINE
  8
0
 10
537.326911
 20
-37.068218
 30
0.0
 11
536.608513
 21
-37.738379
 31
0.0
  0
LINE
  8
0
 10
537.326911
 20
-37.068218
 30
0.0
 11
536.436582
 21
-36.652855
 31
0.0
  0
LINE
  8
0
 10
537.080994
 20
-35.911272
 30
0.0
 11
536.436582
 21
-36.652855
 31
0.0
  0
LINE
  8
0
 10
537.080994
 20
-35.911272
 30
0.0
 11
536.152126
 21
-35.591249
 31
0.0
  0
LINE
  8
0
 10
536.715491
 20
-34.78637
 30
0.0
 11
536.152126
 21
-35.591249
 31
0.0
  0
LINE
  8
0
 10
536.715491
 20
-34.78637
 30
0.0
 11
535.75826
 21
-34.565193
 31
0.0
  0
LINE
  8
0
 10
536.234406
 20
-33.705835
 30
0.0
 11
535.75826
 21
-34.565193
 31
0.0
  0
LINE
  8
0
 10
536.234406
 20
-33.705835
 30
0.0
 11
535.259299
 21
-33.585927
 31
0.0
  0
LINE
  8
0
 10
535.64301
 20
-32.681506
 30
0.0
 11
535.259299
 21
-33.585927
 31
0.0
  0
LINE
  8
0
 10
535.64301
 20
-32.681506
 30
0.0
 11
534.660711
 21
-32.664182
 31
0.0
  0
LINE
  8
0
 10
534.947782
 20
-31.724607
 30
0.0
 11
534.660711
 21
-32.664182
 31
0.0
  0
LINE
  8
0
 10
534.947782
 20
-31.724607
 30
0.0
 11
533.969053
 21
-31.810056
 31
0.0
  0
LINE
  8
0
 10
534.156339
 20
-30.845621
 30
0.0
 11
533.969053
 21
-31.810056
 31
0.0
  0
LINE
  8
0
 10
534.156339
 20
-30.845621
 30
0.0
 11
533.191904
 21
-31.032907
 31
0.0
  0
LINE
  8
0
 10
533.277353
 20
-30.054178
 30
0.0
 11
533.191904
 21
-31.032907
 31
0.0
  0
LINE
  8
0
 10
533.277353
 20
-30.054178
 30
0.0
 11
532.337778
 21
-30.341249
 31
0.0
  0
LINE
  8
0
 10
532.320454
 20
-29.35895
 30
0.0
 11
532.337778
 21
-30.341249
 31
0.0
  0
LINE
  8
0
 10
532.320454
 20
-29.35895
 30
0.0
 11
531.416033
 21
-29.742661
 31
0.0
  0
LINE
  8
0
 10
531.296125
 20
-28.767554
 30
0.0
 11
531.416033
 21
-29.742661
 31
0.0
  0
LINE
  8
0
 10
531.296125
 20
-28.767554
 30
0.0
 11
530.436767
 21
-29.2437
 31
0.0
  0
LINE
  8
0
 10
530.21559
 20
-28.286469
 30
0.0
 11
530.436767
 21
-29.2437
 31
0.0
  0
LINE
  8
0
 10
530.21559
 20
-28.286469
 30
0.0
 11
529.410711
 21
-28.849834
 31
0.0
  0
LINE
  8
0
 10
529.090688
 20
-27.920966
 30
0.0
 11
529.410711
 21
-28.849834
 31
0.0
  0
LINE
  8
0
 10
529.090688
 20
-27.920966
 30
0.0
 11
528.349105
 21
-28.565378
 31
0.0
  0
LINE
  8
0
 10
527.933742
 20
-27.675049
 30
0.0
 11
528.349105
 21
-28.565378
 31
0.0
  0
LINE
  8
0
 10
527.933742
 20
-27.675049
 30
0.0
 11
527.263581
 21
-28.393448
 31
0.0
  0
LINE
  8
0
 10
526.757429
 20
-27.551414
 30
0.0
 11
527.263581
 21
-28.393448
 31
0.0
  0
LINE
  8
0
 10
526.757429
 20
-27.551414
 30
0.0
 11
526.166033
 21
-28.335927
 31
0.0
  0
LINE
  8
0
 10
526.757429
 20
11.883346
 30
0.0
 11
526.757429
 21
5.483346
 31
0.0
  0
LINE
  8
0
 10
527.933742
 20
11.883346
 30
0.0
 11
527.933742
 21
5.483346
 31
0.0
  0
LINE
  8
0
 10
529.090688
 20
11.883346
 30
0.0
 11
529.090688
 21
5.483346
 31
0.0
  0
LINE
  8
0
 10
530.21559
 20
11.883346
 30
0.0
 11
530.21559
 21
5.483346
 31
0.0
  0
LINE
  8
0
 10
531.296125
 20
11.883346
 30
0.0
 11
531.296125
 21
5.483346
 31
0.0
  0
LINE
  8
0
 10
532.320454
 20
11.883346
 30
0.0
 11
532.320454
 21
3.133346
 31
0.0
  0
LINE
  8
0
 10
533.277353
 20
11.883346
 30
0.0
 11
533.277353
 21
3.133346
 31
0.0
  0
LINE
  8
0
 10
534.156339
 20
11.883346
 30
0.0
 11
534.156339
 21
3.133346
 31
0.0
  0
LINE
  8
0
 10
534.947782
 20
11.883346
 30
0.0
 11
534.947782
 21
3.133346
 31
0.0
  0
LINE
  8
0
 10
527.263581
 20
11.883346
 30
0.0
 11
527.263581
 21
3.133346
 31
0.0
  0
LINE
  8
0
 10
528.349105
 20
11.883346
 30
0.0
 11
528.349105
 21
3.133346
 31
0.0
  0
LINE
  8
0
 10
529.410711
 20
11.883346
 30
0.0
 11
529.410711
 21
3.133346
 31
0.0
  0
LINE
  8
0
 10
530.436767
 20
11.883346
 30
0.0
 11
530.436767
 21
3.133346
 31
0.0
  0
LINE
  8
0
 10
526.757429
 20
5.483346
 30
0.0
 11
526.324545
 21
3.133346
 31
0.0
  0
LINE
  8
0
 10
526.757429
 20
5.483346
 30
0.0
 11
527.263581
 21
3.133346
 31
0.0
  0
LINE
  8
0
 10
527.263581
 20
3.133346
 30
0.0
 11
527.933742
 21
5.483346
 31
0.0
  0
LINE
  8
0
 10
527.933742
 20
5.483346
 30
0.0
 11
528.349105
 21
3.133346
 31
0.0
  0
LINE
  8
0
 10
528.349105
 20
3.133346
 30
0.0
 11
529.090688
 21
5.483346
 31
0.0
  0
LINE
  8
0
 10
529.090688
 20
5.483346
 30
0.0
 11
529.410711
 21
3.133346
 31
0.0
  0
LINE
  8
0
 10
529.410711
 20
3.133346
 30
0.0
 11
530.21559
 21
5.483346
 31
0.0
  0
LINE
  8
0
 10
530.21559
 20
5.483346
 30
0.0
 11
530.436767
 21
3.133346
 31
0.0
  0
LINE
  8
0
 10
530.436767
 20
3.133346
 30
0.0
 11
531.296125
 21
5.483346
 31
0.0
  0
LINE
  8
0
 10
531.416033
 20
11.883346
 30
0.0
 11
531.416033
 21
3.133346
 31
0.0
  0
LINE
  8
0
 10
531.296125
 20
5.483346
 30
0.0
 11
531.416033
 21
3.133346
 31
0.0
  0
LINE
  8
0
 10
531.416033
 20
3.133346
 30
0.0
 11
532.320454
 21
5.483346
 31
0.0
  0
LINE
  8
0
 10
532.320454
 20
3.133346
 30
0.0
 11
533.277353
 21
5.483346
 31
0.0
  0
LINE
  8
0
 10
535.64301
 20
11.883346
 30
0.0
 11
535.64301
 21
3.133346
 31
0.0
  0
LINE
  8
0
 10
536.234406
 20
11.883346
 30
0.0
 11
536.234406
 21
5.927897
 31
0.0
  0
LINE
  8
0
 10
536.715491
 20
11.883346
 30
0.0
 11
536.715491
 21
5.927897
 31
0.0
  0
LINE
  8
0
 10
537.080994
 20
11.883346
 30
0.0
 11
537.080994
 21
5.927897
 31
0.0
  0
LINE
  8
0
 10
537.326911
 20
11.883346
 30
0.0
 11
537.326911
 21
5.927897
 31
0.0
  0
LINE
  8
0
 10
533.277353
 20
3.133346
 30
0.0
 11
534.156339
 21
5.483346
 31
0.0
  0
LINE
  8
0
 10
534.156339
 20
3.133346
 30
0.0
 11
534.947782
 21
5.483346
 31
0.0
  0
LINE
  8
0
 10
534.947782
 20
3.133346
 30
0.0
 11
535.64301
 21
5.483346
 31
0.0
  0
CIRCLE
  8
0
 10
526.166033
 20
-38.835927
 30
0.0
 40
8.52
  0
CIRCLE
  8
0
 10
526.166033
 20
-38.835927
 30
0.0
 40
22.0
  0
LINE
  8
0
  6
CENTER
 10
562.951575
 20
-159.285726
 30
0.0
 11
562.951575
 21
-129.279199
 31
0.0
  0
LINE
  8
0
 10
578.301575
 20
-134.353786
 30
0.0
 11
578.301575
 21
-139.609749
 31
0.0
  0
LINE
  8
0
 10
578.701575
 20
-140.853786
 30
0.0
 11
578.301575
 21
-139.609749
 31
0.0
  0
LINE
  8
0
 10
578.701575
 20
-140.853786
 30
0.0
 11
578.701575
 21
-147.853786
 31
0.0
  0
ARC
  8
0
 10
578.855868
 20
-148.603786
 30
0.0
 40
0.765706
 50
101.624951
 51
258.375049
  0
LINE
  8
0
 10
578.701575
 20
-147.853786
 30
0.0
 11
562.951575
 21
-147.853786
 31
0.0
  0
LINE
  8
0
 10
562.148218
 20
-173.886286
 30
0.0
 11
561.435912
 21
-174.794682
 31
0.0
  0
LINE
  8
0
 10
562.148218
 20
-173.886286
 30
0.0
 11
562.951575
 21
-174.715249
 31
0.0
  0
LINE
  8
0
 10
560.550306
 20
-174.054233
 30
0.0
 11
561.435912
 21
-174.794682
 31
0.0
  0
LINE
  8
0
 10
560.550306
 20
-174.054233
 30
0.0
 11
559.936855
 21
-175.032109
 31
0.0
  0
LINE
  8
0
 10
558.978702
 20
-174.388288
 30
0.0
 11
559.936855
 21
-175.032109
 31
0.0
  0
LINE
  8
0
 10
558.978702
 20
-174.388288
 30
0.0
 11
558.470828
 21
-175.42493
 31
0.0
  0
LINE
  8
0
 10
557.450627
 20
-174.88479
 30
0.0
 11
558.470828
 21
-175.42493
 31
0.0
  0
LINE
  8
0
 10
557.450627
 20
-174.88479
 30
0.0
 11
557.053893
 21
-175.96884
 31
0.0
  0
LINE
  8
0
 10
555.982821
 20
-175.538299
 30
0.0
 11
557.053893
 21
-175.96884
 31
0.0
  0
LINE
  8
0
 10
555.982821
 20
-175.538299
 30
0.0
 11
555.701575
 21
-176.657881
 31
0.0
  0
LINE
  8
0
 10
554.591366
 20
-176.341656
 30
0.0
 11
555.701575
 21
-176.657881
 31
0.0
  0
LINE
  8
0
 10
554.591366
 20
-176.341656
 30
0.0
 11
554.428689
 21
-177.484503
 31
0.0
  0
LINE
  8
0
 10
553.291507
 20
-177.286059
 30
0.0
 11
554.428689
 21
-177.484503
 31
0.0
  0
LINE
  8
0
 10
553.291507
 20
-177.286059
 30
0.0
 11
553.249181
 21
-178.439649
 31
0.0
  0
LINE
  8
0
 10
552.097486
 20
-178.36116
 30
0.0
 11
553.249181
 21
-178.439649
 31
0.0
  0
LINE
  8
0
 10
552.097486
 20
-178.36116
 30
0.0
 11
552.175975
 21
-179.512855
 31
0.0
  0
LINE
  8
0
 10
551.022384
 20
-179.555181
 30
0.0
 11
552.175975
 21
-179.512855
 31
0.0
  0
LINE
  8
0
 10
551.022384
 20
-179.555181
 30
0.0
 11
551.220828
 21
-180.692363
 31
0.0
  0
LINE
  8
0
 10
550.077982
 20
-180.85504
 30
0.0
 11
551.220828
 21
-180.692363
 31
0.0
  0
LINE
  8
0
 10
550.077982
 20
-180.85504
 30
0.0
 11
550.394206
 21
-181.965249
 31
0.0
  0
LINE
  8
0
 10
549.274625
 20
-182.246495
 30
0.0
 11
550.394206
 21
-181.965249
 31
0.0
  0
LINE
  8
0
 10
549.274625
 20
-182.246495
 30
0.0
 11
549.705166
 21
-183.317568
 31
0.0
  0
LINE
  8
0
 10
548.621115
 20
-183.714301
 30
0.0
 11
549.705166
 21
-183.317568
 31
0.0
  0
LINE
  8
0
 10
548.621115
 20
-183.714301
 30
0.0
 11
549.161255
 21
-184.734503
 31
0.0
  0
LINE
  8
0
 10
548.124613
 20
-185.242377
 30
0.0
 11
549.161255
 21
-184.734503
 31
0.0
  0
LINE
  8
0
 10
548.124613
 20
-185.242377
 30
0.0
 11
548.768435
 21
-186.20053
 31
0.0
  0
LINE
  8
0
 10
547.790559
 20
-186.81398
 30
0.0
 11
548.768435
 21
-186.20053
 31
0.0
  0
LINE
  8
0
 10
547.790559
 20
-186.81398
 30
0.0
 11
548.531007
 21
-187.699587
 31
0.0
  0
LINE
  8
0
 10
547.622611
 20
-188.411892
 30
0.0
 11
548.531007
 21
-187.699587
 31
0.0
  0
LINE
  8
0
 10
547.622611
 20
-188.411892
 30
0.0
 11
548.451575
 21
-189.215249
 31
0.0
  0
LINE
  8
0
 10
547.622611
 20
-190.018606
 30
0.0
 11
548.451575
 21
-189.215249
 31
0.0
  0
LINE
  8
0
 10
547.622611
 20
-190.018606
 30
0.0
 11
548.531007
 21
-190.730912
 31
0.0
  0
LINE
  8
0
 10
547.790559
 20
-191.616518
 30
0.0
 11
548.531007
 21
-190.730912
 31
0.0
  0
LINE
  8
0
 10
547.790559
 20
-191.616518
 30
0.0
 11
548.768435
 21
-192.229969
 31
0.0
  0
LINE
  8
0
 10
548.124613
 20
-193.188122
 30
0.0
 11
548.768435
 21
-192.229969
 31
0.0
  0
LINE
  8
0
 10
548.124613
 20
-193.188122
 30
0.0
 11
549.161255
 21
-193.695996
 31
0.0
  0
LINE
  8
0
 10
548.621115
 20
-194.716197
 30
0.0
 11
549.161255
 21
-193.695996
 31
0.0
  0
LINE
  8
0
 10
548.621115
 20
-194.716197
 30
0.0
 11
549.705166
 21
-195.112931
 31
0.0
  0
LINE
  8
0
 10
549.274625
 20
-196.184003
 30
0.0
 11
549.705166
 21
-195.112931
 31
0.0
  0
LINE
  8
0
 10
549.274625
 20
-196.184003
 30
0.0
 11
550.394206
 21
-196.465249
 31
0.0
  0
LINE
  8
0
 10
550.077982
 20
-197.575458
 30
0.0
 11
550.394206
 21
-196.465249
 31
0.0
  0
LINE
  8
0
 10
550.077982
 20
-197.575458
 30
0.0
 11
551.220828
 21
-197.738135
 31
0.0
  0
LINE
  8
0
 10
551.022384
 20
-198.875317
 30
0.0
 11
551.220828
 21
-197.738135
 31
0.0
  0
LINE
  8
0
 10
551.022384
 20
-198.875317
 30
0.0
 11
552.175975
 21
-198.917643
 31
0.0
  0
LINE
  8
0
 10
552.097486
 20
-200.069338
 30
0.0
 11
552.175975
 21
-198.917643
 31
0.0
  0
LINE
  8
0
 10
552.097486
 20
-200.069338
 30
0.0
 11
553.249181
 21
-199.990849
 31
0.0
  0
LINE
  8
0
 10
553.291507
 20
-201.14444
 30
0.0
 11
553.249181
 21
-199.990849
 31
0.0
  0
LINE
  8
0
 10
553.291507
 20
-201.14444
 30
0.0
 11
554.428689
 21
-200.945996
 31
0.0
  0
LINE
  8
0
 10
554.591366
 20
-202.088842
 30
0.0
 11
554.428689
 21
-200.945996
 31
0.0
  0
LINE
  8
0
 10
554.591366
 20
-202.088842
 30
0.0
 11
555.701575
 21
-201.772618
 31
0.0
  0
LINE
  8
0
 10
555.982821
 20
-202.892199
 30
0.0
 11
555.701575
 21
-201.772618
 31
0.0
  0
LINE
  8
0
 10
555.982821
 20
-202.892199
 30
0.0
 11
557.053893
 21
-202.461658
 31
0.0
  0
LINE
  8
0
 10
557.450627
 20
-203.545709
 30
0.0
 11
557.053893
 21
-202.461658
 31
0.0
  0
LINE
  8
0
 10
557.450627
 20
-203.545709
 30
0.0
 11
558.470828
 21
-203.005569
 31
0.0
  0
LINE
  8
0
 10
558.978702
 20
-204.042211
 30
0.0
 11
558.470828
 21
-203.005569
 31
0.0
  0
LINE
  8
0
 10
558.978702
 20
-204.042211
 30
0.0
 11
559.936855
 21
-203.398389
 31
0.0
  0
LINE
  8
0
 10
560.550306
 20
-204.376265
 30
0.0
 11
559.936855
 21
-203.398389
 31
0.0
  0
LINE
  8
0
 10
560.550306
 20
-204.376265
 30
0.0
 11
561.435912
 21
-203.635817
 31
0.0
  0
LINE
  8
0
 10
562.148218
 20
-204.544213
 30
0.0
 11
561.435912
 21
-203.635817
 31
0.0
  0
LINE
  8
0
 10
562.148218
 20
-204.544213
 30
0.0
 11
562.951575
 21
-203.715249
 31
0.0
  0
LINE
  8
0
 10
563.754932
 20
-204.544213
 30
0.0
 11
562.951575
 21
-203.715249
 31
0.0
  0
LINE
  8
0
 10
563.754932
 20
-204.544213
 30
0.0
 11
564.467237
 21
-203.635817
 31
0.0
  0
LINE
  8
0
 10
565.352844
 20
-204.376265
 30
0.0
 11
564.467237
 21
-203.635817
 31
0.0
  0
LINE
  8
0
 10
565.352844
 20
-204.376265
 30
0.0
 11
565.966294
 21
-203.398389
 31
0.0
  0
LINE
  8
0
 10
566.924447
 20
-204.042211
 30
0.0
 11
565.966294
 21
-203.398389
 31
0.0
  0
LINE
  8
0
 10
566.924447
 20
-204.042211
 30
0.0
 11
567.432321
 21
-203.005569
 31
0.0
  0
LINE
  8
0
 10
568.452523
 20
-203.545709
 30
0.0
 11
567.432321
 21
-203.005569
 31
0.0
  0
LINE
  8
0
 10
568.452523
 20
-203.545709
 30
0.0
 11
568.849256
 21
-202.461658
 31
0.0
  0
LINE
  8
0
 10
569.920329
 20
-202.892199
 30
0.0
 11
568.849256
 21
-202.461658
 31
0.0
  0
LINE
  8
0
 10
569.920329
 20
-202.892199
 30
0.0
 11
570.201575
 21
-201.772618
 31
0.0
  0
LINE
  8
0
 10
571.311784
 20
-202.088842
 30
0.0
 11
570.201575
 21
-201.772618
 31
0.0
  0
LINE
  8
0
 10
571.311784
 20
-202.088842
 30
0.0
 11
571.474461
 21
-200.945996
 31
0.0
  0
LINE
  8
0
 10
572.611643
 20
-201.14444
 30
0.0
 11
571.474461
 21
-200.945996
 31
0.0
  0
LINE
  8
0
 10
572.611643
 20
-201.14444
 30
0.0
 11
572.653969
 21
-199.990849
 31
0.0
  0
LINE
  8
0
 10
573.805664
 20
-200.069338
 30
0.0
 11
572.653969
 21
-199.990849
 31
0.0
  0
LINE
  8
0
 10
573.805664
 20
-200.069338
 30
0.0
 11
573.727175
 21
-198.917643
 31
0.0
  0
LINE
  8
0
 10
574.880765
 20
-198.875317
 30
0.0
 11
573.727175
 21
-198.917643
 31
0.0
  0
LINE
  8
0
 10
574.880765
 20
-198.875317
 30
0.0
 11
574.682321
 21
-197.738135
 31
0.0
  0
LINE
  8
0
 10
575.825168
 20
-197.575458
 30
0.0
 11
574.682321
 21
-197.738135
 31
0.0
  0
LINE
  8
0
 10
575.825168
 20
-197.575458
 30
0.0
 11
575.508943
 21
-196.465249
 31
0.0
  0
LINE
  8
0
 10
576.628525
 20
-196.184003
 30
0.0
 11
575.508943
 21
-196.465249
 31
0.0
  0
LINE
  8
0
 10
576.628525
 20
-196.184003
 30
0.0
 11
576.197984
 21
-195.112931
 31
0.0
  0
LINE
  8
0
 10
577.282034
 20
-194.716197
 30
0.0
 11
576.197984
 21
-195.112931
 31
0.0
  0
LINE
  8
0
 10
577.282034
 20
-194.716197
 30
0.0
 11
576.741894
 21
-193.695996
 31
0.0
  0
LINE
  8
0
 10
577.778536
 20
-193.188122
 30
0.0
 11
576.741894
 21
-193.695996
 31
0.0
  0
LINE
  8
0
 10
577.778536
 20
-193.188122
 30
0.0
 11
577.134715
 21
-192.229969
 31
0.0
  0
LINE
  8
0
 10
578.112591
 20
-191.616518
 30
0.0
 11
577.134715
 21
-192.229969
 31
0.0
  0
LINE
  8
0
 10
578.112591
 20
-191.616518
 30
0.0
 11
577.372142
 21
-190.730912
 31
0.0
  0
LINE
  8
0
 10
578.280538
 20
-190.018606
 30
0.0
 11
577.372142
 21
-190.730912
 31
0.0
  0
LINE
  8
0
 10
578.280538
 20
-190.018606
 30
0.0
 11
577.451575
 21
-189.215249
 31
0.0
  0
LINE
  8
0
 10
578.280538
 20
-188.411892
 30
0.0
 11
577.451575
 21
-189.215249
 31
0.0
  0
LINE
  8
0
 10
578.280538
 20
-188.411892
 30
0.0
 11
577.372142
 21
-187.699587
 31
0.0
  0
LINE
  8
0
 10
578.112591
 20
-186.81398
 30
0.0
 11
577.372142
 21
-187.699587
 31
0.0
  0
LINE
  8
0
 10
578.112591
 20
-186.81398
 30
0.0
 11
577.134715
 21
-186.20053
 31
0.0
  0
LINE
  8
0
 10
577.778536
 20
-185.242377
 30
0.0
 11
577.134715
 21
-186.20053
 31
0.0
  0
LINE
  8
0
 10
577.778536
 20
-185.242377
 30
0.0
 11
576.741894
 21
-184.734503
 31
0.0
  0
LINE
  8
0
 10
577.282034
 20
-183.714301
 30
0.0
 11
576.741894
 21
-184.734503
 31
0.0
  0
LINE
  8
0
 10
577.282034
 20
-183.714301
 30
0.0
 11
576.197984
 21
-183.317568
 31
0.0
  0
LINE
  8
0
 10
576.628525
 20
-182.246495
 30
0.0
 11
576.197984
 21
-183.317568
 31
0.0
  0
LINE
  8
0
 10
576.628525
 20
-182.246495
 30
0.0
 11
575.508943
 21
-181.965249
 31
0.0
  0
LINE
  8
0
 10
575.825168
 20
-180.85504
 30
0.0
 11
575.508943
 21
-181.965249
 31
0.0
  0
LINE
  8
0
 10
575.825168
 20
-180.85504
 30
0.0
 11
574.682321
 21
-180.692363
 31
0.0
  0
LINE
  8
0
 10
574.880765
 20
-179.555181
 30
0.0
 11
574.682321
 21
-180.692363
 31
0.0
  0
LINE
  8
0
 10
574.880765
 20
-179.555181
 30
0.0
 11
573.727175
 21
-179.512855
 31
0.0
  0
LINE
  8
0
 10
573.805664
 20
-178.36116
 30
0.0
 11
573.727175
 21
-179.512855
 31
0.0
  0
LINE
  8
0
 10
573.805664
 20
-178.36116
 30
0.0
 11
572.653969
 21
-178.439649
 31
0.0
  0
LINE
  8
0
 10
572.611643
 20
-177.286059
 30
0.0
 11
572.653969
 21
-178.439649
 31
0.0
  0
LINE
  8
0
 10
572.611643
 20
-177.286059
 30
0.0
 11
571.474461
 21
-177.484503
 31
0.0
  0
LINE
  8
0
 10
571.311784
 20
-176.341656
 30
0.0
 11
571.474461
 21
-177.484503
 31
0.0
  0
LINE
  8
0
 10
571.311784
 20
-176.341656
 30
0.0
 11
570.201575
 21
-176.657881
 31
0.0
  0
LINE
  8
0
 10
569.920329
 20
-175.538299
 30
0.0
 11
570.201575
 21
-176.657881
 31
0.0
  0
LINE
  8
0
 10
569.920329
 20
-175.538299
 30
0.0
 11
568.849256
 21
-175.96884
 31
0.0
  0
LINE
  8
0
 10
568.452523
 20
-174.88479
 30
0.0
 11
568.849256
 21
-175.96884
 31
0.0
  0
LINE
  8
0
 10
568.452523
 20
-174.88479
 30
0.0
 11
567.432321
 21
-175.42493
 31
0.0
  0
LINE
  8
0
 10
566.924447
 20
-174.388288
 30
0.0
 11
567.432321
 21
-175.42493
 31
0.0
  0
LINE
  8
0
 10
566.924447
 20
-174.388288
 30
0.0
 11
565.966294
 21
-175.032109
 31
0.0
  0
LINE
  8
0
 10
565.352844
 20
-174.054233
 30
0.0
 11
565.966294
 21
-175.032109
 31
0.0
  0
LINE
  8
0
 10
565.352844
 20
-174.054233
 30
0.0
 11
564.467237
 21
-174.794682
 31
0.0
  0
LINE
  8
0
 10
563.754932
 20
-173.886286
 30
0.0
 11
564.467237
 21
-174.794682
 31
0.0
  0
LINE
  8
0
 10
563.754932
 20
-173.886286
 30
0.0
 11
562.951575
 21
-174.715249
 31
0.0
  0
LINE
  8
0
 10
563.754932
 20
-134.353786
 30
0.0
 11
563.754932
 21
-140.853786
 31
0.0
  0
LINE
  8
0
 10
565.352844
 20
-134.353786
 30
0.0
 11
565.352844
 21
-140.853786
 31
0.0
  0
LINE
  8
0
 10
566.924447
 20
-134.353786
 30
0.0
 11
566.924447
 21
-140.853786
 31
0.0
  0
LINE
  8
0
 10
568.452523
 20
-134.353786
 30
0.0
 11
568.452523
 21
-140.853786
 31
0.0
  0
LINE
  8
0
 10
569.920329
 20
-134.353786
 30
0.0
 11
569.920329
 21
-140.853786
 31
0.0
  0
LINE
  8
0
 10
571.311784
 20
-134.353786
 30
0.0
 11
571.311784
 21
-140.853786
 31
0.0
  0
LINE
  8
0
 10
572.611643
 20
-134.353786
 30
0.0
 11
572.611643
 21
-142.853786
 31
0.0
  0
LINE
  8
0
 10
573.805664
 20
-134.353786
 30
0.0
 11
573.805664
 21
-142.853786
 31
0.0
  0
LINE
  8
0
 10
574.880765
 20
-134.353786
 30
0.0
 11
574.880765
 21
-142.853786
 31
0.0
  0
LINE
  8
0
 10
575.825168
 20
-134.353786
 30
0.0
 11
575.825168
 21
-142.853786
 31
0.0
  0
LINE
  8
0
 10
576.628525
 20
-134.353786
 30
0.0
 11
576.628525
 21
-139.609749
 31
0.0
  0
LINE
  8
0
 10
577.282034
 20
-134.353786
 30
0.0
 11
577.282034
 21
-139.609749
 31
0.0
  0
LINE
  8
0
 10
577.778536
 20
-134.353786
 30
0.0
 11
577.778536
 21
-139.609749
 31
0.0
  0
LINE
  8
0
 10
578.112591
 20
-134.353786
 30
0.0
 11
578.112591
 21
-139.609749
 31
0.0
  0
LINE
  8
0
 10
564.467237
 20
-134.353786
 30
0.0
 11
564.467237
 21
-142.853786
 31
0.0
  0
LINE
  8
0
 10
565.966294
 20
-134.353786
 30
0.0
 11
565.966294
 21
-142.853786
 31
0.0
  0
LINE
  8
0
 10
567.432321
 20
-134.353786
 30
0.0
 11
567.432321
 21
-142.853786
 31
0.0
  0
LINE
  8
0
 10
568.849256
 20
-134.353786
 30
0.0
 11
568.849256
 21
-142.853786
 31
0.0
  0
LINE
  8
0
 10
570.201575
 20
-134.353786
 30
0.0
 11
570.201575
 21
-142.853786
 31
0.0
  0
LINE
  8
0
 10
571.474461
 20
-134.353786
 30
0.0
 11
571.474461
 21
-142.853786
 31
0.0
  0
LINE
  8
0
 10
562.951575
 20
-142.853786
 30
0.0
 11
563.754932
 21
-140.853786
 31
0.0
  0
LINE
  8
0
 10
563.754932
 20
-140.853786
 30
0.0
 11
564.467237
 21
-142.853786
 31
0.0
  0
LINE
  8
0
 10
564.467237
 20
-142.853786
 30
0.0
 11
565.352844
 21
-140.853786
 31
0.0
  0
LINE
  8
0
 10
565.352844
 20
-140.853786
 30
0.0
 11
565.966294
 21
-142.853786
 31
0.0
  0
LINE
  8
0
 10
565.966294
 20
-142.853786
 30
0.0
 11
566.924447
 21
-140.853786
 31
0.0
  0
LINE
  8
0
 10
566.924447
 20
-140.853786
 30
0.0
 11
567.432321
 21
-142.853786
 31
0.0
  0
LINE
  8
0
 10
567.432321
 20
-142.853786
 30
0.0
 11
568.452523
 21
-140.853786
 31
0.0
  0
LINE
  8
0
 10
568.452523
 20
-140.853786
 30
0.0
 11
568.849256
 21
-142.853786
 31
0.0
  0
LINE
  8
0
 10
568.849256
 20
-142.853786
 30
0.0
 11
569.920329
 21
-140.853786
 31
0.0
  0
LINE
  8
0
 10
569.920329
 20
-140.853786
 30
0.0
 11
570.201575
 21
-142.853786
 31
0.0
  0
LINE
  8
0
 10
570.201575
 20
-142.853786
 30
0.0
 11
571.311784
 21
-140.853786
 31
0.0
  0
LINE
  8
0
 10
571.311784
 20
-140.853786
 30
0.0
 11
571.474461
 21
-142.853786
 31
0.0
  0
LINE
  8
0
 10
571.474461
 20
-142.853786
 30
0.0
 11
572.611643
 21
-140.853786
 31
0.0
  0
LINE
  8
0
 10
572.611643
 20
-142.853786
 30
0.0
 11
573.805664
 21
-140.853786
 31
0.0
  0
LINE
  8
0
 10
573.805664
 20
-142.853786
 30
0.0
 11
574.880765
 21
-140.853786
 31
0.0
  0
LINE
  8
0
 10
574.880765
 20
-142.853786
 30
0.0
 11
575.825168
 21
-140.853786
 31
0.0
  0
LINE
  8
0
 10
578.112591
 20
-139.609749
 30
0.0
 11
578.461034
 21
-140.853786
 31
0.0
  0
LINE
  8
0
 10
578.461034
 20
-140.853786
 30
0.0
 11
578.461034
 21
-142.853786
 31
0.0
  0
LINE
  8
0
 10
577.778536
 20
-139.609749
 30
0.0
 11
578.070567
 21
-140.853786
 31
0.0
  0
LINE
  8
0
 10
578.070567
 20
-140.853786
 30
0.0
 11
578.070567
 21
-142.853786
 31
0.0
  0
LINE
  8
0
 10
577.282034
 20
-139.609749
 30
0.0
 11
577.454829
 21
-140.853786
 31
0.0
  0
LINE
  8
0
 10
577.454829
 20
-140.853786
 30
0.0
 11
577.454829
 21
-142.853786
 31
0.0
  0
LINE
  8
0
 10
576.628525
 20
-139.609749
 30
0.0
 11
576.70393
 21
-140.853786
 31
0.0
  0
LINE
  8
0
 10
576.70393
 20
-140.853786
 30
0.0
 11
576.70393
 21
-142.853786
 31
0.0
  0
LINE
  8
0
 10
575.825168
 20
-142.853786
 30
0.0
 11
576.70393
 21
-140.853786
 31
0.0
  0
LINE
  8
0
 10
576.70393
 20
-142.853786
 30
0.0
 11
577.454829
 21
-140.853786
 31
0.0
  0
LINE
  8
0
 10
577.454829
 20
-142.853786
 30
0.0
 11
578.070567
 21
-140.853786
 31
0.0
  0
LINE
  8
0
 10
578.070567
 20
-142.853786
 30
0.0
 11
578.461034
 21
-140.853786
 31
0.0
  0
LINE
  8
0
 10
578.461034
 20
-142.853786
 30
0.0
 11
578.701575
 21
-140.853786
 31
0.0
  0
LINE
  8
0
 10
537.326911
 20
5.927897
 30
0.0
 11
537.505925
 21
5.483346
 31
0.0
  0
LINE
  8
0
 10
537.505925
 20
5.483346
 30
0.0
 11
537.505925
 21
3.133346
 31
0.0
  0
LINE
  8
0
 10
537.080994
 20
5.927897
 30
0.0
 11
537.221895
 21
5.483346
 31
0.0
  0
LINE
  8
0
 10
537.221895
 20
5.483346
 30
0.0
 11
537.221895
 21
3.133346
 31
0.0
  0
LINE
  8
0
 10
536.715491
 20
5.927897
 30
0.0
 11
536.828241
 21
5.483346
 31
0.0
  0
LINE
  8
0
 10
536.828241
 20
5.483346
 30
0.0
 11
536.828241
 21
3.133346
 31
0.0
  0
LINE
  8
0
 10
536.234406
 20
5.927897
 30
0.0
 11
536.285097
 21
5.483346
 31
0.0
  0
LINE
  8
0
 10
536.285097
 20
5.483346
 30
0.0
 11
536.285097
 21
3.133346
 31
0.0
  0
LINE
  8
0
 10
535.64301
 20
3.133346
 30
0.0
 11
536.285097
 21
5.483346
 31
0.0
  0
LINE
  8
0
 10
536.285097
 20
3.133346
 30
0.0
 11
536.828241
 21
5.483346
 31
0.0
  0
LINE
  8
0
 10
536.828241
 20
3.133346
 30
0.0
 11
537.221895
 21
5.483346
 31
0.0
  0
LINE
  8
0
 10
537.221895
 20
3.133346
 30
0.0
 11
537.505925
 21
5.483346
 31
0.0
  0
LINE
  8
0
 10
537.505925
 20
3.133346
 30
0.0
 11
537.666033
 21
5.483346
 31
0.0
  0
CIRCLE
  8
0
 10
562.951575
 20
-189.215249
 30
0.0
 40
26.0
  0
CIRCLE
  8
0
 10
562.951575
 20
-189.215249
 30
0.0
 40
12.52
  0
ENDSEC
  0
EOF
