  0
SECTION
  2
HEADER
  9
$ACADVER
  1
AC1009
  9
$INSBASE
 10
0.0
 20
0.0
 30
0.0
  9
$EXTMIN
 10
-554.699723
 20
49.391586
 30
0.0
  9
$EXTMAX
 10
-353.834978
 20
172.067215
 30
4.0
  9
$LIMMIN
 10
0.0
 20
0.0
  9
$LIMMAX
 10
12.0
 20
9.0
  9
$ORTHOMODE
 70
     1
  9
$REGENMODE
 70
     1
  9
$FILLMODE
 70
     1
  9
$QTEXTMODE
 70
     0
  9
$MIRRTEXT
 70
     1
  9
$DRAGMODE
 70
     2
  9
$LTSCALE
 40
3.0
  9
$OSMODE
 70
     0
  9
$ATTMODE
 70
     1
  9
$TEXTSIZE
 40
0.2
  9
$TRACEWID
 40
0.05
  9
$TEXTSTYLE
  7
STANDARD
  9
$CLAYER
  8
0
  9
$CELTYPE
  6
BYLAYER
  9
$CECOLOR
 62
   256
  9
$DIMSCALE
 40
1.0
  9
$DIMASZ
 40
2.5
  9
$DIMEXO
 40
0.0
  9
$DIMDLI
 40
5.0
  9
$DIMRND
 40
0.0
  9
$DIMDLE
 40
0.0
  9
$DIMEXE
 40
1.0
  9
$DIMTP
 40
0.0
  9
$DIMTM
 40
0.0
  9
$DIMTXT
 40
2.5
  9
$DIMCEN
 40
0.09
  9
$DIMTSZ
 40
0.0
  9
$DIMTOL
 70
     0
  9
$DIMLIM
 70
     0
  9
$DIMTIH
 70
     0
  9
$DIMTOH
 70
     0
  9
$DIMSE1
 70
     0
  9
$DIMSE2
 70
     0
  9
$DIMTAD
 70
     1
  9
$DIMZIN
 70
     0
  9
$DIMBLK
  1

  9
$DIMASO
 70
     0
  9
$DIMSHO
 70
     0
  9
$DIMPOST
  1

  9
$DIMAPOST
  1

  9
$DIMALT
 70
     0
  9
$DIMALTD
 70
     2
  9
$DIMALTF
 40
25.4
  9
$DIMLFAC
 40
1.0
  9
$DIMTOFL
 70
     1
  9
$DIMTVP
 40
0.0
  9
$DIMTIX
 70
     0
  9
$DIMSOXD
 70
     0
  9
$DIMSAH
 70
     0
  9
$DIMBLK1
  1

  9
$DIMBLK2
  1

  9
$DIMSTYLE
  2
*UNNAMED
  9
$DIMCLRD
 70
     0
  9
$DIMCLRE
 70
     0
  9
$DIMCLRT
 70
     0
  9
$DIMTFAC
 40
1.0
  9
$DIMGAP
 40
0.09
  9
$LUNITS
 70
     2
  9
$LUPREC
 70
     4
  9
$SKETCHINC
 40
0.1
  9
$FILLETRAD
 40
0.0
  9
$AUNITS
 70
     0
  9
$AUPREC
 70
     0
  9
$MENU
  1
wiberger
  9
$ELEVATION
 40
0.0
  9
$PELEVATION
 40
0.0
  9
$THICKNESS
 40
0.0
  9
$LIMCHECK
 70
     0
  9
$BLIPMODE
 70
     1
  9
$CHAMFERA
 40
2.0
  9
$CHAMFERB
 40
2.0
  9
$SKPOLY
 70
     0
  9
$TDCREATE
 40
2450192.492696180
  9
$TDUPDATE
 40
2450211.548547338
  9
$TDINDWG
 40
0.0006001157
  9
$TDUSRTIMER
 40
0.0006001157
  9
$USRTIMER
 70
     1
  9
$ANGBASE
 50
0.0
  9
$ANGDIR
 70
     0
  9
$PDMODE
 70
     0
  9
$PDSIZE
 40
0.0
  9
$PLINEWID
 40
0.0
  9
$COORDS
 70
     0
  9
$SPLFRAME
 70
     0
  9
$SPLINETYPE
 70
     6
  9
$SPLINESEGS
 70
     8
  9
$ATTDIA
 70
     0
  9
$ATTREQ
 70
     1
  9
$HANDLING
 70
     0
  9
$HANDSEED
  5
0
  9
$SURFTAB1
 70
     6
  9
$SURFTAB2
 70
     6
  9
$SURFTYPE
 70
     6
  9
$SURFU
 70
     6
  9
$SURFV
 70
     6
  9
$UCSNAME
  2

  9
$UCSORG
 10
0.0
 20
0.0
 30
0.0
  9
$UCSXDIR
 10
1.0
 20
0.0
 30
0.0
  9
$UCSYDIR
 10
0.0
 20
1.0
 30
0.0
  9
$PUCSNAME
  2

  9
$PUCSORG
 10
0.0
 20
0.0
 30
0.0
  9
$PUCSXDIR
 10
1.0
 20
0.0
 30
0.0
  9
$PUCSYDIR
 10
0.0
 20
1.0
 30
0.0
  9
$USERI1
 70
     0
  9
$USERI2
 70
     0
  9
$USERI3
 70
     0
  9
$USERI4
 70
     0
  9
$USERI5
 70
     0
  9
$USERR1
 40
0.0
  9
$USERR2
 40
0.0
  9
$USERR3
 40
0.0
  9
$USERR4
 40
0.0
  9
$USERR5
 40
0.0
  9
$WORLDVIEW
 70
     1
  9
$SHADEDGE
 70
     3
  9
$SHADEDIF
 70
    70
  9
$TILEMODE
 70
     1
  9
$MAXACTVP
 70
    16
  9
$PINSBASE
 10
0.0
 20
0.0
 30
0.0
  9
$PLIMCHECK
 70
     0
  9
$PEXTMIN
 10
1.000000E+20
 20
1.000000E+20
 30
1.000000E+20
  9
$PEXTMAX
 10
-1.000000E+20
 20
-1.000000E+20
 30
-1.000000E+20
  9
$PLIMMIN
 10
0.0
 20
0.0
  9
$PLIMMAX
 10
12.0
 20
9.0
  9
$UNITMODE
 70
     0
  9
$VISRETAIN
 70
     0
  9
$PLINEGEN
 70
     0
  9
$PSLTSCALE
 70
     0
  9
$TREEDEPTH
 70
  3020
  9
$DWGCODEPAGE
  3
undefined
  0
ENDSEC
  0
SECTION
  2
TABLES
  0
TABLE
  2
VPORT
 70
     2
  0
VPORT
  2
*ACTIVE
 70
     0
 10
0.0
 20
0.0
 11
1.0
 21
1.0
 12
-421.659171
 22
115.092146
 13
0.0
 23
0.0
 14
1.0
 24
1.0
 15
0.0
 25
0.0
 16
0.0
 26
0.0
 36
1.0
 17
0.0
 27
0.0
 37
0.0
 40
158.15642
 41
1.767507
 42
50.0
 43
0.0
 44
0.0
 50
0.0
 51
0.0
 71
     0
 72
   100
 73
     1
 74
     0
 75
     0
 76
     0
 77
     0
 78
     0
  0
ENDTAB
  0
TABLE
  2
LTYPE
 70
     2
  0
LTYPE
  2
CONTINUOUS
 70
    64
  3
Solid line
 72
    65
 73
     0
 40
0.0
  0
LTYPE
  2
CENTER
 70
    64
  3
____ _ ____ _ ____ _ ____ _ ____ _ ____ _ ____
 72
    65
 73
     4
 40
2.0
 49
1.25
 49
-0.25
 49
0.25
 49
-0.25
  0
ENDTAB
  0
TABLE
  2
LAYER
 70
     1
  0
LAYER
  2
0
 70
    64
 62
     7
  6
CONTINUOUS
  0
ENDTAB
  0
TABLE
  2
STYLE
 70
     1
  0
STYLE
  2
STANDARD
 70
     0
 40
0.0
 41
1.0
 50
0.0
 71
     0
 42
0.2
  3
txt
  4

  0
ENDTAB
  0
TABLE
  2
VIEW
 70
     0
  0
ENDTAB
  0
TABLE
  2
UCS
 70
     0
  0
ENDTAB
  0
TABLE
  2
APPID
 70
     1
  0
APPID
  2
ACAD
 70
    64
  0
ENDTAB
  0
TABLE
  2
DIMSTYLE
 70
     0
  0
ENDTAB
  0
ENDSEC
  0
SECTION
  2
BLOCKS
  0
BLOCK
  8
0
  2
*X0
 70
    65
 10
0.0
 20
0.0
 30
0.0
  3
*X
  0
LINE
  8
0
 62
     0
 10
-536.97203
 20
180.034246
 30
0.0
 11
-534.815419
 21
182.190857
 31
0.0
  0
LINE
  8
0
 62
     0
 10
-538.386244
 20
180.034246
 30
0.0
 11
-535.386244
 21
183.034246
 31
0.0
  0
LINE
  8
0
 62
     0
 10
-539.158807
 20
180.675896
 30
0.0
 11
-536.800457
 21
183.034246
 31
0.0
  0
LINE
  8
0
 62
     0
 10
-539.158807
 20
182.09011
 30
0.0
 11
-538.214671
 21
183.034246
 31
0.0
  0
LINE
  8
0
 62
     0
 10
-535.557817
 20
180.034246
 30
0.0
 11
-534.108312
 21
181.483751
 31
0.0
  0
LINE
  8
0
 62
     0
 10
-534.143603
 20
180.034246
 30
0.0
 11
-533.401205
 21
180.776644
 31
0.0
  0
ENDBLK
  8
0
  0
BLOCK
  8
0
  2
*X1
 70
    65
 10
0.0
 20
0.0
 30
0.0
  3
*X
  0
LINE
  8
0
 62
     0
 10
-510.409197
 20
179.727021
 30
0.0
 11
-507.409197
 21
182.727021
 31
0.0
  0
LINE
  8
0
 62
     0
 10
-511.823411
 20
179.727021
 30
0.0
 11
-508.823411
 21
182.727021
 31
0.0
  0
LINE
  8
0
 62
     0
 10
-513.236702
 20
179.727943
 30
0.0
 11
-510.237624
 21
182.727021
 31
0.0
  0
LINE
  8
0
 62
     0
 10
-513.236702
 20
181.142157
 30
0.0
 11
-511.651838
 21
182.727021
 31
0.0
  0
LINE
  8
0
 62
     0
 10
-508.994984
 20
179.727021
 30
0.0
 11
-506.990843
 21
181.731162
 31
0.0
  0
LINE
  8
0
 62
     0
 10
-507.58077
 20
179.727021
 30
0.0
 11
-506.283736
 21
181.024055
 31
0.0
  0
LINE
  8
0
 62
     0
 10
-506.166557
 20
179.727021
 30
0.0
 11
-505.576629
 21
180.316948
 31
0.0
  0
ENDBLK
  8
0
  0
BLOCK
  8
0
  2
*X2
 70
    65
 10
0.0
 20
0.0
 30
0.0
  3
*X
  0
LINE
  8
0
 62
     0
 10
-449.555051
 20
179.769985
 30
0.0
 11
-446.370062
 21
182.954974
 31
0.0
  0
LINE
  8
0
 62
     0
 10
-450.969264
 20
179.769985
 30
0.0
 11
-447.469264
 21
183.269985
 31
0.0
  0
LINE
  8
0
 62
     0
 10
-452.383478
 20
179.769985
 30
0.0
 11
-448.883478
 21
183.269985
 31
0.0
  0
LINE
  8
0
 62
     0
 10
-453.797691
 20
179.769985
 30
0.0
 11
-450.297691
 21
183.269985
 31
0.0
  0
LINE
  8
0
 62
     0
 10
-453.870062
 20
181.111828
 30
0.0
 11
-451.711905
 21
183.269985
 31
0.0
  0
LINE
  8
0
 62
     0
 10
-448.140837
 20
179.769985
 30
0.0
 11
-445.880449
 21
182.030372
 31
0.0
  0
LINE
  8
0
 62
     0
 10
-446.726623
 20
179.769985
 30
0.0
 11
-445.173343
 21
181.323266
 31
0.0
  0
LINE
  8
0
 62
     0
 10
-445.31241
 20
179.769985
 30
0.0
 11
-444.466236
 21
180.616159
 31
0.0
  0
ENDBLK
  8
0
  0
BLOCK
  8
0
  2
*X3
 70
    65
 10
0.0
 20
0.0
 30
0.0
  3
*X
  0
LINE
  8
0
 62
     0
 10
-414.478496
 20
180.905414
 30
0.0
 11
-410.978496
 21
184.405414
 31
0.0
  0
LINE
  8
0
 62
     0
 10
-415.89271
 20
180.905414
 30
0.0
 11
-412.39271
 21
184.405414
 31
0.0
  0
LINE
  8
0
 62
     0
 10
-417.306923
 20
180.905414
 30
0.0
 11
-413.806923
 21
184.405414
 31
0.0
  0
LINE
  8
0
 62
     0
 10
-418.721137
 20
180.905414
 30
0.0
 11
-415.221137
 21
184.405414
 31
0.0
  0
LINE
  8
0
 62
     0
 10
-418.740106
 20
182.300658
 30
0.0
 11
-416.63535
 21
184.405414
 31
0.0
  0
LINE
  8
0
 62
     0
 10
-413.064283
 20
180.905414
 30
0.0
 11
-409.740106
 21
184.22959
 31
0.0
  0
LINE
  8
0
 62
     0
 10
-411.650069
 20
180.905414
 30
0.0
 11
-409.320087
 21
183.235395
 31
0.0
  0
LINE
  8
0
 62
     0
 10
-410.235856
 20
180.905414
 30
0.0
 11
-408.612981
 21
182.528288
 31
0.0
  0
LINE
  8
0
 62
     0
 10
-408.821642
 20
180.905414
 30
0.0
 11
-407.905874
 21
181.821182
 31
0.0
  0
LINE
  8
0
 62
     0
 10
-407.407428
 20
180.905414
 30
0.0
 11
-407.390106
 21
180.922736
 31
0.0
  0
ENDBLK
  8
0
  0
BLOCK
  8
0
  2
*X4
 70
    65
 10
0.0
 20
0.0
 30
0.0
  3
*X
  0
LINE
  8
0
 62
     0
 10
-371.603834
 20
181.353669
 30
0.0
 11
-367.603834
 21
185.353669
 31
0.0
  0
LINE
  8
0
 62
     0
 10
-373.018047
 20
181.353669
 30
0.0
 11
-369.018047
 21
185.353669
 31
0.0
  0
LINE
  8
0
 62
     0
 10
-374.432261
 20
181.353669
 30
0.0
 11
-370.432261
 21
185.353669
 31
0.0
  0
LINE
  8
0
 62
     0
 10
-375.846474
 20
181.353669
 30
0.0
 11
-371.846474
 21
185.353669
 31
0.0
  0
LINE
  8
0
 62
     0
 10
-376.267434
 20
182.346924
 30
0.0
 11
-373.260688
 21
185.353669
 31
0.0
  0
LINE
  8
0
 62
     0
 10
-376.267434
 20
183.761137
 30
0.0
 11
-374.674901
 21
185.353669
 31
0.0
  0
LINE
  8
0
 62
     0
 10
-370.18962
 20
181.353669
 30
0.0
 11
-366.267434
 21
185.275856
 31
0.0
  0
LINE
  8
0
 62
     0
 10
-368.775406
 20
181.353669
 30
0.0
 11
-365.89642
 21
184.232656
 31
0.0
  0
LINE
  8
0
 62
     0
 10
-367.361193
 20
181.353669
 30
0.0
 11
-365.189313
 21
183.525549
 31
0.0
  0
LINE
  8
0
 62
     0
 10
-365.946979
 20
181.353669
 30
0.0
 11
-364.482206
 21
182.818442
 31
0.0
  0
LINE
  8
0
 62
     0
 10
-364.532766
 20
181.353669
 30
0.0
 11
-363.7751
 21
182.111335
 31
0.0
  0
ENDBLK
  8
0
  0
BLOCK
  8
0
  2
*X5
 70
    65
 10
0.0
 20
0.0
 30
0.0
  3
*X
  0
LINE
  8
0
 62
     0
 10
-544.643818
 20
97.409139
 30
0.0
 11
-540.643818
 21
101.409139
 31
0.0
  0
LINE
  8
0
 62
     0
 10
-546.058032
 20
97.409139
 30
0.0
 11
-542.058032
 21
101.409139
 31
0.0
  0
LINE
  8
0
 62
     0
 10
-547.472245
 20
97.409139
 30
0.0
 11
-543.472245
 21
101.409139
 31
0.0
  0
LINE
  8
0
 62
     0
 10
-548.886459
 20
97.409139
 30
0.0
 11
-544.886459
 21
101.409139
 31
0.0
  0
LINE
  8
0
 62
     0
 10
-550.300672
 20
97.409139
 30
0.0
 11
-546.300672
 21
101.409139
 31
0.0
  0
LINE
  8
0
 62
     0
 10
-551.064421
 20
98.059604
 30
0.0
 11
-547.714886
 21
101.409139
 31
0.0
  0
LINE
  8
0
 62
     0
 10
-551.064421
 20
99.473817
 30
0.0
 11
-549.129099
 21
101.409139
 31
0.0
  0
LINE
  8
0
 62
     0
 10
-543.229604
 20
97.409139
 30
0.0
 11
-539.229604
 21
101.409139
 31
0.0
  0
LINE
  8
0
 62
     0
 10
-541.815391
 20
97.409139
 30
0.0
 11
-538.814906
 21
100.409624
 31
0.0
  0
LINE
  8
0
 62
     0
 10
-540.401177
 20
97.409139
 30
0.0
 11
-538.107799
 21
99.702517
 31
0.0
  0
LINE
  8
0
 62
     0
 10
-538.986964
 20
97.409139
 30
0.0
 11
-537.400693
 21
98.99541
 31
0.0
  0
LINE
  8
0
 62
     0
 10
-537.57275
 20
97.409139
 30
0.0
 11
-536.693586
 21
98.288304
 31
0.0
  0
ENDBLK
  8
0
  0
BLOCK
  8
0
  2
*X6
 70
    65
 10
0.0
 20
0.0
 30
0.0
  3
*X
  0
LINE
  8
0
 62
     0
 10
-498.821194
 20
96.562716
 30
0.0
 11
-493.821194
 21
101.562716
 31
0.0
  0
LINE
  8
0
 62
     0
 10
-500.235407
 20
96.562716
 30
0.0
 11
-495.235407
 21
101.562716
 31
0.0
  0
LINE
  8
0
 62
     0
 10
-501.649621
 20
96.562716
 30
0.0
 11
-496.649621
 21
101.562716
 31
0.0
  0
LINE
  8
0
 62
     0
 10
-503.063834
 20
96.562716
 30
0.0
 11
-498.063834
 21
101.562716
 31
0.0
  0
LINE
  8
0
 62
     0
 10
-504.478048
 20
96.562716
 30
0.0
 11
-499.478048
 21
101.562716
 31
0.0
  0
LINE
  8
0
 62
     0
 10
-505.826685
 20
96.628292
 30
0.0
 11
-500.892261
 21
101.562716
 31
0.0
  0
LINE
  8
0
 62
     0
 10
-505.826685
 20
98.042506
 30
0.0
 11
-502.306475
 21
101.562716
 31
0.0
  0
LINE
  8
0
 62
     0
 10
-505.826685
 20
99.456719
 30
0.0
 11
-503.720689
 21
101.562716
 31
0.0
  0
LINE
  8
0
 62
     0
 10
-497.40698
 20
96.562716
 30
0.0
 11
-492.40698
 21
101.562716
 31
0.0
  0
LINE
  8
0
 62
     0
 10
-495.992766
 20
96.562716
 30
0.0
 11
-491.784726
 21
100.770757
 31
0.0
  0
LINE
  8
0
 62
     0
 10
-494.578553
 20
96.562716
 30
0.0
 11
-491.077619
 21
100.06365
 31
0.0
  0
LINE
  8
0
 62
     0
 10
-493.164339
 20
96.562716
 30
0.0
 11
-490.370512
 21
99.356543
 31
0.0
  0
LINE
  8
0
 62
     0
 10
-491.750126
 20
96.562716
 30
0.0
 11
-489.663406
 21
98.649436
 31
0.0
  0
LINE
  8
0
 62
     0
 10
-490.335912
 20
96.562716
 30
0.0
 11
-489.026685
 21
97.871943
 31
0.0
  0
ENDBLK
  8
0
  0
BLOCK
  8
0
  2
*X7
 70
    65
 10
0.0
 20
0.0
 30
0.0
  3
*X
  0
LINE
  8
0
 62
     0
 10
-451.918436
 20
92.553785
 30
0.0
 11
-445.918436
 21
98.553785
 31
0.0
  0
LINE
  8
0
 62
     0
 10
-453.33265
 20
92.553785
 30
0.0
 11
-447.33265
 21
98.553785
 31
0.0
  0
LINE
  8
0
 62
     0
 10
-454.746864
 20
92.553785
 30
0.0
 11
-448.746864
 21
98.553785
 31
0.0
  0
LINE
  8
0
 62
     0
 10
-456.161077
 20
92.553785
 30
0.0
 11
-450.161077
 21
98.553785
 31
0.0
  0
LINE
  8
0
 62
     0
 10
-457.575291
 20
92.553785
 30
0.0
 11
-451.575291
 21
98.553785
 31
0.0
  0
LINE
  8
0
 62
     0
 10
-458.989504
 20
92.553785
 30
0.0
 11
-452.989504
 21
98.553785
 31
0.0
  0
LINE
  8
0
 62
     0
 10
-459.177813
 20
93.779689
 30
0.0
 11
-454.403718
 21
98.553785
 31
0.0
  0
LINE
  8
0
 62
     0
 10
-459.177813
 20
95.193903
 30
0.0
 11
-455.817931
 21
98.553785
 31
0.0
  0
LINE
  8
0
 62
     0
 10
-459.177813
 20
96.608117
 30
0.0
 11
-457.232145
 21
98.553785
 31
0.0
  0
LINE
  8
0
 62
     0
 10
-450.504223
 20
92.553785
 30
0.0
 11
-444.504223
 21
98.553785
 31
0.0
  0
LINE
  8
0
 62
     0
 10
-449.090009
 20
92.553785
 30
0.0
 11
-443.090009
 21
98.553785
 31
0.0
  0
LINE
  8
0
 62
     0
 10
-447.675796
 20
92.553785
 30
0.0
 11
-442.551805
 21
97.677776
 31
0.0
  0
LINE
  8
0
 62
     0
 10
-446.261582
 20
92.553785
 30
0.0
 11
-441.844698
 21
96.970669
 31
0.0
  0
LINE
  8
0
 62
     0
 10
-444.847369
 20
92.553785
 30
0.0
 11
-441.137591
 21
96.263563
 31
0.0
  0
LINE
  8
0
 62
     0
 10
-443.433155
 20
92.553785
 30
0.0
 11
-440.430484
 21
95.556456
 31
0.0
  0
LINE
  8
0
 62
     0
 10
-442.018942
 20
92.553785
 30
0.0
 11
-439.877813
 21
94.694913
 31
0.0
  0
LINE
  8
0
 62
     0
 10
-440.604728
 20
92.553785
 30
0.0
 11
-439.877813
 21
93.2807
 31
0.0
  0
ENDBLK
  8
0
  0
BLOCK
  8
0
  2
*X8
 70
    65
 10
0.0
 20
0.0
 30
0.0
  3
*X
  0
LINE
  8
0
 62
     0
 10
-399.328973
 20
94.23156
 30
0.0
 11
-393.328973
 21
100.23156
 31
0.0
  0
LINE
  8
0
 62
     0
 10
-400.743187
 20
94.23156
 30
0.0
 11
-394.743187
 21
100.23156
 31
0.0
  0
LINE
  8
0
 62
     0
 10
-402.157401
 20
94.23156
 30
0.0
 11
-396.157401
 21
100.23156
 31
0.0
  0
LINE
  8
0
 62
     0
 10
-403.571614
 20
94.23156
 30
0.0
 11
-397.571614
 21
100.23156
 31
0.0
  0
LINE
  8
0
 62
     0
 10
-404.985828
 20
94.23156
 30
0.0
 11
-398.985828
 21
100.23156
 31
0.0
  0
LINE
  8
0
 62
     0
 10
-406.400041
 20
94.23156
 30
0.0
 11
-400.400041
 21
100.23156
 31
0.0
  0
LINE
  8
0
 62
     0
 10
-407.814255
 20
94.23156
 30
0.0
 11
-401.814255
 21
100.23156
 31
0.0
  0
LINE
  8
0
 62
     0
 10
-407.973346
 20
95.486682
 30
0.0
 11
-403.228468
 21
100.23156
 31
0.0
  0
LINE
  8
0
 62
     0
 10
-407.973346
 20
96.900896
 30
0.0
 11
-404.642682
 21
100.23156
 31
0.0
  0
LINE
  8
0
 62
     0
 10
-397.91476
 20
94.23156
 30
0.0
 11
-391.91476
 21
100.23156
 31
0.0
  0
LINE
  8
0
 62
     0
 10
-396.500546
 20
94.23156
 30
0.0
 11
-390.500546
 21
100.23156
 31
0.0
  0
LINE
  8
0
 62
     0
 10
-395.086333
 20
94.23156
 30
0.0
 11
-389.086333
 21
100.23156
 31
0.0
  0
LINE
  8
0
 62
     0
 10
-393.672119
 20
94.23156
 30
0.0
 11
-387.973346
 21
99.930333
 31
0.0
  0
LINE
  8
0
 62
     0
 10
-392.257906
 20
94.23156
 30
0.0
 11
-387.490626
 21
98.99884
 31
0.0
  0
LINE
  8
0
 62
     0
 10
-390.843692
 20
94.23156
 30
0.0
 11
-386.783519
 21
98.291733
 31
0.0
  0
LINE
  8
0
 62
     0
 10
-389.429478
 20
94.23156
 30
0.0
 11
-386.076412
 21
97.584626
 31
0.0
  0
LINE
  8
0
 62
     0
 10
-388.015265
 20
94.23156
 30
0.0
 11
-385.369306
 21
96.877519
 31
0.0
  0
LINE
  8
0
 62
     0
 10
-386.601051
 20
94.23156
 30
0.0
 11
-385.173346
 21
95.659265
 31
0.0
  0
LINE
  8
0
 62
     0
 10
-385.186838
 20
94.23156
 30
0.0
 11
-385.173346
 21
94.245051
 31
0.0
  0
ENDBLK
  8
0
  0
BLOCK
  8
0
  2
*X9
 70
    65
 10
0.0
 20
0.0
 30
0.0
  3
*X
  0
LINE
  8
0
 62
     0
 10
-480.688423
 20
182.577737
 30
0.0
 11
-477.554075
 21
185.712086
 31
0.0
  0
LINE
  8
0
 62
     0
 10
-482.102637
 20
182.577737
 30
0.0
 11
-478.602637
 21
186.077737
 31
0.0
  0
LINE
  8
0
 62
     0
 10
-483.516851
 20
182.577737
 30
0.0
 11
-480.016851
 21
186.077737
 31
0.0
  0
LINE
  8
0
 62
     0
 10
-483.554075
 20
183.954727
 30
0.0
 11
-481.431064
 21
186.077737
 31
0.0
  0
LINE
  8
0
 62
     0
 10
-479.27421
 20
182.577737
 30
0.0
 11
-477.039142
 21
184.812805
 31
0.0
  0
LINE
  8
0
 62
     0
 10
-477.859996
 20
182.577737
 30
0.0
 11
-476.332036
 21
184.105698
 31
0.0
  0
LINE
  8
0
 62
     0
 10
-476.445783
 20
182.577737
 30
0.0
 11
-475.624929
 21
183.398591
 31
0.0
  0
ENDBLK
  8
0
  0
ENDSEC
  0
SECTION
  2
ENTITIES
  0
LINE
  8
0
 10
-551.442807
 20
167.961317
 30
0.0
 11
-536.442807
 21
167.961317
 31
0.0
  0
LINE
  8
0
 10
-551.942807
 20
164.961317
 30
0.0
 11
-535.942807
 21
164.961317
 31
0.0
  0
LINE
  8
0
  6
CENTER
 39
4.0
 10
-543.942807
 20
163.31384
 30
0.0
 11
-543.942807
 21
169.803588
 31
0.0
  0
LINE
  8
0
 10
-551.942807
 20
164.961317
 30
0.0
 11
-551.942807
 21
167.461317
 31
0.0
  0
LINE
  8
0
 10
-535.942807
 20
164.961317
 30
0.0
 11
-535.942807
 21
167.461317
 31
0.0
  0
LINE
  8
0
 10
-547.942807
 20
167.461317
 30
0.0
 11
-543.942807
 21
167.461317
 31
0.0
  0
LINE
  8
0
 10
-546.092807
 20
164.961317
 30
0.0
 11
-546.092807
 21
165.611317
 31
0.0
  0
LINE
  8
0
  6
CONTINUOUS
 10
-547.942807
 20
167.461317
 30
0.0
 11
-547.942807
 21
167.961317
 31
0.0
  0
LINE
  8
0
 10
-547.942807
 20
167.461317
 30
0.0
 11
-546.092807
 21
165.611317
 31
0.0
  0
LINE
  8
0
 10
-546.092807
 20
165.611317
 30
0.0
 11
-543.942807
 21
165.611317
 31
0.0
  0
LINE
  8
0
 10
-551.442807
 20
167.961317
 30
0.0
 11
-551.942807
 21
167.461317
 31
0.0
  0
LINE
  8
0
 10
-536.442807
 20
167.961317
 30
0.0
 11
-535.942807
 21
167.461317
 31
0.0
  0
LINE
  8
0
 10
-535.942807
 20
167.461317
 30
0.0
 11
-543.942807
 21
167.461317
 31
0.0
  0
LINE
  8
0
 10
-528.292766
 20
164.961317
 30
0.0
 11
-528.292766
 21
167.211317
 31
0.0
  0
LINE
  8
0
 10
-528.292766
 20
164.961317
 30
0.0
 11
-508.292766
 21
164.961317
 31
0.0
  0
LINE
  8
0
 10
-508.292766
 20
164.961317
 30
0.0
 11
-508.292766
 21
167.211317
 31
0.0
  0
LINE
  8
0
  6
CENTER
 39
4.0
 10
-518.292766
 20
162.936973
 30
0.0
 11
-518.292766
 21
169.779864
 31
0.0
  0
LINE
  8
0
 10
-520.442766
 20
164.961317
 30
0.0
 11
-520.442766
 21
165.361317
 31
0.0
  0
LINE
  8
0
 10
-498.610138
 20
164.961317
 30
0.0
 11
-476.610138
 21
164.961317
 31
0.0
  0
LINE
  8
0
 10
-497.860138
 20
168.461317
 30
0.0
 11
-477.360138
 21
168.461317
 31
0.0
  0
LINE
  8
0
 10
-498.610138
 20
167.711317
 30
0.0
 11
-498.610138
 21
164.961317
 31
0.0
  0
LINE
  8
0
 10
-476.610138
 20
167.711317
 30
0.0
 11
-476.610138
 21
164.961317
 31
0.0
  0
LINE
  8
0
  6
CENTER
 39
4.0
 10
-487.610138
 20
162.977104
 30
0.0
 11
-487.610138
 21
170.229745
 31
0.0
  0
LINE
  8
0
 10
-490.260138
 20
164.961317
 30
0.0
 11
-490.260138
 21
165.361317
 31
0.0
  0
LINE
  8
0
 10
-492.610138
 20
167.711317
 30
0.0
 11
-492.610138
 21
168.461317
 31
0.0
  0
LINE
  8
0
 10
-492.610138
 20
167.711317
 30
0.0
 11
-476.610138
 21
167.711317
 31
0.0
  0
LINE
  8
0
 10
-476.610138
 20
167.711317
 30
0.0
 11
-477.360138
 21
168.461317
 31
0.0
  0
LINE
  8
0
 10
-497.860138
 20
168.461317
 30
0.0
 11
-498.610138
 21
167.711317
 31
0.0
  0
LINE
  8
0
 10
-492.610138
 20
167.711317
 30
0.0
 11
-490.260138
 21
165.361317
 31
0.0
  0
LINE
  8
0
 10
-490.260138
 20
165.361317
 30
0.0
 11
-487.610138
 21
165.361317
 31
0.0
  0
LINE
  8
0
 10
-527.542766
 20
167.961317
 30
0.0
 11
-509.042766
 21
167.961317
 31
0.0
  0
LINE
  8
0
  6
CONTINUOUS
 10
-522.292766
 20
167.211317
 30
0.0
 11
-522.292766
 21
167.961317
 31
0.0
  0
LINE
  8
0
 10
-522.292766
 20
167.211317
 30
0.0
 11
-508.292766
 21
167.211317
 31
0.0
  0
LINE
  8
0
 10
-522.292766
 20
167.211317
 30
0.0
 11
-520.442766
 21
165.361317
 31
0.0
  0
LINE
  8
0
 10
-508.292766
 20
167.211317
 30
0.0
 11
-509.042766
 21
167.961317
 31
0.0
  0
LINE
  8
0
 10
-527.542766
 20
167.961317
 30
0.0
 11
-528.292766
 21
167.211317
 31
0.0
  0
LINE
  8
0
 10
-520.442766
 20
165.361317
 30
0.0
 11
-518.292766
 21
165.361317
 31
0.0
  0
CIRCLE
  8
0
 10
-543.942807
 20
153.021479
 30
0.0
 40
8.0
  0
CIRCLE
  8
0
 10
-543.942807
 20
153.021479
 30
0.0
 40
2.15
  0
CIRCLE
  8
0
 10
-543.942807
 20
153.021479
 30
0.0
 40
4.0
  0
CIRCLE
  8
0
 10
-543.942807
 20
153.021479
 30
0.0
 40
7.5
  0
CIRCLE
  8
0
 10
-518.292766
 20
150.957758
 30
0.0
 40
10.0
  0
CIRCLE
  8
0
 10
-518.292766
 20
150.957758
 30
0.0
 40
9.25
  0
CIRCLE
  8
0
 10
-518.292766
 20
150.957758
 30
0.0
 40
2.15
  0
CIRCLE
  8
0
 10
-518.292766
 20
150.957758
 30
0.0
 40
4.0
  0
CIRCLE
  8
0
 10
-487.610138
 20
148.790868
 30
0.0
 40
11.0
  0
CIRCLE
  8
0
 10
-487.610138
 20
148.790868
 30
0.0
 40
5.0
  0
CIRCLE
  8
0
 10
-487.610138
 20
148.790868
 30
0.0
 40
2.65
  0
CIRCLE
  8
0
 10
-487.610138
 20
148.790868
 30
0.0
 40
10.25
  0
LINE
  8
0
 10
-467.782633
 20
164.961317
 30
0.0
 11
-442.782633
 21
164.961317
 31
0.0
  0
LINE
  8
0
 10
-467.032633
 20
168.461317
 30
0.0
 11
-443.532633
 21
168.461317
 31
0.0
  0
LINE
  8
0
 10
-467.782633
 20
167.711317
 30
0.0
 11
-467.782633
 21
164.961317
 31
0.0
  0
LINE
  8
0
 10
-442.782633
 20
164.961317
 30
0.0
 11
-442.782633
 21
167.711317
 31
0.0
  0
LINE
  8
0
  6
CENTER
 39
4.0
 10
-455.282633
 20
161.408368
 30
0.0
 11
-455.282633
 21
172.067215
 31
0.0
  0
LINE
  8
0
 10
-457.932633
 20
164.961317
 30
0.0
 11
-457.932633
 21
165.361317
 31
0.0
  0
LINE
  8
0
 10
-460.282633
 20
167.711317
 30
0.0
 11
-460.282633
 21
168.461317
 31
0.0
  0
LINE
  8
0
 10
-460.282633
 20
167.711317
 30
0.0
 11
-442.782633
 21
167.711317
 31
0.0
  0
LINE
  8
0
 10
-460.282633
 20
167.711317
 30
0.0
 11
-457.932633
 21
165.361317
 31
0.0
  0
LINE
  8
0
 10
-457.932633
 20
165.361317
 30
0.0
 11
-455.282633
 21
165.361317
 31
0.0
  0
LINE
  8
0
 10
-442.782633
 20
167.711317
 30
0.0
 11
-443.532633
 21
168.461317
 31
0.0
  0
LINE
  8
0
 10
-467.032633
 20
168.461317
 30
0.0
 11
-467.782633
 21
167.711317
 31
0.0
  0
CIRCLE
  8
0
 10
-455.282633
 20
145.518422
 30
0.0
 40
12.5
  0
CIRCLE
  8
0
 10
-455.282633
 20
145.518422
 30
0.0
 40
11.75
  0
CIRCLE
  8
0
 10
-455.282633
 20
145.518422
 30
0.0
 40
2.65
  0
CIRCLE
  8
0
 10
-455.282633
 20
145.518422
 30
0.0
 40
5.0
  0
LINE
  8
0
 10
-432.432931
 20
164.961317
 30
0.0
 11
-404.432931
 21
164.961317
 31
0.0
  0
LINE
  8
0
 10
-431.682931
 20
168.461317
 30
0.0
 11
-405.182931
 21
168.461317
 31
0.0
  0
LINE
  8
0
 10
-432.432931
 20
167.711317
 30
0.0
 11
-432.432931
 21
164.961317
 31
0.0
  0
LINE
  8
0
 10
-404.432931
 20
167.711317
 30
0.0
 11
-404.432931
 21
164.961317
 31
0.0
  0
LINE
  8
0
  6
CENTER
 39
4.0
 10
-418.432931
 20
162.406732
 30
0.0
 11
-418.432931
 21
171.603237
 31
0.0
  0
LINE
  8
0
 10
-421.082931
 20
164.961317
 30
0.0
 11
-421.082931
 21
165.361317
 31
0.0
  0
LINE
  8
0
 10
-423.432931
 20
167.711317
 30
0.0
 11
-423.432931
 21
168.461317
 31
0.0
  0
LINE
  8
0
 10
-423.432931
 20
167.711317
 30
0.0
 11
-404.432931
 21
167.711317
 31
0.0
  0
LINE
  8
0
 10
-423.432931
 20
167.711317
 30
0.0
 11
-421.082931
 21
165.361317
 31
0.0
  0
LINE
  8
0
 10
-421.082931
 20
165.361317
 30
0.0
 11
-418.432931
 21
165.361317
 31
0.0
  0
LINE
  8
0
 10
-404.432931
 20
167.711317
 30
0.0
 11
-405.182931
 21
168.461317
 31
0.0
  0
LINE
  8
0
 10
-431.682931
 20
168.461317
 30
0.0
 11
-432.432931
 21
167.711317
 31
0.0
  0
CIRCLE
  8
0
 10
-418.432931
 20
144.313421
 30
0.0
 40
14.0
  0
CIRCLE
  8
0
 10
-418.432931
 20
144.313421
 30
0.0
 40
13.25
  0
CIRCLE
  8
0
 10
-418.432931
 20
144.313421
 30
0.0
 40
2.65
  0
CIRCLE
  8
0
 10
-418.432931
 20
144.313421
 30
0.0
 40
5.0
  0
LINE
  8
0
 10
-393.377007
 20
164.961317
 30
0.0
 11
-361.377007
 21
164.961317
 31
0.0
  0
LINE
  8
0
 10
-392.477007
 20
168.961317
 30
0.0
 11
-362.277007
 21
168.961317
 31
0.0
  0
LINE
  8
0
 10
-393.377007
 20
168.061317
 30
0.0
 11
-393.377007
 21
164.961317
 31
0.0
  0
LINE
  8
0
 10
-361.377007
 20
168.061317
 30
0.0
 11
-361.377007
 21
164.961317
 31
0.0
  0
LINE
  8
0
  6
CENTER
 39
4.0
 10
-377.377007
 20
161.37103
 30
0.0
 11
-377.377007
 21
171.401159
 31
0.0
  0
LINE
  8
0
 10
-380.577007
 20
164.961317
 30
0.0
 11
-380.577007
 21
165.411317
 31
0.0
  0
LINE
  8
0
 10
-383.377007
 20
168.211317
 30
0.0
 11
-383.377007
 21
168.961317
 31
0.0
  0
LINE
  8
0
 10
-383.377007
 20
168.211317
 30
0.0
 11
-377.377007
 21
168.211317
 31
0.0
  0
LINE
  8
0
 10
-361.377007
 20
168.061317
 30
0.0
 11
-362.277007
 21
168.961317
 31
0.0
  0
LINE
  8
0
 10
-393.377007
 20
168.061317
 30
0.0
 11
-392.477007
 21
168.961317
 31
0.0
  0
LINE
  8
0
 10
-361.377007
 20
168.061317
 30
0.0
 11
-377.377007
 21
168.061317
 31
0.0
  0
LINE
  8
0
 10
-383.377007
 20
168.211317
 30
0.0
 11
-380.577007
 21
165.411317
 31
0.0
  0
LINE
  8
0
 10
-380.577007
 20
165.411317
 30
0.0
 11
-377.377007
 21
165.411317
 31
0.0
  0
CIRCLE
  8
0
 10
-377.377007
 20
142.387666
 30
0.0
 40
16.0
  0
CIRCLE
  8
0
 10
-377.377007
 20
142.387666
 30
0.0
 40
6.0
  0
CIRCLE
  8
0
 10
-377.377007
 20
142.387666
 30
0.0
 40
3.2
  0
CIRCLE
  8
0
 10
-377.377007
 20
142.387666
 30
0.0
 40
15.1
  0
LINE
  8
0
 10
-554.699723
 20
111.087051
 30
0.0
 11
-518.699723
 21
111.087051
 31
0.0
  0
LINE
  8
0
 10
-553.699723
 20
115.087051
 30
0.0
 11
-519.699723
 21
115.087051
 31
0.0
  0
LINE
  8
0
 10
-554.699723
 20
114.087051
 30
0.0
 11
-554.699723
 21
111.087051
 31
0.0
  0
LINE
  8
0
 10
-518.699723
 20
114.087051
 30
0.0
 11
-518.699723
 21
111.087051
 31
0.0
  0
LINE
  8
0
  6
CENTER
 10
-536.699723
 20
105.925615
 30
0.0
 11
-536.699723
 21
119.372499
 31
0.0
  0
LINE
  8
0
 10
-539.899723
 20
111.087051
 30
0.0
 11
-539.899723
 21
111.537051
 31
0.0
  0
LINE
  8
0
 10
-542.699723
 20
114.337051
 30
0.0
 11
-542.699723
 21
115.087051
 31
0.0
  0
LINE
  8
0
 10
-542.699723
 20
114.337051
 30
0.0
 11
-536.699723
 21
114.337051
 31
0.0
  0
LINE
  8
0
 10
-542.699723
 20
114.337051
 30
0.0
 11
-539.899723
 21
111.537051
 31
0.0
  0
LINE
  8
0
 10
-539.899723
 20
111.537051
 30
0.0
 11
-536.699723
 21
111.537051
 31
0.0
  0
LINE
  8
0
 10
-518.699723
 20
114.087051
 30
0.0
 11
-519.699723
 21
115.087051
 31
0.0
  0
LINE
  8
0
 10
-553.699723
 20
115.087051
 30
0.0
 11
-554.699723
 21
114.087051
 31
0.0
  0
LINE
  8
0
 10
-518.699723
 20
114.087051
 30
0.0
 11
-536.699723
 21
114.087051
 31
0.0
  0
CIRCLE
  8
0
 10
-536.699723
 20
85.540009
 30
0.0
 40
18.0
  0
CIRCLE
  8
0
 10
-536.699723
 20
85.540009
 30
0.0
 40
17.0
  0
CIRCLE
  8
0
 10
-536.699723
 20
85.540009
 30
0.0
 40
3.2
  0
CIRCLE
  8
0
 10
-536.699723
 20
85.540009
 30
0.0
 40
6.0
  0
LINE
  8
0
 10
-509.147426
 20
111.087051
 30
0.0
 11
-469.147426
 21
111.087051
 31
0.0
  0
LINE
  8
0
 10
-508.147426
 20
116.087051
 30
0.0
 11
-470.147426
 21
116.087051
 31
0.0
  0
LINE
  8
0
 10
-509.147426
 20
115.087051
 30
0.0
 11
-509.147426
 21
111.087051
 31
0.0
  0
LINE
  8
0
 10
-469.147426
 20
115.087051
 30
0.0
 11
-469.147426
 21
111.087051
 31
0.0
  0
LINE
  8
0
  6
CENTER
 10
-489.147426
 20
106.003962
 30
0.0
 11
-489.147426
 21
121.644236
 31
0.0
  0
LINE
  8
0
 10
-492.347426
 20
111.087051
 30
0.0
 11
-492.347426
 21
112.537051
 31
0.0
  0
LINE
  8
0
 10
-495.147426
 20
115.337051
 30
0.0
 11
-495.147426
 21
116.087051
 31
0.0
  0
LINE
  8
0
 10
-495.147426
 20
115.337051
 30
0.0
 11
-489.147426
 21
115.337051
 31
0.0
  0
LINE
  8
0
 10
-495.147426
 20
115.337051
 30
0.0
 11
-492.347426
 21
112.537051
 31
0.0
  0
LINE
  8
0
 10
-492.347426
 20
112.537051
 30
0.0
 11
-489.147426
 21
112.537051
 31
0.0
  0
LINE
  8
0
 10
-469.147426
 20
115.087051
 30
0.0
 11
-470.147426
 21
116.087051
 31
0.0
  0
LINE
  8
0
 10
-508.147426
 20
116.087051
 30
0.0
 11
-509.147426
 21
115.087051
 31
0.0
  0
LINE
  8
0
 10
-469.147426
 20
115.087051
 30
0.0
 11
-489.147426
 21
115.087051
 31
0.0
  0
CIRCLE
  8
0
 10
-489.147426
 20
83.339987
 30
0.0
 40
20.0
  0
CIRCLE
  8
0
 10
-489.147426
 20
83.339987
 30
0.0
 40
19.0
  0
CIRCLE
  8
0
 10
-489.147426
 20
83.339987
 30
0.0
 40
6.0
  0
CIRCLE
  8
0
 10
-489.147426
 20
83.339987
 30
0.0
 40
3.2
  0
LINE
  8
0
 10
-459.177813
 20
111.087051
 30
0.0
 11
-414.177813
 21
111.087051
 31
0.0
  0
LINE
  8
0
 10
-457.977813
 20
117.087051
 30
0.0
 11
-415.377813
 21
117.087051
 31
0.0
  0
LINE
  8
0
 10
-459.177813
 20
115.887051
 30
0.0
 11
-459.177813
 21
111.087051
 31
0.0
  0
LINE
  8
0
 10
-414.177813
 20
115.887051
 30
0.0
 11
-414.177813
 21
111.087051
 31
0.0
  0
LINE
  8
0
  6
CENTER
 10
-436.677813
 20
104.56102
 30
0.0
 11
-436.677813
 21
122.904651
 31
0.0
  0
LINE
  8
0
 10
-439.877813
 20
111.087051
 30
0.0
 11
-439.877813
 21
113.537051
 31
0.0
  0
LINE
  8
0
 10
-442.677813
 20
116.337051
 30
0.0
 11
-442.677813
 21
117.087051
 31
0.0
  0
LINE
  8
0
 10
-442.677813
 20
116.337051
 30
0.0
 11
-436.677813
 21
116.337051
 31
0.0
  0
LINE
  8
0
 10
-442.677813
 20
116.337051
 30
0.0
 11
-439.877813
 21
113.537051
 31
0.0
  0
LINE
  8
0
 10
-439.877813
 20
113.537051
 30
0.0
 11
-436.677813
 21
113.537051
 31
0.0
  0
LINE
  8
0
 10
-414.177813
 20
115.887051
 30
0.0
 11
-415.377813
 21
117.087051
 31
0.0
  0
LINE
  8
0
 10
-457.977813
 20
117.087051
 30
0.0
 11
-459.177813
 21
115.887051
 31
0.0
  0
LINE
  8
0
 10
-414.177813
 20
115.887051
 30
0.0
 11
-436.677813
 21
115.887051
 31
0.0
  0
CIRCLE
  8
0
 10
-436.677813
 20
79.882452
 30
0.0
 40
22.5
  0
CIRCLE
  8
0
 10
-436.677813
 20
79.882452
 30
0.0
 40
21.3
  0
CIRCLE
  8
0
 10
-436.677813
 20
79.882452
 30
0.0
 40
6.0
  0
CIRCLE
  8
0
 10
-436.677813
 20
79.882452
 30
0.0
 40
3.2
  0
LINE
  8
0
 10
-405.834978
 20
111.087051
 30
0.0
 11
-353.834978
 21
111.087051
 31
0.0
  0
LINE
  8
0
 10
-403.834978
 20
117.087051
 30
0.0
 11
-355.834978
 21
117.087051
 31
0.0
  0
LINE
  8
0
 10
-405.834978
 20
115.087051
 30
0.0
 11
-405.834978
 21
111.087051
 31
0.0
  0
LINE
  8
0
 10
-353.834978
 20
115.087051
 30
0.0
 11
-353.834978
 21
111.087051
 31
0.0
  0
LINE
  8
0
  6
CENTER
 10
-379.834978
 20
105.2752
 30
0.0
 11
-379.834978
 21
122.881442
 31
0.0
  0
LINE
  8
0
 10
-383.034978
 20
111.087051
 30
0.0
 11
-383.034978
 21
113.537051
 31
0.0
  0
LINE
  8
0
 10
-385.834978
 20
116.337051
 30
0.0
 11
-385.834978
 21
117.087051
 31
0.0
  0
LINE
  8
0
 10
-385.834978
 20
116.337051
 30
0.0
 11
-379.834978
 21
116.337051
 31
0.0
  0
LINE
  8
0
 10
-385.834978
 20
116.337051
 30
0.0
 11
-383.034978
 21
113.537051
 31
0.0
  0
LINE
  8
0
 10
-383.034978
 20
113.537051
 30
0.0
 11
-379.834978
 21
113.537051
 31
0.0
  0
LINE
  8
0
 10
-353.834978
 20
115.087051
 30
0.0
 11
-355.834978
 21
117.087051
 31
0.0
  0
LINE
  8
0
 10
-403.834978
 20
117.087051
 30
0.0
 11
-405.834978
 21
115.087051
 31
0.0
  0
LINE
  8
0
 10
-353.834978
 20
115.087051
 30
0.0
 11
-379.834978
 21
115.087051
 31
0.0
  0
CIRCLE
  8
0
 10
-379.834978
 20
75.391586
 30
0.0
 40
26.0
  0
CIRCLE
  8
0
 10
-379.834978
 20
75.391586
 30
0.0
 40
24.0
  0
CIRCLE
  8
0
 10
-379.834978
 20
75.391586
 30
0.0
 40
3.2
  0
CIRCLE
  8
0
 10
-379.834978
 20
75.391586
 30
0.0
 40
6.0
  0
INSERT
  8
0
  2
*X0
 10
-12.784
 20
-15.072929
 30
0.0
  0
INSERT
  8
0
  2
*X1
 10
-15.056064
 20
-14.765704
 30
0.0
  0
INSERT
  8
0
  2
*X2
 10
-13.912572
 20
-14.808668
 30
0.0
  0
INSERT
  8
0
  2
*X3
 10
-13.692825
 20
-15.944097
 30
0.0
  0
INSERT
  8
0
  2
*X4
 10
-17.109574
 20
-16.392352
 30
0.0
  0
INSERT
  8
0
  2
*X5
 10
-3.635302
 20
13.677912
 30
0.0
  0
INSERT
  8
0
  2
*X6
 10
-3.320741
 20
14.524335
 30
0.0
  0
INSERT
  8
0
  2
*X7
 10
0.0
 20
18.533266
 30
0.0
  0
INSERT
  8
0
  2
*X8
 10
2.138369
 20
16.855492
 30
0.0
  0
INSERT
  8
0
  2
*X9
 10
-15.056064
 20
-17.61642
 30
0.0
  0
ENDSEC
  0
EOF
